  0
SECTION
  2
HEADER
  9
$ACADVER
  1
AC1009
  9
$INSBASE
 10
0.0
 20
0.0
 30
0.0
  9
$EXTMIN
 10
-21.317709096400002
 20
-15.3589345013
 30
0.0
  9
$EXTMAX
 10
24.44365405260001
 20
16.439257439999992
 30
0.0
  9
$LIMMIN
 10
0.0
 20
0.0
  9
$LIMMAX
 10
148.0
 20
210.0
  9
$ORTHOMODE
 70
     0
  9
$REGENMODE
 70
     1
  9
$FILLMODE
 70
     1
  9
$QTEXTMODE
 70
     0
  9
$MIRRTEXT
 70
     1
  9
$DRAGMODE
 70
     2
  9
$LTSCALE
 40
25.399999999999999
  9
$OSMODE
 70
    37
  9
$ATTMODE
 70
     1
  9
$TEXTSIZE
 40
0.2
  9
$TRACEWID
 40
0.05
  9
$TEXTSTYLE
  7
STANDARD
  9
$CLAYER
  8
0
  9
$CELTYPE
  6
BYLAYER
  9
$CECOLOR
 62
   256
  9
$DIMSCALE
 40
1.0
  9
$DIMASZ
 40
0.18
  9
$DIMEXO
 40
0.0625
  9
$DIMDLI
 40
0.38
  9
$DIMRND
 40
0.0
  9
$DIMDLE
 40
0.0
  9
$DIMEXE
 40
0.18
  9
$DIMTP
 40
0.0
  9
$DIMTM
 40
0.0
  9
$DIMTXT
 40
0.18
  9
$DIMCEN
 40
0.09
  9
$DIMTSZ
 40
0.0
  9
$DIMTOL
 70
     0
  9
$DIMLIM
 70
     0
  9
$DIMTIH
 70
     1
  9
$DIMTOH
 70
     1
  9
$DIMSE1
 70
     0
  9
$DIMSE2
 70
     0
  9
$DIMTAD
 70
     0
  9
$DIMZIN
 70
     0
  9
$DIMBLK
  1

  9
$DIMASO
 70
     1
  9
$DIMSHO
 70
     1
  9
$DIMPOST
  1

  9
$DIMAPOST
  1

  9
$DIMALT
 70
     0
  9
$DIMALTD
 70
     2
  9
$DIMALTF
 40
25.399999999999999
  9
$DIMLFAC
 40
1.0
  9
$DIMTOFL
 70
     0
  9
$DIMTVP
 40
0.0
  9
$DIMTIX
 70
     0
  9
$DIMSOXD
 70
     0
  9
$DIMSAH
 70
     0
  9
$DIMBLK1
  1

  9
$DIMBLK2
  1

  9
$DIMSTYLE
  2
STANDARD
  9
$DIMCLRD
 70
     0
  9
$DIMCLRE
 70
     0
  9
$DIMCLRT
 70
     0
  9
$DIMTFAC
 40
1.0
  9
$DIMGAP
 40
0.09
  9
$LUNITS
 70
     2
  9
$LUPREC
 70
     4
  9
$SKETCHINC
 40
0.1
  9
$FILLETRAD
 40
0.5
  9
$AUNITS
 70
     0
  9
$AUPREC
 70
     0
  9
$MENU
  1
.
  9
$ELEVATION
 40
0.0
  9
$PELEVATION
 40
0.0
  9
$THICKNESS
 40
0.0
  9
$LIMCHECK
 70
     0
  9
$BLIPMODE
 70
     0
  9
$CHAMFERA
 40
0.5
  9
$CHAMFERB
 40
0.5
  9
$SKPOLY
 70
     0
  9
$TDCREATE
 40
2453828.778481435
  9
$TDUPDATE
 40
2453829.8250739579
  9
$TDINDWG
 40
0.0000920602
  9
$TDUSRTIMER
 40
0.000091875
  9
$USRTIMER
 70
     1
  9
$ANGBASE
 50
0.0
  9
$ANGDIR
 70
     0
  9
$PDMODE
 70
     0
  9
$PDSIZE
 40
0.0
  9
$PLINEWID
 40
0.0
  9
$COORDS
 70
     1
  9
$SPLFRAME
 70
     0
  9
$SPLINETYPE
 70
     6
  9
$SPLINESEGS
 70
     8
  9
$ATTDIA
 70
     0
  9
$ATTREQ
 70
     1
  9
$HANDLING
 70
     1
  9
$HANDSEED
  5
87
  9
$SURFTAB1
 70
     6
  9
$SURFTAB2
 70
     6
  9
$SURFTYPE
 70
     6
  9
$SURFU
 70
     6
  9
$SURFV
 70
     6
  9
$UCSNAME
  2

  9
$UCSORG
 10
0.0
 20
0.0
 30
0.0
  9
$UCSXDIR
 10
1.0
 20
0.0
 30
0.0
  9
$UCSYDIR
 10
0.0
 20
1.0
 30
0.0
  9
$PUCSNAME
  2

  9
$PUCSORG
 10
0.0
 20
0.0
 30
0.0
  9
$PUCSXDIR
 10
1.0
 20
0.0
 30
0.0
  9
$PUCSYDIR
 10
0.0
 20
1.0
 30
0.0
  9
$USERI1
 70
     0
  9
$USERI2
 70
     0
  9
$USERI3
 70
     0
  9
$USERI4
 70
     0
  9
$USERI5
 70
     0
  9
$USERR1
 40
0.0
  9
$USERR2
 40
0.0
  9
$USERR3
 40
0.0
  9
$USERR4
 40
0.0
  9
$USERR5
 40
0.0
  9
$WORLDVIEW
 70
     1
  9
$SHADEDGE
 70
     3
  9
$SHADEDIF
 70
    70
  9
$TILEMODE
 70
     1
  9
$MAXACTVP
 70
    64
  9
$PLIMCHECK
 70
     0
  9
$PEXTMIN
 10
0.0
 20
0.0
 30
0.0
  9
$PEXTMAX
 10
148.0
 20
210.0
 30
0.0
  9
$PLIMMIN
 10
0.0
 20
0.0
  9
$PLIMMAX
 10
12.0
 20
9.0
  9
$UNITMODE
 70
     0
  9
$VISRETAIN
 70
     1
  9
$PLINEGEN
 70
     0
  9
$PSLTSCALE
 70
     1
  0
ENDSEC
  0
SECTION
  2
TABLES
  0
TABLE
  2
VPORT
 70
     2
  0
VPORT
  2
*ACTIVE
 70
     0
 10
0.0
 20
0.0
 11
1.0
 21
1.0
 12
10.429906542099999
 22
4.7706113051351737
 13
0.0
 23
0.0
 14
0.5
 24
0.5
 15
0.5
 25
0.5
 16
0.0
 26
0.0
 36
1.0
 17
0.0
 27
0.0
 37
0.0
 40
9.5412226102703492
 41
1.8610567514677101
 42
50.0
 43
0.0
 44
0.0
 50
0.0
 51
0.0
 71
     0
 72
   100
 73
     1
 74
     3
 75
     0
 76
     0
 77
     0
 78
     0
  0
ENDTAB
  0
TABLE
  2
LTYPE
 70
     1
  0
LTYPE
  2
CONTINUOUS
 70
     0
  3
Solid line
 72
    65
 73
     0
 40
0.0
  0
ENDTAB
  0
TABLE
  2
LAYER
 70
     2
  0
LAYER
  2
0
 70
     0
 62
     7
  6
CONTINUOUS
  0
LAYER
  2
PLATINE-HALLSENS
 70
     0
 62
     7
  6
CONTINUOUS
  0
ENDTAB
  0
TABLE
  2
STYLE
 70
     1
  0
STYLE
  2
STANDARD
 70
     0
 40
0.0
 41
1.0
 50
0.0
 71
     0
 42
0.2
  3
txt
  4

  0
ENDTAB
  0
TABLE
  2
VIEW
 70
     0
  0
ENDTAB
  0
TABLE
  2
UCS
 70
     0
  0
ENDTAB
  0
TABLE
  2
APPID
 70
     1
  0
APPID
  2
ACAD
 70
     0
  0
ENDTAB
  0
TABLE
  2
DIMSTYLE
 70
     1
  0
DIMSTYLE
  2
STANDARD
 70
     0
  3

  4

  5

  6

  7

 40
1.0
 41
0.18
 42
0.0625
 43
0.38
 44
0.18
 45
0.0
 46
0.0
 47
0.0
 48
0.0
140
0.18
141
0.09
142
0.0
143
25.399999999999999
144
1.0
145
0.0
146
1.0
147
0.09
 71
     0
 72
     0
 73
     1
 74
     1
 75
     0
 76
     0
 77
     0
 78
     0
170
     0
171
     2
172
     0
173
     0
174
     0
175
     0
176
     0
177
     0
178
     0
  0
ENDTAB
  0
ENDSEC
  0
SECTION
  2
BLOCKS
  0
BLOCK
  8
0
  2
$MODEL_SPACE
 70
     0
 10
0.0
 20
0.0
 30
0.0
  3
$MODEL_SPACE
  1

  0
ENDBLK
  5
6D
  8
0
  0
BLOCK
 67
     1
  8
0
  2
$PAPER_SPACE
 70
     0
 10
0.0
 20
0.0
 30
0.0
  3
$PAPER_SPACE
  1

  0
ENDBLK
  5
69
 67
     1
  8
0
  0
BLOCK
  8
0
  2
SE
 70
     0
 10
0.0
 20
0.0
 30
0.0
  3
SE
  1

  0
LINE
  5
31
  8
PLATINE-HALLSENS
  6
CONTINUOUS
 62
     7
 10
9.6109235285000008
 20
8.7944979845000013
 30
0.0
 11
10.017937330900001
 21
15.782655092400001
 31
0.0
  0
LINE
  5
32
  8
PLATINE-HALLSENS
  6
CONTINUOUS
 62
     7
 10
5.4280123453999991
 20
9.0381248176999982
 30
0.0
 11
9.6109235285000008
 21
8.7944979845000013
 31
0.0
  0
LINE
  5
33
  8
PLATINE-HALLSENS
  6
CONTINUOUS
 62
     7
 10
10.017937330900001
 20
15.782655092400001
 30
0.0
 11
5.8350261476999989
 21
16.026281925599999
 31
0.0
  0
LINE
  5
34
  8
PLATINE-HALLSENS
  6
CONTINUOUS
 62
     7
 10
5.8350261476999989
 20
16.026281925599999
 30
0.0
 11
5.4280123453999991
 21
9.0381248176999982
 31
0.0
  0
LINE
  5
35
  8
PLATINE-HALLSENS
  6
CONTINUOUS
 62
     7
 10
-2.7390304362999989
 20
16.024537580699999
 30
0.0
 11
-6.9219416194000001
 21
15.7809107476
 31
0.0
  0
LINE
  5
36
  8
PLATINE-HALLSENS
  6
CONTINUOUS
 62
     7
 10
18.195907743500001
 20
-15.3589345013
 30
0.0
 11
24.44365405260001
 21
14.0344009007
 31
0.0
  0
ARC
  5
37
  8
PLATINE-HALLSENS
  6
CONTINUOUS
 62
     7
 10
1.5629724781000001
 20
-93.610742560000006
 30
0.0
 40
110.05
 50
78.0
 51
102.0
  0
ARC
  5
38
  8
PLATINE-HALLSENS
  6
CONTINUOUS
 62
     7
 10
1.5629724781000001
 20
-93.610742560000006
 30
0.0
 40
80.000000000000014
 50
78.0
 51
102.0
  0
LINE
  5
39
  8
PLATINE-HALLSENS
  6
CONTINUOUS
 62
     7
 10
-21.317709096400002
 20
14.0344009007
 30
0.0
 11
-15.0699627873
 21
-15.3589345013
 31
0.0
  0
LINE
  5
3A
  8
PLATINE-HALLSENS
  6
CONTINUOUS
 62
     7
 10
-0.5470275219
 20
16.0891912622
 30
0.0
 11
-0.5470275219
 21
9.0891912621999982
 31
0.0
  0
LINE
  5
3B
  8
PLATINE-HALLSENS
  6
CONTINUOUS
 62
     7
 10
-6.5149278171000002
 20
8.7927536397000008
 30
0.0
 11
-2.332016633899999
 21
9.0363804727999995
 31
0.0
  0
LINE
  5
3C
  8
PLATINE-HALLSENS
  6
CONTINUOUS
 62
     7
 10
3.642972478099999
 20
9.0891912621999982
 30
0.0
 11
3.642972478099999
 21
16.0891912622
 31
0.0
  0
LINE
  5
3D
  8
PLATINE-HALLSENS
  6
CONTINUOUS
 62
     7
 10
-0.5470275219
 20
9.0891912621999982
 30
0.0
 11
3.642972478099999
 21
9.0891912621999982
 31
0.0
  0
LINE
  5
3E
  8
PLATINE-HALLSENS
  6
CONTINUOUS
 62
     7
 10
-2.332016633899999
 20
9.0363804727999995
 30
0.0
 11
-2.7390304362999989
 21
16.024537580699999
 31
0.0
  0
LINE
  5
3F
  8
PLATINE-HALLSENS
  6
CONTINUOUS
 62
     7
 10
3.642972478099999
 20
16.0891912622
 30
0.0
 11
-0.5470275219
 21
16.0891912622
 31
0.0
  0
LINE
  5
40
  8
PLATINE-HALLSENS
  6
CONTINUOUS
 62
     7
 10
-6.9219416194000001
 20
15.7809107476
 30
0.0
 11
-6.5149278171000002
 21
8.7927536397000008
 31
0.0
  0
CIRCLE
  5
41
  8
PLATINE-HALLSENS
  6
CONTINUOUS
 62
     7
 10
14.7844170693
 20
0.4647239704
 30
0.0
 40
2.0499999999999989
  0
CIRCLE
  5
42
  8
PLATINE-HALLSENS
  6
CONTINUOUS
 62
     7
 10
-11.6584721131
 20
0.4647239704
 30
0.0
 40
2.0499999999999989
  0
ENDBLK
  5
47
  8
0
  0
ENDSEC
  0
SECTION
  2
ENTITIES
  0
INSERT
  5
2F
  8
0
  2
SE
 10
0.0
 20
0.0
 30
0.0
  0
ENDSEC
  0
EOF
