  0
SECTION
  2
HEADER
  9
$EXTMIN
 10
-54.457600
 20
-45.491400
  9
$EXTMAX
 10
42.748200
 20
-1.092200
  9
$LIMMIN
 10
-54.457600
 20
-45.491400
  9
$LIMMAX
 10
42.748200
 20
-1.092200
  9
$FILLMODE
 70
  1
  0
ENDSEC
  0
SECTION
  2
TABLES
  0
TABLE
  2
LTYPE
 70
  1
  0
LTYPE
  2
CONTINUOUS
 70
 64
  3
Solid line
 72
 65
 73
  0
 40
0.0
  0
ENDTAB
  0
TABLE
  2
LAYER
 70
 1
  0
LAYER
  2
0
 70
  0
 62
7
  6
CONTINUOUS
  0
LAYER
  2
gtl
 70
  0
 62
1
  6
CONTINUOUS
  0
ENDTAB
  0
TABLE
  2
STYLE
 70
  1
  0
STYLE
  2
STANDARD
 70
  0
 40
0.0
 41
1.0
 50
0.0
 71
  0
 42
0.2
  3
txt
  4

  0
ENDTAB
  0
ENDSEC
  0
SECTION
  2
BLOCKS
  0
BLOCK
  8
0
  2
D10
 70
64
 10
0.0
 20
0.0
  3
D10
  0
POLYLINE
  8
0
 66
1
 10
0.0
 20
0.0
 70
1
 40
0.005000
 41
0.005000
  0
VERTEX
  8
0
 10
-0.002500
 20
0.0
 42
1.0
  0
VERTEX
  8
0
 10
0.002500
 20
0.0
 42
1.0
  0
SEQEND
  8
0
 0
ENDBLK
  8
0
  0
BLOCK
  8
0
  2
D1010
 70
64
 10
0.0
 20
0.0
  3
D1010
 0
ENDBLK
  8
0
  0
ENDSEC
  0
SECTION
  2
ENTITIES
  0
POLYLINE
  8
gtl
 62
1
 40
0.000000
 41
0.000000
 66
  1
  0
VERTEX
  8
gtl
 10
-7.800016
 20
-10.500021
  0
VERTEX
  8
gtl
 10
-2.100004
 20
-10.500021
  0
VERTEX
  8
gtl
 10
-2.100004
 20
-9.000018
  0
VERTEX
  8
gtl
 10
-7.800016
 20
-9.000018
  0
VERTEX
  8
gtl
 10
-7.800016
 20
-10.500021
  0
SEQEND
  8
gtl
  0
POLYLINE
  8
gtl
 62
1
 40
0.000000
 41
0.000000
 66
  1
  0
VERTEX
  8
gtl
 10
-2.100004
 20
-10.125020
  0
VERTEX
  8
gtl
 10
3.700007
 20
-10.125020
  0
VERTEX
  8
gtl
 10
3.700007
 20
-9.375019
  0
VERTEX
  8
gtl
 10
-2.100004
 20
-9.375019
  0
VERTEX
  8
gtl
 10
-2.100004
 20
-10.125020
  0
SEQEND
  8
gtl
  0
POLYLINE
  8
gtl
 62
1
 40
0.000000
 41
0.000000
 66
  1
  0
VERTEX
  8
gtl
 10
-19.950040
 20
-17.775036
  0
VERTEX
  8
gtl
 10
-19.950040
 20
-23.475047
  0
VERTEX
  8
gtl
 10
-19.200038
 20
-23.475047
  0
VERTEX
  8
gtl
 10
-19.200038
 20
-17.775036
  0
VERTEX
  8
gtl
 10
-19.950040
 20
-17.775036
  0
SEQEND
  8
gtl
  0
POLYLINE
  8
gtl
 62
1
 40
0.000000
 41
0.000000
 66
  1
  0
VERTEX
  8
gtl
 10
-25.650051
 20
-17.575035
  0
VERTEX
  8
gtl
 10
-19.950040
 20
-17.575035
  0
VERTEX
  8
gtl
 10
-19.950040
 20
-16.075032
  0
VERTEX
  8
gtl
 10
-25.650051
 20
-16.075032
  0
VERTEX
  8
gtl
 10
-25.650051
 20
-17.575035
  0
SEQEND
  8
gtl
  0
POLYLINE
  8
gtl
 62
1
 40
0.000000
 41
0.000000
 66
  1
  0
VERTEX
  8
gtl
 10
-25.150050
 20
-34.225068
  0
VERTEX
  8
gtl
 10
-25.150050
 20
-16.825034
  0
VERTEX
  8
gtl
 10
-26.150052
 20
-16.825034
  0
VERTEX
  8
gtl
 10
-26.150052
 20
-34.225068
  0
VERTEX
  8
gtl
 10
-25.150050
 20
-34.225068
  0
SEQEND
  8
gtl
  0
POLYLINE
  8
gtl
 62
1
 40
0.000000
 41
0.000000
 66
  1
  0
VERTEX
  8
gtl
 10
-25.296498
 20
-33.871515
  0
VERTEX
  8
gtl
 10
-14.381514
 20
-36.796176
  0
VERTEX
  8
gtl
 10
-14.737920
 20
-37.911113
  0
VERTEX
  8
gtl
 10
-15.198694
 20
-38.987123
  0
VERTEX
  8
gtl
 10
-15.759665
 20
-40.014462
  0
VERTEX
  8
gtl
 10
-16.415748
 20
-40.983825
  0
VERTEX
  8
gtl
 10
-17.161005
 20
-41.886434
  0
VERTEX
  8
gtl
 10
-17.988686
 20
-42.714114
  0
VERTEX
  8
gtl
 10
-18.891295
 20
-43.459372
  0
VERTEX
  8
gtl
 10
-19.860658
 20
-44.115455
  0
VERTEX
  8
gtl
 10
-20.887997
 20
-44.676425
  0
VERTEX
  8
gtl
 10
-21.964007
 20
-45.137199
  0
VERTEX
  8
gtl
 10
-23.078944
 20
-45.493606
  0
VERTEX
  8
gtl
 10
-26.003605
 20
-34.578622
  0
VERTEX
  8
gtl
 10
-25.296498
 20
-33.871515
  0
SEQEND
  8
gtl
  0
POLYLINE
  8
gtl
 62
1
 40
0.000000
 41
0.000000
 66
  1
  0
VERTEX
  8
gtl
 10
-43.050086
 20
-34.725069
  0
VERTEX
  8
gtl
 10
-25.650051
 20
-34.725069
  0
VERTEX
  8
gtl
 10
-25.650051
 20
-33.725067
  0
VERTEX
  8
gtl
 10
-43.050086
 20
-33.725067
  0
VERTEX
  8
gtl
 10
-43.050086
 20
-34.725069
  0
SEQEND
  8
gtl
  0
POLYLINE
  8
gtl
 62
1
 40
0.000000
 41
0.000000
 66
  1
  0
VERTEX
  8
gtl
 10
-43.050086
 20
-34.725069
  0
VERTEX
  8
gtl
 10
-52.836193
 20
-40.375081
  0
VERTEX
  8
gtl
 10
-53.372555
 20
-39.334684
  0
VERTEX
  8
gtl
 10
-53.807593
 20
-38.248012
  0
VERTEX
  8
gtl
 10
-54.137365
 20
-37.124909
  0
VERTEX
  8
gtl
 10
-54.358887
 20
-35.975545
  0
VERTEX
  8
gtl
 10
-54.470152
 20
-34.810328
  0
VERTEX
  8
gtl
 10
-54.470152
 20
-33.639809
  0
VERTEX
  8
gtl
 10
-54.358887
 20
-32.474592
  0
VERTEX
  8
gtl
 10
-54.137365
 20
-31.325228
  0
VERTEX
  8
gtl
 10
-53.807593
 20
-30.202124
  0
VERTEX
  8
gtl
 10
-53.372555
 20
-29.115453
  0
VERTEX
  8
gtl
 10
-52.836193
 20
-28.075056
  0
VERTEX
  8
gtl
 10
-43.050086
 20
-33.725067
  0
VERTEX
  8
gtl
 10
-43.050086
 20
-34.725069
  0
SEQEND
  8
gtl
  0
POLYLINE
  8
gtl
 62
1
 40
0.000000
 41
0.000000
 66
  1
  0
VERTEX
  8
gtl
 10
13.500027
 20
-20.800042
  0
VERTEX
  8
gtl
 10
13.500027
 20
-3.000006
  0
VERTEX
  8
gtl
 10
13.000026
 20
-3.000006
  0
VERTEX
  8
gtl
 10
13.000026
 20
-20.800042
  0
VERTEX
  8
gtl
 10
13.500027
 20
-20.800042
  0
SEQEND
  8
gtl
  0
POLYLINE
  8
gtl
 62
1
 40
0.000000
 41
0.000000
 66
  1
  0
VERTEX
  8
gtl
 10
13.750028
 20
-20.800042
  0
VERTEX
  8
gtl
 10
19.400039
 20
-30.586148
  0
VERTEX
  8
gtl
 10
18.359642
 20
-31.122510
  0
VERTEX
  8
gtl
 10
17.272971
 20
-31.557548
  0
VERTEX
  8
gtl
 10
16.149867
 20
-31.887321
  0
VERTEX
  8
gtl
 10
15.000503
 20
-32.108842
  0
VERTEX
  8
gtl
 10
13.835286
 20
-32.220107
  0
VERTEX
  8
gtl
 10
12.664767
 20
-32.220107
  0
VERTEX
  8
gtl
 10
11.499550
 20
-32.108842
  0
VERTEX
  8
gtl
 10
10.350186
 20
-31.887321
  0
VERTEX
  8
gtl
 10
9.227082
 20
-31.557548
  0
VERTEX
  8
gtl
 10
8.140411
 20
-31.122510
  0
VERTEX
  8
gtl
 10
7.100014
 20
-30.586148
  0
VERTEX
  8
gtl
 10
12.750026
 20
-20.800042
  0
VERTEX
  8
gtl
 10
13.750028
 20
-20.800042
  0
SEQEND
  8
gtl
  0
POLYLINE
  8
gtl
 62
1
 40
0.000000
 41
0.000000
 66
  1
  0
VERTEX
  8
gtl
 10
-19.200038
 20
-17.775036
  0
VERTEX
  8
gtl
 10
-9.200018
 20
-17.775036
  0
VERTEX
  8
gtl
 10
-9.200018
 20
-15.875032
  0
VERTEX
  8
gtl
 10
-19.200038
 20
-15.875032
  0
VERTEX
  8
gtl
 10
-19.200038
 20
-17.775036
  0
SEQEND
  8
gtl
  0
POLYLINE
  8
gtl
 62
1
 40
0.000000
 41
0.000000
 66
  1
  0
VERTEX
  8
gtl
 10
3.000006
 20
-3.000006
  0
VERTEX
  8
gtl
 10
13.000026
 20
-3.000006
  0
VERTEX
  8
gtl
 10
13.000026
 20
-1.100002
  0
VERTEX
  8
gtl
 10
3.000006
 20
-1.100002
  0
VERTEX
  8
gtl
 10
3.000006
 20
-3.000006
  0
SEQEND
  8
gtl
  0
POLYLINE
  8
gtl
 62
1
 40
0.000000
 41
0.000000
 66
  1
  0
VERTEX
  8
gtl
 10
13.500027
 20
-3.000006
  0
VERTEX
  8
gtl
 10
16.300033
 20
-3.000006
  0
VERTEX
  8
gtl
 10
16.300033
 20
-1.100002
  0
VERTEX
  8
gtl
 10
13.500027
 20
-1.100002
  0
VERTEX
  8
gtl
 10
13.500027
 20
-3.000006
  0
SEQEND
  8
gtl
  0
POLYLINE
  8
gtl
 62
1
 40
0.000000
 41
0.000000
 66
  1
  0
VERTEX
  8
gtl
 10
16.300033
 20
-3.000006
  0
VERTEX
  8
gtl
 10
42.760086
 20
-3.000006
  0
VERTEX
  8
gtl
 10
42.760086
 20
-1.100002
  0
VERTEX
  8
gtl
 10
16.300033
 20
-1.100002
  0
VERTEX
  8
gtl
 10
16.300033
 20
-3.000006
  0
SEQEND
  8
gtl
  0
POLYLINE
  8
gtl
 62
1
 40
0.000000
 41
0.000000
 66
  1
  0
VERTEX
  8
gtl
 10
13.000026
 20
-3.000006
  0
VERTEX
  8
gtl
 10
13.000026
 20
-1.100002
  0
VERTEX
  8
gtl
 10
13.500027
 20
-1.100002
  0
VERTEX
  8
gtl
 10
13.500027
 20
-3.000006
  0
VERTEX
  8
gtl
 10
13.000026
 20
-3.000006
  0
SEQEND
  8
gtl
  0
POLYLINE
  8
gtl
 62
1
 40
0.000000
 41
0.000000
 66
  1
  0
VERTEX
  8
gtl
 10
13.500027
 20
-1.100002
  0
VERTEX
  8
gtl
 10
0.840002
 20
-1.100002
  0
VERTEX
  8
gtl
 10
0.840002
 20
-3.000006
  0
VERTEX
  8
gtl
 10
13.500027
 20
-3.000006
  0
VERTEX
  8
gtl
 10
13.500027
 20
-1.100002
  0
SEQEND
  8
gtl
  0
POLYLINE
  8
gtl
 62
1
 40
0.000000
 41
0.000000
 66
  1
  0
VERTEX
  8
gtl
 10
-19.950040
 20
-17.775036
  0
VERTEX
  8
gtl
 10
-19.950040
 20
-16.075032
  0
VERTEX
  8
gtl
 10
-19.575039
 20
-16.075032
  0
VERTEX
  8
gtl
 10
-19.575039
 20
-15.875032
  0
VERTEX
  8
gtl
 10
-19.200038
 20
-15.875032
  0
VERTEX
  8
gtl
 10
-19.200038
 20
-17.775036
  0
VERTEX
  8
gtl
 10
-19.950040
 20
-17.775036
  0
SEQEND
  8
gtl
  0
ENDSEC
  0
EOF
