  0
SECTION
  2
HEADER
  9
$ACADVER
  1
AC1014
  9
$ACADMAINTVER
 70
     9
  9
$DWGCODEPAGE
  3
ANSI_1252
  9
$INSBASE
 10
0.0
 20
0.0
 30
0.0
  9
$EXTMIN
 10
-18.56
 20
0.0
 30
0.0
  9
$EXTMAX
 10
31.2
 20
7.250000000000408
 30
0.0
  9
$LIMMIN
 10
-18.56
 20
0.0
  9
$LIMMAX
 10
31.2
 20
7.25000000000041
  9
$ORTHOMODE
 70
     0
  9
$REGENMODE
 70
     1
  9
$FILLMODE
 70
     1
  9
$QTEXTMODE
 70
     0
  9
$MIRRTEXT
 70
     0
  9
$DRAGMODE
 70
     2
  9
$LTSCALE
 40
1.0
  9
$OSMODE
 70
    37
  9
$ATTMODE
 70
     1
  9
$TEXTSIZE
 40
0.2
  9
$TRACEWID
 40
0.05
  9
$TEXTSTYLE
  7
STANDARD
  9
$CLAYER
  8
0
  9
$CELTYPE
  6
BYLAYER
  9
$CECOLOR
 62
     7
  9
$CELTSCALE
 40
1.0
  9
$DELOBJ
 70
     1
  9
$DISPSILH
 70
     0
  9
$DIMSCALE
 40
1.0
  9
$DIMASZ
 40
0.18
  9
$DIMEXO
 40
0.0625
  9
$DIMDLI
 40
0.38
  9
$DIMRND
 40
0.0
  9
$DIMDLE
 40
0.0
  9
$DIMEXE
 40
0.18
  9
$DIMTP
 40
0.0
  9
$DIMTM
 40
0.0
  9
$DIMTXT
 40
0.18
  9
$DIMCEN
 40
0.09
  9
$DIMTSZ
 40
0.0
  9
$DIMTOL
 70
     0
  9
$DIMLIM
 70
     0
  9
$DIMTIH
 70
     1
  9
$DIMTOH
 70
     1
  9
$DIMSE1
 70
     0
  9
$DIMSE2
 70
     0
  9
$DIMTAD
 70
     0
  9
$DIMZIN
 70
     0
  9
$DIMBLK
  1

  9
$DIMASO
 70
     1
  9
$DIMSHO
 70
     1
  9
$DIMPOST
  1

  9
$DIMAPOST
  1
^B2147483648l^B
  9
$DIMALT
 70
     0
  9
$DIMALTD
 70
     2
  9
$DIMALTF
 40
25.4
  9
$DIMLFAC
 40
1.0
  9
$DIMTOFL
 70
     0
  9
$DIMTVP
 40
0.0
  9
$DIMTIX
 70
     0
  9
$DIMSOXD
 70
     0
  9
$DIMSAH
 70
     0
  9
$DIMBLK1
  1

  9
$DIMBLK2
  1

  9
$DIMSTYLE
  2
STANDARD
  9
$DIMCLRD
 70
     0
  9
$DIMCLRE
 70
     0
  9
$DIMCLRT
 70
     0
  9
$DIMTFAC
 40
1.0
  9
$DIMGAP
 40
0.09
  9
$DIMJUST
 70
     0
  9
$DIMSD1
 70
     0
  9
$DIMSD2
 70
     0
  9
$DIMTOLJ
 70
     1
  9
$DIMTZIN
 70
     0
  9
$DIMALTZ
 70
     0
  9
$DIMALTTZ
 70
     0
  9
$DIMFIT
 70
     3
  9
$DIMUPT
 70
     0
  9
$DIMUNIT
 70
     2
  9
$DIMDEC
 70
     4
  9
$DIMTDEC
 70
     4
  9
$DIMALTU
 70
     2
  9
$DIMALTTD
 70
     2
  9
$DIMTXSTY
  7
STANDARD
  9
$DIMAUNIT
 70
     0
  9
$LUNITS
 70
     2
  9
$LUPREC
 70
     4
  9
$SKETCHINC
 40
0.1
  9
$FILLETRAD
 40
0.0
  9
$AUNITS
 70
     0
  9
$AUPREC
 70
     0
  9
$MENU
  1
.
  9
$ELEVATION
 40
0.0
  9
$PELEVATION
 40
0.0
  9
$THICKNESS
 40
0.0
  9
$LIMCHECK
 70
     0
  9
$CHAMFERA
 40
0.0
  9
$CHAMFERB
 40
0.0
  9
$CHAMFERC
 40
0.0
  9
$CHAMFERD
 40
0.0
  9
$SKPOLY
 70
     0
  9
$TDCREATE
 40
2458968.503976088
  9
$TDUPDATE
 40
2458968.503981574
  9
$TDINDWG
 40
0.0
  9
$TDUSRTIMER
 40
0.0
  9
$USRTIMER
 70
     1
  9
$ANGBASE
 50
0.0
  9
$ANGDIR
 70
     0
  9
$PDMODE
 70
     0
  9
$PDSIZE
 40
0.0
  9
$PLINEWID
 40
0.0
  9
$COORDS
 70
     1
  9
$SPLFRAME
 70
     0
  9
$SPLINETYPE
 70
     6
  9
$SPLINESEGS
 70
     8
  9
$ATTDIA
 70
     0
  9
$ATTREQ
 70
     1
  9
$HANDLING
 70
     1
  9
$HANDSEED
  5
5F1
  9
$SURFTAB1
 70
     6
  9
$SURFTAB2
 70
     6
  9
$SURFTYPE
 70
     6
  9
$SURFU
 70
     6
  9
$SURFV
 70
     6
  9
$UCSNAME
  2

  9
$UCSORG
 10
0.0
 20
0.0
 30
0.0
  9
$UCSXDIR
 10
1.0
 20
0.0
 30
0.0
  9
$UCSYDIR
 10
0.0
 20
1.0
 30
0.0
  9
$PUCSNAME
  2

  9
$PUCSORG
 10
0.0
 20
0.0
 30
0.0
  9
$PUCSXDIR
 10
1.0
 20
0.0
 30
0.0
  9
$PUCSYDIR
 10
0.0
 20
1.0
 30
0.0
  9
$USERI1
 70
     0
  9
$USERI2
 70
     0
  9
$USERI3
 70
     0
  9
$USERI4
 70
     0
  9
$USERI5
 70
     0
  9
$USERR1
 40
0.0
  9
$USERR2
 40
0.0
  9
$USERR3
 40
0.0
  9
$USERR4
 40
0.0
  9
$USERR5
 40
0.0
  9
$WORLDVIEW
 70
     1
  9
$SHADEDGE
 70
     3
  9
$SHADEDIF
 70
    70
  9
$TILEMODE
 70
     1
  9
$MAXACTVP
 70
    64
  9
$PINSBASE
 10
0.0
 20
0.0
 30
0.0
  9
$PLIMCHECK
 70
     0
  9
$PEXTMIN
 10
0.0
 20
0.0
 30
0.0
  9
$PEXTMAX
 10
0.0
 20
0.0
 30
0.0
  9
$PLIMMIN
 10
0.0
 20
0.0
  9
$PLIMMAX
 10
0.0
 20
0.0
  9
$UNITMODE
 70
     0
  9
$VISRETAIN
 70
     1
  9
$PLINEGEN
 70
     0
  9
$PSLTSCALE
 70
     1
  9
$TREEDEPTH
 70
  3020
  9
$PICKSTYLE
 70
     1
  9
$CMLSTYLE
  2
STANDARD
  9
$CMLJUST
 70
     0
  9
$CMLSCALE
 40
1.0
  9
$PROXYGRAPHICS
 70
     1
  9
$MEASUREMENT
 70
     1
  0
ENDSEC
  0
SECTION
  2
CLASSES
  0
CLASS
  1
ACDBDICTIONARYWDFLT
  2
AcDbDictionaryWithDefault
  3
ObjectDBX Classes
 90
        0
280
     0
281
     0
  0
CLASS
  1
VISUALSTYLE
  2
AcDbVisualStyle
  3
ObjectDBX Classes
 90
     4095
280
     0
281
     0
  0
CLASS
  1
MATERIAL
  2
AcDbMaterial
  3
ObjectDBX Classes
 90
     1153
280
     0
281
     0
  0
CLASS
  1
SCALE
  2
AcDbScale
  3
ObjectDBX Classes
 90
     1153
280
     0
281
     0
  0
CLASS
  1
TABLESTYLE
  2
AcDbTableStyle
  3
ObjectDBX Classes
 90
     4095
280
     0
281
     0
  0
CLASS
  1
MLEADERSTYLE
  2
AcDbMLeaderStyle
  3
ACDB_MLEADERSTYLE_CLASS
 90
     4095
280
     0
281
     0
  0
CLASS
  1
SUN
  2
AcDbSun
  3
SCENEOE
 90
     1153
280
     0
281
     0
  0
CLASS
  1
AEC_VARS_DWG_SETUP
  2
AecDbVarsDwgSetup
  3
AecBase60
 90
      129
280
     0
281
     0
  0
CLASS
  1
AEC_DISP_REP_2D_SECTION
  2
AecDbDispRep2dSection
  3
AecBase60
 90
      129
280
     0
281
     0
  0
CLASS
  1
AEC_DISP_PROPS_2D_SECTION
  2
AecDbDispProps2dSection
  3
AecBase60
 90
      129
280
     0
281
     0
  0
CLASS
  1
AEC_DISP_REP_CLIP_VOLUME_MODEL
  2
AecDbDispRepClipVolModel
  3
AecBase60
 90
      129
280
     0
281
     0
  0
CLASS
  1
AEC_DISP_PROPS_CLIP_VOLUME
  2
AecDbDispPropsClipVol
  3
AecBase60
 90
      129
280
     0
281
     0
  0
CLASS
  1
AEC_DISP_REP_CLIP_VOLUME_PLAN
  2
AecDbDispRepClipVolPlan
  3
AecBase60
 90
      129
280
     0
281
     0
  0
CLASS
  1
AEC_DISP_REP_CLIP_VOLUME_RESULT
  2
AecDbDispRepClipVolResult
  3
AecBase60
 90
      129
280
     0
281
     0
  0
CLASS
  1
AEC_DISP_REP_CLIP_VOLUME_RESULT_SUBDIV
  2
AecDbDispRepClipVolResSubDiv
  3
AecBase60
 90
      129
280
     0
281
     0
  0
CLASS
  1
AEC_DISP_PROPS_CLIP_VOLUME_RESULT
  2
AecDbDispPropsClipVolResSubDiv
  3
AecBase60
 90
      129
280
     0
281
     0
  0
CLASS
  1
AEC_DISP_REP_DISPLAYTHEME
  2
AecDbDispRepDisplayTheme
  3
AecBase60
 90
      129
280
     0
281
     0
  0
CLASS
  1
AEC_DISP_PROPS_DISPLAYTHEME
  2
AecDbDispPropsDisplayTheme
  3
AecBase60
 90
      129
280
     0
281
     0
  0
CLASS
  1
AEC_DISP_REP_ENT_REF
  2
AecDbDispRepEntRef
  3
AecBase60
 90
      129
280
     0
281
     0
  0
CLASS
  1
AEC_DISP_PROPS_ENT_REF
  2
AecDbDispPropsEntRef
  3
AecBase60
 90
      129
280
     0
281
     0
  0
CLASS
  1
AEC_DISP_REP_LAYOUT_CURVE
  2
AecDbDispRepLayoutCurve
  3
AecBase60
 90
      129
280
     0
281
     0
  0
CLASS
  1
AEC_DISP_PROPS_LAYOUT_CURVE
  2
AecDbDispPropsLayoutCurve
  3
AecBase60
 90
      129
280
     0
281
     0
  0
CLASS
  1
AEC_DISP_REP_LAYOUT_GRID2D
  2
AecDbDispRepLayoutGrid2d
  3
AecBase60
 90
      129
280
     0
281
     0
  0
CLASS
  1
AEC_DISP_PROPS_LAYOUT_GRID2D
  2
AecDbDispPropsLayoutGrid2d
  3
AecBase60
 90
      129
280
     0
281
     0
  0
CLASS
  1
AEC_DISP_REP_LAYOUT_GRID3D
  2
AecDbDispRepLayoutGrid3d
  3
AecBase60
 90
      129
280
     0
281
     0
  0
CLASS
  1
AEC_DISP_PROPS_LAYOUT_GRID3D
  2
AecDbDispPropsLayoutGrid3d
  3
AecBase60
 90
      129
280
     0
281
     0
  0
CLASS
  1
AEC_DISP_REP_MASKBLOCK_REF
  2
AecDbDispRepMaskBlockRef
  3
AecBase60
 90
      129
280
     0
281
     0
  0
CLASS
  1
AEC_DISP_PROPS_MASKBLOCK
  2
AecDbDispPropsMaskBlock
  3
AecBase60
 90
      129
280
     0
281
     0
  0
CLASS
  1
AEC_DISP_REP_MASKBLOCK_REF_RCP
  2
AecDbDispRepMaskBlockRefRcp
  3
AecArchBase60
 90
      129
280
     0
281
     0
  0
CLASS
  1
AEC_DISP_REP_MASS_ELEM_MODEL
  2
AecDbDispRepMassElemModel
  3
AecBase60
 90
      129
280
     0
281
     0
  0
CLASS
  1
AEC_DISP_PROPS_MASS_ELEM_MODEL
  2
AecDbDispPropsMassElem
  3
AecBase60
 90
      129
280
     0
281
     0
  0
CLASS
  1
AEC_DISP_REP_MASS_ELEM_SCHEM
  2
AecDbDispRepMassElemSchem
  3
AecBase60
 90
      129
280
     0
281
     0
  0
CLASS
  1
AEC_DISPREPAECDBDISPREPMASSELEMPLAN50
  2
AecDbDispRepMassElemPlan50
  3
AecArchDACHBase60
 90
      129
280
     0
281
     0
  0
CLASS
  1
AEC_DISPROPSMASSELEMPLANCOMMON
  2
AecDbDispPropsMassElemPlanCommon
  3
AecArchDACHBase60
 90
      129
280
     0
281
     0
  0
CLASS
  1
AEC_DISPREPAECDBDISPREPMASSELEMPLAN100
  2
AecDbDispRepMassElemPlan100
  3
AecArchDACHBase60
 90
      129
280
     0
281
     0
  0
CLASS
  1
AEC_DISP_REP_MASS_ELEM_RCP
  2
AecDbDispRepMassElemRcp
  3
AecArchBase60
 90
      129
280
     0
281
     0
  0
CLASS
  1
AEC_DISP_REP_MASS_GROUP_MODEL
  2
AecDbDispRepMassGroupModel
  3
AecBase60
 90
      129
280
     0
281
     0
  0
CLASS
  1
AEC_DISP_PROPS_MASS_GROUP
  2
AecDbDispPropsMassGroup
  3
AecBase60
 90
      129
280
     0
281
     0
  0
CLASS
  1
AEC_DISP_REP_MASS_GROUP_PLAN
  2
AecDbDispRepMassGroupPlan
  3
AecBase60
 90
      129
280
     0
281
     0
  0
CLASS
  1
AEC_DISPREPAECDBDISPREPMASSGROUPPLAN50
  2
AecDbDispRepMassGroupPlan50
  3
AecArchDACHBase60
 90
      129
280
     0
281
     0
  0
CLASS
  1
AEC_DISPROPSMASSGROUPPLANCOMMON
  2
AecDbDispPropsMassGroupPlanCommon
  3
AecArchDACHBase60
 90
      129
280
     0
281
     0
  0
CLASS
  1
AEC_DISPREPAECDBDISPREPMASSGROUPPLAN100
  2
AecDbDispRepMassGroupPlan100
  3
AecArchDACHBase60
 90
      129
280
     0
281
     0
  0
CLASS
  1
AEC_DISP_REP_MASS_GROUP_RCP
  2
AecDbDispRepMassGroupRcp
  3
AecArchBase60
 90
      129
280
     0
281
     0
  0
CLASS
  1
AEC_DISP_REP_MVBLOCK_REF
  2
AecDbDispRepMvBlockRef
  3
AecBase60
 90
      129
280
     0
281
     0
  0
CLASS
  1
AEC_DISP_REP_MVBLOCK_REF_MODEL
  2
AecDbDispRepMvBlockRefModel
  3
AecBase60
 90
      129
280
     0
281
     0
  0
CLASS
  1
AEC_AECDBDISPREPMVBLOCKREFPLAN100
  2
AecDbDispRepMvBlockRefPlan100
  3
AecBase60
 90
      129
280
     0
281
     0
  0
CLASS
  1
AEC_AECDBDISPREPMVBLOCKREFPLAN50
  2
AecDbDispRepMvBlockRefPlan50
  3
AecBase60
 90
      129
280
     0
281
     0
  0
CLASS
  1
AEC_DISP_REP_POLYGON_MODEL
  2
AecDbDispRepPolygonModel
  3
AecBase60
 90
      129
280
     0
281
     0
  0
CLASS
  1
AEC_DISP_PROPS_POLYGON_MODEL
  2
AecDbDispPropsPolygonModel
  3
AecBase60
 90
      129
280
     0
281
     0
  0
CLASS
  1
AEC_DISP_REP_POLYGON_TRUECOLOUR
  2
AecDbDispRepPolygonTrueColour
  3
AecBase60
 90
      129
280
     0
281
     0
  0
CLASS
  1
AEC_DISP_PROPS_POLYGON_TRUECOLOUR
  2
AecDbDispPropsPolygonTrueColour
  3
AecBase60
 90
      129
280
     0
281
     0
  0
CLASS
  1
AEC_DISP_REP_SLICE
  2
AecDbDispRepSlice
  3
AecBase60
 90
      129
280
     0
281
     0
  0
CLASS
  1
AEC_DISP_PROPS_SLICE
  2
AecDbDispPropsSlice
  3
AecBase60
 90
      129
280
     0
281
     0
  0
CLASS
  1
AEC_DISP_REP_ANCHOR
  2
AecDbDispRepAnchor
  3
AecBase60
 90
      129
280
     0
281
     0
  0
CLASS
  1
AEC_DISP_REP_ANCHOR_ENT_TO_NODE
  2
AecDbDispRepAnchorEntToNode
  3
AecBase60
 90
      129
280
     0
281
     0
  0
CLASS
  1
AEC_DISP_PROPS_ENT
  2
AecDbDispPropsEnt
  3
AecBase60
 90
      129
280
     0
281
     0
  0
CLASS
  1
AEC_DISP_REP_MATERIAL
  2
AecDbDispRepMaterial
  3
AecBase60
 90
      129
280
     0
281
     0
  0
CLASS
  1
AEC_DISP_PROPS_MATERIAL
  2
AecDbDispPropsMaterial
  3
AecBase60
 90
      129
280
     0
281
     0
  0
CLASS
  1
AEC_DISP_REP_EDITINPLACEPROFILE
  2
AecDbDispRepEditInPlaceProfile
  3
AecBase60
 90
      129
280
     0
281
     0
  0
CLASS
  1
AEC_DISP_PROPS_EDITINPLACEPROFILE_MODEL
  2
AecDbDispPropsEditInPlaceProfile
  3
AecBase60
 90
      129
280
     0
281
     0
  0
CLASS
  1
AEC_VARS_ARCHBASE
  2
AecDbVarsArchBase
  3
AecArchBase60
 90
      129
280
     0
281
     0
  0
CLASS
  1
AEC_DISP_REP_BDG_ELEVLINE_PLAN
  2
AecDbDispRepBdgElevLinePlan
  3
AecArchBase60
 90
      129
280
     0
281
     0
  0
CLASS
  1
AEC_DISP_REP_BDG_ELEVLINE_MODEL
  2
AecDbDispRepBdgElevLineModel
  3
AecArchBase60
 90
      129
280
     0
281
     0
  0
CLASS
  1
AEC_DISP_REP_BDG_ELEVLINE_RCP
  2
AecDbDispRepBdgElevLineRcp
  3
AecArchBase60
 90
      129
280
     0
281
     0
  0
CLASS
  1
AEC_AECDBDISPREPBDGELEVLINEPLAN100
  2
AecDbDispRepBdgElevLinePlan100
  3
AecBase60
 90
      129
280
     0
281
     0
  0
CLASS
  1
AEC_AECDBDISPREPBDGELEVLINEPLAN50
  2
AecDbDispRepBdgElevLinePlan50
  3
AecBase60
 90
      129
280
     0
281
     0
  0
CLASS
  1
AEC_DISP_REP_BDG_SECTIONLINE_MODEL
  2
AecDbDispRepBdgSectionLineModel
  3
AecArchBase60
 90
      129
280
     0
281
     0
  0
CLASS
  1
AEC_DISP_REP_BDG_SECTIONLINE_PLAN
  2
AecDbDispRepBdgSectionLinePlan
  3
AecArchBase60
 90
      129
280
     0
281
     0
  0
CLASS
  1
AEC_DISP_REP_BDG_SECTIONLINE_RCP
  2
AecDbDispRepBdgSectionLineRcp
  3
AecArchBase60
 90
      129
280
     0
281
     0
  0
CLASS
  1
AEC_AECDBDISPREPBDGSECTIONLINEPLAN100
  2
AecDbDispRepBdgSectionLinePlan100
  3
AecBase60
 90
      129
280
     0
281
     0
  0
CLASS
  1
AEC_AECDBDISPREPBDGSECTIONLINEPLAN50
  2
AecDbDispRepBdgSectionLinePlan50
  3
AecBase60
 90
      129
280
     0
281
     0
  0
CLASS
  1
AEC_DISP_REP_BDG_SECTION_SUBDIV
  2
AecDbDispRepBdgSectionSubDiv
  3
AecArchBase60
 90
      129
280
     0
281
     0
  0
CLASS
  1
AEC_DISP_REP_BDG_SECTION_MODEL
  2
AecDbDispRepBdgSectionModel
  3
AecArchBase60
 90
      129
280
     0
281
     0
  0
CLASS
  1
AEC_DISP_REP_CEILING_GRID
  2
AecDbDispRepCeilingGrid
  3
AecArchBase60
 90
      893
280
     0
281
     0
  0
CLASS
  1
AEC_DISP_REP_CEILING_GRID_MODEL
  2
AecDbDispRepCeilingGridModel
  3
AecArchBase60
 90
      129
280
     0
281
     0
  0
CLASS
  1
AEC_DISP_REP_CEILING_GRID_RCP
  2
AecDbDispRepCeilingGridRcp
  3
AecArchBase60
 90
      129
280
     0
281
     0
  0
CLASS
  1
AEC_AECDBDISPREPCEILINGGRIDPLAN100
  2
AecDbDispRepCeilingGridPlan100
  3
AecBase60
 90
      129
280
     0
281
     0
  0
CLASS
  1
AEC_AECDBDISPREPCEILINGGRIDPLAN50
  2
AecDbDispRepCeilingGridPlan50
  3
AecBase60
 90
      129
280
     0
281
     0
  0
CLASS
  1
AEC_DISP_REP_CURTAIN_WALL_LAYOUT_MODEL
  2
AecDbDispRepCurtainWallLayoutModel
  3
AecArchBase60
 90
      129
280
     0
281
     0
  0
CLASS
  1
AEC_DISP_PROPS_GRID_ASSEMBLY_MODEL
  2
AecDbDispPropsGridAssemblyModel
  3
AecArchBase60
 90
      129
280
     0
281
     0
  0
CLASS
  1
AEC_DISP_REP_CURTAIN_WALL_LAYOUT_PLAN
  2
AecDbDispRepCurtainWallLayoutPlan
  3
AecArchBase60
 90
      129
280
     0
281
     0
  0
CLASS
  1
AEC_DISP_PROPS_GRID_ASSEMBLY_PLAN
  2
AecDbDispPropsGridAssemblyPlan
  3
AecArchBase60
 90
      129
280
     0
281
     0
  0
CLASS
  1
AEC_AECDBDISPREPCURTAINWALLLAYOUTPLAN100
  2
AecDbDispRepCurtainWallLayoutPlan100
  3
AecBase60
 90
      129
280
     0
281
     0
  0
CLASS
  1
AEC_AECDBDISPREPCURTAINWALLLAYOUTPLAN50
  2
AecDbDispRepCurtainWallLayoutPlan50
  3
AecBase60
 90
      129
280
     0
281
     0
  0
CLASS
  1
AEC_DISP_REP_CURTAIN_WALL_UNIT_MODEL
  2
AecDbDispRepCurtainWallUnitModel
  3
AecArchBase60
 90
      129
280
     0
281
     0
  0
CLASS
  1
AEC_DISP_REP_CURTAIN_WALL_UNIT_PLAN
  2
AecDbDispRepCurtainWallUnitPlan
  3
AecArchBase60
 90
      129
280
     0
281
     0
  0
CLASS
  1
AEC_AECDBDISPREPCURTAINWALLUNITPLAN100
  2
AecDbDispRepCurtainWallUnitPlan100
  3
AecBase60
 90
      129
280
     0
281
     0
  0
CLASS
  1
AEC_AECDBDISPREPCURTAINWALLUNITPLAN50
  2
AecDbDispRepCurtainWallUnitPlan50
  3
AecBase60
 90
      129
280
     0
281
     0
  0
CLASS
  1
AEC_DISP_REP_DOOR_MODEL
  2
AecDbDispRepDoorModel
  3
AecArchBase60
 90
      129
280
     0
281
     0
  0
CLASS
  1
AEC_DISP_PROPS_DOOR
  2
AecDbDispPropsDoor
  3
AecArchBase60
 90
      129
280
     0
281
     0
  0
CLASS
  1
AEC_DISP_REP_DOOR_ELEV
  2
AecDbDispRepDoorElev
  3
AecArchBase60
 90
      129
280
     0
281
     0
  0
CLASS
  1
AEC_DISP_REP_DOOR_PLAN
  2
AecDbDispRepDoorPlan
  3
AecArchBase60
 90
      129
280
     0
281
     0
  0
CLASS
  1
AEC_DISP_REP_DOOR_NOMINAL
  2
AecDbDispRepDoorNominal
  3
AecArchBase60
 90
      129
280
     0
281
     0
  0
CLASS
  1
AEC_DISP_PROPS_DOOR_NOMINAL
  2
AecDbDispPropsDoorNominal
  3
AecArchBase60
 90
      129
280
     0
281
     0
  0
CLASS
  1
AEC_DISP_REP_DOOR_THRESHOLD_PLAN
  2
AecDbDispRepDoorThresholdPlan
  3
AecArchBase60
 90
      129
280
     0
281
     0
  0
CLASS
  1
AEC_DISP_PROPS_DOOR_THRESHOLD_PLAN
  2
AecDbDispPropsDoorThresholdPlan
  3
AecArchBase60
 90
      129
280
     0
281
     0
  0
CLASS
  1
AEC_DISP_REP_DOOR_PLAN_50
  2
AecDbDispRepDoorPlan50
  3
AecArchDACHBase60
 90
      129
280
     0
281
     0
  0
CLASS
  1
AEC_DISP_PROPS_DOOR_PLAN_50
  2
AecDbDispPropsDoorPlan50
  3
AecArchDACHBase60
 90
      129
280
     0
281
     0
  0
CLASS
  1
AEC_DISP_REP_DOOR_PLAN_HEKTO
  2
AecDbDispRepDoorPlanHekto
  3
AecArchDACHBase60
 90
      129
280
     0
281
     0
  0
CLASS
  1
AEC_DISP_PROPS_DOOR_PLAN_100
  2
AecDbDispPropsDoorPlan100
  3
AecArchDACHBase60
 90
      129
280
     0
281
     0
  0
CLASS
  1
AEC_DISP_REP_DOOR_RCP
  2
AecDbDispRepDoorRcp
  3
AecArchBase60
 90
      129
280
     0
281
     0
  0
CLASS
  1
AEC_DISP_REP_DOOR_THRESHOLD_SYMBOL_PLAN
  2
AecDbDispRepDoorThresholdSymbolPlan
  3
AecArchDACHBase60
 90
      129
280
     0
281
     0
  0
CLASS
  1
AEC_DISP_PROPS_DOOR_THRESHOLD_SYMBOL_PLAN
  2
AecDbDispPropsDoorThresholdSymbolPlan
  3
AecArchDACHBase60
 90
      129
280
     0
281
     0
  0
CLASS
  1
AEC_DISP_REP_OPENING
  2
AecDbDispRepOpening
  3
AecArchBase60
 90
      129
280
     0
281
     0
  0
CLASS
  1
AEC_DISP_PROPS_OPENING
  2
AecDbDispPropsOpening
  3
AecArchBase60
 90
      129
280
     0
281
     0
  0
CLASS
  1
AEC_DISP_REP_OPENING_MODEL
  2
AecDbDispRepOpeningModel
  3
AecArchBase60
 90
      129
280
     0
281
     0
  0
CLASS
  1
AEC_DISPREPAECDBDISPREPOPENINGPLAN100
  2
AecDbDispRepOpeningPlan100
  3
AecArchDACHBase60
 90
      129
280
     0
281
     0
  0
CLASS
  1
AEC_DISPROPSOPENINGPLANCOMMONHATCHED
  2
AecDbDispPropsOpeningPlanCommonHatched
  3
AecArchDACHBase60
 90
      129
280
     0
281
     0
  0
CLASS
  1
AEC_DISPREPAECDBDISPREPOPENINGPLAN50
  2
AecDbDispRepOpeningPlan50
  3
AecArchDACHBase60
 90
      129
280
     0
281
     0
  0
CLASS
  1
AEC_DISPREPAECDBDISPREPOPENINGPLANREFLECTED
  2
AecDbDispRepOpeningPlanReflected
  3
AecArchDACHBase60
 90
      129
280
     0
281
     0
  0
CLASS
  1
AEC_DISPROPSOPENINGPLANCOMMON
  2
AecDbDispPropsOpeningPlanCommon
  3
AecArchDACHBase60
 90
      129
280
     0
281
     0
  0
CLASS
  1
AEC_DISPREPAECDBDISPREPOPENINGSILLPLAN
  2
AecDbDispRepOpeningSillPlan
  3
AecArchDACHBase60
 90
      129
280
     0
281
     0
  0
CLASS
  1
AEC_DISPROPSOPENINGSILLPLAN
  2
AecDbDispPropsOpeningSillPlan
  3
AecArchDACHBase60
 90
      129
280
     0
281
     0
  0
CLASS
  1
AEC_DISP_REP_RAILING_MODEL
  2
AecDbDispRepRailingModel
  3
AecArchBase60
 90
      129
280
     0
281
     0
  0
CLASS
  1
AEC_DISP_PROPS_RAILING_MODEL
  2
AecDbDispPropsRailingModel
  3
AecArchBase60
 90
      129
280
     0
281
     0
  0
CLASS
  1
AEC_DISP_REP_RAILING_PLAN
  2
AecDbDispRepRailingPlan
  3
AecArchBase60
 90
      129
280
     0
281
     0
  0
CLASS
  1
AEC_DISP_PROPS_RAILING_PLAN
  2
AecDbDispPropsRailingPlan
  3
AecArchBase60
 90
      129
280
     0
281
     0
  0
CLASS
  1
AEC_DISP_REP_RAILING_PLAN_100
  2
AecDbDispRepRailingPlan100
  3
AecArchDACHBase60
 90
      129
280
     0
281
     0
  0
CLASS
  1
AEC_DISP_ROPS_RAILING_PLAN_100
  2
AecDbDispPropsRailingPlan100
  3
AecArchDACHBase60
 90
      129
280
     0
281
     0
  0
CLASS
  1
AEC_DISP_REP_RAILING_PLAN_50
  2
AecDbDispRepRailingPlan50
  3
AecArchDACHBase60
 90
      129
280
     0
281
     0
  0
CLASS
  1
AEC_DISP_ROPS_RAILING_PLAN_50
  2
AecDbDispPropsRailingPlan50
  3
AecArchDACHBase60
 90
      129
280
     0
281
     0
  0
CLASS
  1
AEC_DISP_REP_ROOF_MODEL
  2
AecDbDispRepRoofModel
  3
AecArchBase60
 90
      129
280
     0
281
     0
  0
CLASS
  1
AEC_DISP_PROPS_ROOF
  2
AecDbDispPropsRoof
  3
AecArchBase60
 90
      129
280
     0
281
     0
  0
CLASS
  1
AEC_DISP_REP_ROOF_PLAN
  2
AecDbDispRepRoofPlan
  3
AecArchBase60
 90
      129
280
     0
281
     0
  0
CLASS
  1
AEC_DISP_REP_ROOF_RCP
  2
AecDbDispRepRoofRcp
  3
AecArchBase60
 90
      129
280
     0
281
     0
  0
CLASS
  1
AEC_AECDBDISPREPROOFPLAN100
  2
AecDbDispRepRoofPlan100
  3
AecBase60
 90
      129
280
     0
281
     0
  0
CLASS
  1
AEC_AECDBDISPREPROOFPLAN50
  2
AecDbDispRepRoofPlan50
  3
AecBase60
 90
      129
280
     0
281
     0
  0
CLASS
  1
AEC_DISP_REP_ROOFSLAB_MODEL
  2
AecDbDispRepRoofSlabModel
  3
AecArchBase60
 90
      129
280
     0
281
     0
  0
CLASS
  1
AEC_DISP_PROPS_ROOFSLAB
  2
AecDbDispPropsRoofSlab
  3
AecArchBase60
 90
      129
280
     0
281
     0
  0
CLASS
  1
AEC_DISP_REP_ROOFSLAB_PLAN
  2
AecDbDispRepRoofSlabPlan
  3
AecArchBase60
 90
      129
280
     0
281
     0
  0
CLASS
  1
AEC_DISP_PROPS_ROOFSLAB_PLAN
  2
AecDbDispPropsRoofSlabPlan
  3
AecArchBase60
 90
      129
280
     0
281
     0
  0
CLASS
  1
AEC_AECDBDISPREPROOFSLABPLAN100
  2
AecDbDispRepRoofSlabPlan100
  3
AecBase60
 90
      129
280
     0
281
     0
  0
CLASS
  1
AEC_AECDBDISPREPROOFSLABPLAN50
  2
AecDbDispRepRoofSlabPlan50
  3
AecBase60
 90
      129
280
     0
281
     0
  0
CLASS
  1
AEC_DISP_REP_SLAB_MODEL
  2
AecDbDispRepSlabModel
  3
AecArchBase60
 90
      129
280
     0
281
     0
  0
CLASS
  1
AEC_DISP_PROPS_SLAB
  2
AecDbDispPropsSlab
  3
AecArchBase60
 90
      129
280
     0
281
     0
  0
CLASS
  1
AEC_DISP_REP_SLAB_PLAN
  2
AecDbDispRepSlabPlan
  3
AecArchBase60
 90
      129
280
     0
281
     0
  0
CLASS
  1
AEC_DISP_PROPS_SLAB_PLAN
  2
AecDbDispPropsSlabPlan
  3
AecArchBase60
 90
      129
280
     0
281
     0
  0
CLASS
  1
AEC_AECDBDISPREPSLABPLAN100
  2
AecDbDispRepSlabPlan100
  3
AecBase60
 90
      129
280
     0
281
     0
  0
CLASS
  1
AEC_AECDBDISPREPSLABPLAN50
  2
AecDbDispRepSlabPlan50
  3
AecBase60
 90
      129
280
     0
281
     0
  0
CLASS
  1
AEC_DISP_REP_SPACE_MODEL
  2
AecDbDispRepSpaceModel
  3
AecArchBase60
 90
      129
280
     0
281
     0
  0
CLASS
  1
AEC_DISP_PROPS_SPACE_MODEL
  2
AecDbDispPropsSpaceModel
  3
AecArchBase60
 90
      129
280
     0
281
     0
  0
CLASS
  1
AEC_DISP_REP_SPACE_PLAN
  2
AecDbDispRepSpacePlan
  3
AecArchBase60
 90
      129
280
     0
281
     0
  0
CLASS
  1
AEC_DISP_PROPS_SPACE_PLAN
  2
AecDbDispPropsSpacePlan
  3
AecArchBase60
 90
      129
280
     0
281
     0
  0
CLASS
  1
AEC_DISP_REP_SPACE_RCP
  2
AecDbDispRepSpaceRcp
  3
AecArchBase60
 90
      129
280
     0
281
     0
  0
CLASS
  1
AEC_DISP_REP_SPACE_VOLUME
  2
AecDbDispRepSpaceVolume
  3
AecArchBase60
 90
      129
280
     0
281
     0
  0
CLASS
  1
AEC_DISP_REP_SPACE_DECOMPOSED
  2
AecDbDispRepSpaceDecomposed
  3
AecArchBase60
 90
      129
280
     0
281
     0
  0
CLASS
  1
AEC_DISP_PROPS_SPACE_DECOMPOSED
  2
AecDbDispPropsSpaceDecomposed
  3
AecArchBase60
 90
      129
280
     0
281
     0
  0
CLASS
  1
AEC_AECDBDISPREPSPACEPLAN100
  2
AecDbDispRepSpacePlan100
  3
AecBase60
 90
      129
280
     0
281
     0
  0
CLASS
  1
AEC_AECDBDISPREPSPACEPLAN50
  2
AecDbDispRepSpacePlan50
  3
AecBase60
 90
      129
280
     0
281
     0
  0
CLASS
  1
AEC_DISP_REP_STAIR_MODEL
  2
AecDbDispRepStairModel
  3
AecArchBase60
 90
      129
280
     0
281
     0
  0
CLASS
  1
AEC_DISP_PROPS_STAIR_MODEL
  2
AecDbDispPropsStairModel
  3
AecArchBase60
 90
      129
280
     0
281
     0
  0
CLASS
  1
AEC_DISP_REP_STAIR_PLAN
  2
AecDbDispRepStairPlan
  3
AecArchBase60
 90
      129
280
     0
281
     0
  0
CLASS
  1
AEC_DISP_PROPS_STAIR_PLAN
  2
AecDbDispPropsStairPlan
  3
AecArchBase60
 90
      129
280
     0
281
     0
  0
CLASS
  1
AEC_DISP_REP_STAIR_RCP
  2
AecDbDispRepStairRcp
  3
AecArchBase60
 90
      129
280
     0
281
     0
  0
CLASS
  1
AEC_DISP_REP_STAIR_PLAN_100
  2
AecDbDispRepStairPlan100
  3
AecArchDACHBase60
 90
      129
280
     0
281
     0
  0
CLASS
  1
AEC_DISP_ROPS_STAIR_PLAN_100
  2
AecDbDispPropsStairPlan100
  3
AecArchDACHBase60
 90
      129
280
     0
281
     0
  0
CLASS
  1
AEC_DISP_REP_STAIR_PLAN_50
  2
AecDbDispRepStairPlan50
  3
AecArchDACHBase60
 90
      129
280
     0
281
     0
  0
CLASS
  1
AEC_DISP_ROPS_STAIR_PLAN_50
  2
AecDbDispPropsStairPlan50
  3
AecArchDACHBase60
 90
      129
280
     0
281
     0
  0
CLASS
  1
AEC_DISP_REP_STAIR_PLAN_OVERLAPPING
  2
AecDbDispRepStairPlanOverlapping
  3
AecArchBase60
 90
      129
280
     0
281
     0
  0
CLASS
  1
AEC_DISP_PROPS_STAIR_PLAN_OVERLAPPING
  2
AecDbDispPropsStairPlanOverlapping
  3
AecArchBase60
 90
      129
280
     0
281
     0
  0
CLASS
  1
AEC_DISP_REP_WALL_GRAPH
  2
AecDbDispRepWallGraph
  3
AecArchBase60
 90
      129
280
     0
281
     0
  0
CLASS
  1
AEC_DISP_PROPS_WALL_GRAPH
  2
AecDbDispPropsWallGraph
  3
AecArchBase60
 90
      129
280
     0
281
     0
  0
CLASS
  1
AEC_DISP_REP_WALL_MODEL
  2
AecDbDispRepWallModel
  3
AecArchBase60
 90
      129
280
     0
281
     0
  0
CLASS
  1
AEC_DISP_PROPS_WALL_MODEL
  2
AecDbDispPropsWallModel
  3
AecArchBase60
 90
      129
280
     0
281
     0
  0
CLASS
  1
AEC_DISP_REP_WALL_PLAN
  2
AecDbDispRepWallPlan
  3
AecArchBase60
 90
      129
280
     0
281
     0
  0
CLASS
  1
AEC_DISP_PROPS_WALL_PLAN
  2
AecDbDispPropsWallPlan
  3
AecArchBase60
 90
      129
280
     0
281
     0
  0
CLASS
  1
AEC_DISP_REP_WALL_RCP
  2
AecDbDispRepWallRcp
  3
AecArchBase60
 90
      129
280
     0
281
     0
  0
CLASS
  1
AEC_DISP_REP_WALL_SCHEM
  2
AecDbDispRepWallSchem
  3
AecArchBase60
 90
      129
280
     0
281
     0
  0
CLASS
  1
AEC_DISP_PROPS_WALL_SCHEM
  2
AecDbDispPropsWallSchem
  3
AecArchBase60
 90
      129
280
     0
281
     0
  0
CLASS
  1
AEC_AECDBDISPREPWALLPLAN100
  2
AecDbDispRepWallPlan100
  3
AecBase60
 90
      129
280
     0
281
     0
  0
CLASS
  1
AEC_AECDBDISPREPWALLPLAN50
  2
AecDbDispRepWallPlan50
  3
AecBase60
 90
      129
280
     0
281
     0
  0
CLASS
  1
AEC_DISP_REP_WINDOW_MODEL
  2
AecDbDispRepWindowModel
  3
AecArchBase60
 90
      129
280
     0
281
     0
  0
CLASS
  1
AEC_DISP_PROPS_WINDOW
  2
AecDbDispPropsWindow
  3
AecArchBase60
 90
      129
280
     0
281
     0
  0
CLASS
  1
AEC_DISP_REP_WINDOW_ELEV
  2
AecDbDispRepWindowElev
  3
AecArchBase60
 90
      129
280
     0
281
     0
  0
CLASS
  1
AEC_DISP_REP_WINDOW_PLAN
  2
AecDbDispRepWindowPlan
  3
AecArchBase60
 90
      129
280
     0
281
     0
  0
CLASS
  1
AEC_DISP_REP_WINDOW_NOMINAL
  2
AecDbDispRepWindowNominal
  3
AecArchBase60
 90
      129
280
     0
281
     0
  0
CLASS
  1
AEC_DISP_PROPS_WINDOW_NOMINAL
  2
AecDbDispPropsWindowNominal
  3
AecArchBase60
 90
      129
280
     0
281
     0
  0
CLASS
  1
AEC_DISP_REP_WINDOW_RCP
  2
AecDbDispRepWindowRcp
  3
AecArchBase60
 90
      129
280
     0
281
     0
  0
CLASS
  1
AEC_DISP_REP_WINDOW_SILL_PLAN
  2
AecDbDispRepWindowSillPlan
  3
AecArchBase60
 90
      129
280
     0
281
     0
  0
CLASS
  1
AEC_DISP_PROPS_WINDOW_SILL_PLAN
  2
AecDbDispPropsWindowSillPlan
  3
AecArchBase60
 90
      129
280
     0
281
     0
  0
CLASS
  1
AEC_DISP_REP_WINDOW_PLAN_100
  2
AecDbDispRepWindowPlan100
  3
AecArchDACHBase60
 90
      129
280
     0
281
     0
  0
CLASS
  1
AEC_DISP_PROPS_WINDOW_PLAN_100
  2
AecDbDispPropsWindowPlan100
  3
AecArchDACHBase60
 90
      129
280
     0
281
     0
  0
CLASS
  1
AEC_DISP_REP_WINDOW_PLAN_50
  2
AecDbDispRepWindowPlan50
  3
AecArchDACHBase60
 90
      129
280
     0
281
     0
  0
CLASS
  1
AEC_DISP_PROPS_WINDOW_PLAN_50
  2
AecDbDispPropsWindowPlan50
  3
AecArchDACHBase60
 90
      129
280
     0
281
     0
  0
CLASS
  1
AEC_DISP_REP_WINDOW_ASSEMBLY_MODEL
  2
AecDbDispRepWindowAssemblyModel
  3
AecArchBase60
 90
      129
280
     0
281
     0
  0
CLASS
  1
AEC_DISP_REP_WINDOW_ASSEMBLY_PLAN
  2
AecDbDispRepWindowAssemblyPlan
  3
AecArchBase60
 90
      129
280
     0
281
     0
  0
CLASS
  1
AEC_DISP_REP_WINDOWASSEMBLY_SILL_PLAN
  2
AecDbDispRepWindowAssemblySillPlan
  3
AecArchBase60
 90
      129
280
     0
281
     0
  0
CLASS
  1
AEC_DISP_PROPS_WINDOW_ASSEMBLY_SILL_PLAN
  2
AecDbDispPropsWindowAssemblySillPlan
  3
AecArchBase60
 90
      129
280
     0
281
     0
  0
CLASS
  1
AEC_AECDBDISPREPWINDOWASSEMBLYPLAN100
  2
AecDbDispRepWindowAssemblyPlan100
  3
AecBase60
 90
      129
280
     0
281
     0
  0
CLASS
  1
AEC_AECDBDISPREPWINDOWASSEMBLYPLAN50
  2
AecDbDispRepWindowAssemblyPlan50
  3
AecBase60
 90
      129
280
     0
281
     0
  0
CLASS
  1
AEC_DB_DISP_REP_DIM_GROUP_PLAN
  2
AecDbDispRepDimGroupPlan
  3
AecArchDACHBase60
 90
      129
280
     0
281
     0
  0
CLASS
  1
AEC_DISP_PROPS_DIM
  2
AecDbDispPropsDimGroup
  3
AecArchDACHBase60
 90
      129
280
     0
281
     0
  0
CLASS
  1
AEC_DB_DISP_REP_DIM_GROUP_PLAN100
  2
AecDbDispRepDimGroupPlan100
  3
AecArchDACHBase60
 90
      129
280
     0
281
     0
  0
CLASS
  1
AEC_DB_DISP_REP_DIM_GROUP_PLAN50
  2
AecDbDispRepDimGroupPlan50
  3
AecArchDACHBase60
 90
      129
280
     0
281
     0
  0
CLASS
  1
AEC_DISP_REP_SCHEDULE_TABLE
  2
AecDbDispRepScheduleTable
  3
AecSchedule50
 90
      129
280
     0
281
     0
  0
CLASS
  1
AEC_DISP_PROPS_SCHEDULE_TABLE
  2
AecDbDispPropsScheduleTable
  3
AecSchedule50
 90
      129
280
     0
281
     0
  0
CLASS
  1
AEC_DISP_REP_ANCHOR_TAG_TO_ENT
  2
AecDbDispRepAnchorTagToEnt
  3
AecScheduleData60
 90
      129
280
     0
281
     0
  0
CLASS
  1
AEC_DISP_REP_ANCHOR_EXT_TAG_TO_ENT
  2
AecDbDispRepAnchorExtendedTagToEnt
  3
AecScheduleData60
 90
      129
280
     0
281
     0
  0
CLASS
  1
AEC_DISP_REP_SET
  2
AecDbDispRepSet
  3
AecBase60
 90
      129
280
     0
281
     0
  0
CLASS
  1
AECS_DISP_REP_MEMBER_MODEL_DESIGN
  2
AecsDbDispRepMemberModelDesign
  3
AecStructureBase60
 90
      129
280
     0
281
     0
  0
CLASS
  1
AECS_DISP_PROPS_MEMBER
  2
AecsDbDispPropsMember
  3
AecStructureBase60
 90
      129
280
     0
281
     0
  0
CLASS
  1
AECS_DISP_REP_MEMBER_PLAN_DESIGN
  2
AecsDbDispRepMemberPlanDesign
  3
AecStructureBase60
 90
      129
280
     0
281
     0
  0
CLASS
  1
AECS_DISP_PROPS_MEMBER_PLAN
  2
AecsDbDispPropsMemberPlan
  3
AecStructureBase60
 90
      129
280
     0
281
     0
  0
CLASS
  1
AEC_DISP_REP_CONFIG
  2
AecDbDispRepConfig
  3
AecBase60
 90
      129
280
     0
281
     0
  0
CLASS
  1
GEODATA
  2
AcDbGeoData
  3
ObjectDBX Classes
 90
     4095
280
     0
281
     0
  0
CLASS
  1
AEC_WALL_STYLE
  2
AecDbWallStyle
  3
AecArchBase60
 90
      129
280
     0
281
     0
  0
CLASS
  1
AEC_CLEANUP_GROUP_DEF
  2
AecDbCleanupGroupDef
  3
AecArchBase60
 90
      129
280
     0
281
     0
  0
CLASS
  1
AEC_ENDCAP_STYLE
  2
AecDbEndcapStyle
  3
AecArchBase60
 90
      129
280
     0
281
     0
  0
CLASS
  1
AEC_FRAME_DEF
  2
AecDbOpeningEndcapStyle
  3
AecArchBase60
 90
      129
280
     0
281
     0
  0
CLASS
  1
AEC_MATERIAL_DEF
  2
AecDbMaterialDef
  3
AecBase60
 90
      129
280
     0
281
     0
  0
CLASS
  1
TCOPTIONALDATA
  2
TcOptionalData
  3
ExTcadCustObjs|Description: TurboCAD extension data object
 90
     4095
280
     0
281
     0
  0
CLASS
  1
DICTIONARYVAR
  2
AcDbDictionaryVar
  3
ObjectDBX Classes
 90
        0
280
     0
281
     0
  0
CLASS
  1
XRECORD
  2
AcDbXrecord
  3
ObjectDBX Classes
 90
        0
280
     0
281
     0
  0
CLASS
  1
LWPOLYLINE
  2
AcDbPolyline
  3
ObjectDBX Classes
 90
        0
280
     0
281
     1
  0
CLASS
  1
HATCH
  2
AcDbHatch
  3
ObjectDBX Classes
 90
        0
280
     0
281
     1
  0
CLASS
  1
ACDBPLACEHOLDER
  2
AcDbPlaceHolder
  3
ObjectDBX Classes
 90
        0
280
     0
281
     0
  0
CLASS
  1
LAYOUT
  2
AcDbLayout
  3
ObjectDBX Classes
 90
        0
280
     0
281
     0
  0
ENDSEC
  0
SECTION
  2
TABLES
  0
TABLE
  2
VPORT
  5
8
102
{ACAD_XDICTIONARY
360
5E6
102
}
330
0
100
AcDbSymbolTable
 70
     1
  0
VPORT
  5
29
330
8
100
AcDbSymbolTableRecord
100
AcDbViewportTableRecord
  2
*ACTIVE
 70
     0
 10
0.0
 20
0.0
 11
1.0
 21
1.0
 12
0.0
 22
0.0
 13
0.0
 23
0.0
 14
0.5
 24
0.5
 15
0.5
 25
0.5
 16
0.0
 26
0.0
 36
1.0
 17
7.284751619047611
 27
-0.7637135238093142
 37
24.14269327259913
 40
53.30101638095238
 41
1.90447400241838
 42
50.0
 43
0.0
 44
0.0
 50
0.0
 51
0.0
 71
     0
 72
   100
 73
     1
 74
     3
 75
     0
 76
     0
 77
     0
 78
     0
  0
ENDTAB
  0
TABLE
  2
LTYPE
  5
5
330
0
100
AcDbSymbolTable
 70
    70
  0
LTYPE
  5
14
330
5
100
AcDbSymbolTableRecord
100
AcDbLinetypeTableRecord
  2
BYBLOCK
 70
     0
  3

 72
    65
 73
     0
 40
0.0
  0
LTYPE
  5
15
330
5
100
AcDbSymbolTableRecord
100
AcDbLinetypeTableRecord
  2
BYLAYER
 70
     0
  3

 72
    65
 73
     0
 40
0.0
  0
LTYPE
  5
16
330
5
100
AcDbSymbolTableRecord
100
AcDbLinetypeTableRecord
  2
CONTINUOUS
 70
     0
  3
Solid line
 72
    65
 73
     0
 40
0.0
  0
LTYPE
  5
183
330
5
100
AcDbSymbolTableRecord
100
AcDbLinetypeTableRecord
  2
RAND
 70
     0
  3
Rand
 72
    65
 73
     6
 40
1.75
 49
0.5
 74
     0
 49
-0.25
 74
     0
 49
0.5
 74
     0
 49
-0.25
 74
     0
 49
0.0
 74
     0
 49
-0.25
 74
     0
  0
LTYPE
  5
184
330
5
100
AcDbSymbolTableRecord
100
AcDbLinetypeTableRecord
  2
MITTE
 70
     0
  3
Mitte
 72
    65
 73
     4
 40
2.0
 49
1.25
 74
     0
 49
-0.25
 74
     0
 49
0.25
 74
     0
 49
-0.25
 74
     0
  0
LTYPE
  5
185
330
5
100
AcDbSymbolTableRecord
100
AcDbLinetypeTableRecord
  2
STRICHPUNKT
 70
     0
  3
Strichpunkt
 72
    65
 73
     4
 40
1.0
 49
0.5
 74
     0
 49
-0.25
 74
     0
 49
0.0
 74
     0
 49
-0.25
 74
     0
  0
LTYPE
  5
186
330
5
100
AcDbSymbolTableRecord
100
AcDbLinetypeTableRecord
  2
GESTRICHELT
 70
     0
  3
Gestrichelt
 72
    65
 73
     2
 40
0.75
 49
0.5
 74
     0
 49
-0.25
 74
     0
  0
LTYPE
  5
187
330
5
100
AcDbSymbolTableRecord
100
AcDbLinetypeTableRecord
  2
GETEILT
 70
     0
  3
Geteilt
 72
    65
 73
     6
 40
1.25
 49
0.5
 74
     0
 49
-0.25
 74
     0
 49
0.0
 74
     0
 49
-0.25
 74
     0
 49
0.0
 74
     0
 49
-0.25
 74
     0
  0
LTYPE
  5
188
330
5
100
AcDbSymbolTableRecord
100
AcDbLinetypeTableRecord
  2
PUNKT
 70
     0
  3
Punkt
 72
    65
 73
     2
 40
0.25
 49
0.0
 74
     0
 49
-0.25
 74
     0
  0
LTYPE
  5
189
330
5
100
AcDbSymbolTableRecord
100
AcDbLinetypeTableRecord
  2
VERDECKT
 70
     0
  3
Verdeckt
 72
    65
 73
     2
 40
0.375
 49
0.25
 74
     0
 49
-0.125
 74
     0
  0
LTYPE
  5
18A
330
5
100
AcDbSymbolTableRecord
100
AcDbLinetypeTableRecord
  2
$INVISIBLE
 70
     0
  3
$INVISIBLE
 72
    65
 73
     2
 40
200.0
 49
-100.0
 74
     0
 49
-100.0
 74
     0
  0
LTYPE
  5
18B
330
5
100
AcDbSymbolTableRecord
100
AcDbLinetypeTableRecord
  2
SECTION_VIEW_LINES
 70
     0
  3
Section_View_Lines
 72
    65
 73
     4
 40
0.8406
 49
0.6614
 74
     0
 49
-0.0827
 74
     0
 49
0.0138
 74
     0
 49
-0.0827
 74
     0
  0
LTYPE
  5
18C
330
5
100
AcDbSymbolTableRecord
100
AcDbLinetypeTableRecord
  2
CHAIN
 70
     0
  3
CHAIN
 72
    65
 73
     4
 40
0.3542999999999999
 49
0.2362
 74
     0
 49
-0.0295
 74
     0
 49
0.0591
 74
     0
 49
-0.0295
 74
     0
  0
LTYPE
  5
18D
330
5
100
AcDbSymbolTableRecord
100
AcDbLinetypeTableRecord
  2
DASH_DOT
 70
     0
  3
DASH_DOT
 72
    65
 73
     4
 40
0.37
 49
0.24
 74
     0
 49
-0.06
 74
     0
 49
0.01
 74
     0
 49
-0.06
 74
     0
  0
LTYPE
  5
18E
330
5
100
AcDbSymbolTableRecord
100
AcDbLinetypeTableRecord
  2
DASH_DOUBLE_DOT
 70
     0
  3
DASH_DOUBLE_DOT
 72
    65
 73
     6
 40
0.4398
 49
0.24
 74
     0
 49
-0.06
 74
     0
 49
0.0098
 74
     0
 49
-0.06
 74
     0
 49
0.01
 74
     0
 49
-0.06
 74
     0
  0
LTYPE
  5
18F
330
5
100
AcDbSymbolTableRecord
100
AcDbLinetypeTableRecord
  2
DASH_TRIPLE_DOT
 70
     0
  3
DASH_TRIPLE_DOT
 72
    65
 73
     8
 40
0.51
 49
0.24
 74
     0
 49
-0.06
 74
     0
 49
0.01
 74
     0
 49
-0.06
 74
     0
 49
0.01
 74
     0
 49
-0.06
 74
     0
 49
0.01
 74
     0
 49
-0.06
 74
     0
  0
LTYPE
  5
190
330
5
100
AcDbSymbolTableRecord
100
AcDbLinetypeTableRecord
  2
DASHED
 70
     0
  3
DASHED
 72
    65
 73
     2
 40
0.2067
 49
0.1654
 74
     0
 49
-0.0413
 74
     0
  0
LTYPE
  5
191
330
5
100
AcDbSymbolTableRecord
100
AcDbLinetypeTableRecord
  2
DASHED_SPACE
 70
     0
  3
DASHED_SPACE
 72
    65
 73
     2
 40
0.2067
 49
0.1654
 74
     0
 49
-0.0413
 74
     0
  0
LTYPE
  5
192
330
5
100
AcDbSymbolTableRecord
100
AcDbLinetypeTableRecord
  2
DOTTED
 70
     0
  3
DOTTED
 72
    65
 73
     2
 40
0.0482
 49
0.0069
 74
     0
 49
-0.0413
 74
     0
  0
LTYPE
  5
193
330
5
100
AcDbSymbolTableRecord
100
AcDbLinetypeTableRecord
  2
DOUBLE_DASH_CHAIN
 70
     0
  3
DOUBLE_DASH_CHAIN
 72
    65
 73
     6
 40
1.2403
 49
0.6614
 74
     0
 49
-0.0827
 74
     0
 49
0.1654
 74
     0
 49
-0.0827
 74
     0
 49
0.1654
 74
     0
 49
-0.0827
 74
     0
  0
LTYPE
  5
194
330
5
100
AcDbSymbolTableRecord
100
AcDbLinetypeTableRecord
  2
DOUBLE_DASH_DOT
 70
     0
  3
DOUBLE_DASH_DOT
 72
    65
 73
     6
 40
0.6700000000000002
 49
0.24
 74
     0
 49
-0.06
 74
     0
 49
0.24
 74
     0
 49
-0.06
 74
     0
 49
0.01
 74
     0
 49
-0.06
 74
     0
  0
LTYPE
  5
195
330
5
100
AcDbSymbolTableRecord
100
AcDbLinetypeTableRecord
  2
DOUBLE_DASH_DOUBLE_DOT
 70
     0
  3
DOUBLE_DASH_DOUBLE_DOT
 72
    65
 73
     8
 40
0.7400000000000002
 49
0.24
 74
     0
 49
-0.06
 74
     0
 49
0.24
 74
     0
 49
-0.06
 74
     0
 49
0.01
 74
     0
 49
-0.06
 74
     0
 49
0.01
 74
     0
 49
-0.06
 74
     0
  0
LTYPE
  5
196
330
5
100
AcDbSymbolTableRecord
100
AcDbLinetypeTableRecord
  2
DOUBLE_DASH_TRIPLE_DOT
 70
     0
  3
DOUBLE_DASH_TRIPLE_DOT
 72
    65
 73
    10
 40
0.8100000000000003
 49
0.24
 74
     0
 49
-0.06
 74
     0
 49
0.24
 74
     0
 49
-0.06
 74
     0
 49
0.01
 74
     0
 49
-0.06
 74
     0
 49
0.01
 74
     0
 49
-0.06
 74
     0
 49
0.01
 74
     0
 49
-0.06
 74
     0
  0
LTYPE
  5
197
330
5
100
AcDbSymbolTableRecord
100
AcDbLinetypeTableRecord
  2
LONG_DASH_DOTTED
 70
     0
  3
LONG_DASH_DOTTED
 72
    65
 73
     4
 40
0.3001
 49
0.2362
 74
     0
 49
-0.0295
 74
     0
 49
0.0049
 74
     0
 49
-0.0295
 74
     0
  0
LTYPE
  5
198
330
5
100
AcDbSymbolTableRecord
100
AcDbLinetypeTableRecord
  2
LONG_DASH_DOUBLE_DOT
 70
     0
  3
LONG_DASH_DOUBLE_DOT
 72
    65
 73
     6
 40
0.3345
 49
0.2362
 74
     0
 49
-0.0295
 74
     0
 49
0.0049
 74
     0
 49
-0.0295
 74
     0
 49
0.0049
 74
     0
 49
-0.0295
 74
     0
  0
LTYPE
  5
199
330
5
100
AcDbSymbolTableRecord
100
AcDbLinetypeTableRecord
  2
LONG_DASH_TRIPLE_DOT
 70
     0
  3
LONG_DASH_TRIPLE_DOT
 72
    65
 73
     8
 40
0.7500000000000002
 49
0.48
 74
     0
 49
-0.06
 74
     0
 49
0.01
 74
     0
 49
-0.06
 74
     0
 49
0.01
 74
     0
 49
-0.06
 74
     0
 49
0.01
 74
     0
 49
-0.06
 74
     0
  0
LTYPE
  5
19A
330
5
100
AcDbSymbolTableRecord
100
AcDbLinetypeTableRecord
  2
BORDER
 70
     0
  3
BORDER
 72
    65
 73
     6
 40
44.45
 49
12.7
 74
     0
 49
-6.349999999999999
 74
     0
 49
12.7
 74
     0
 49
-6.349999999999999
 74
     0
 49
0.0
 74
     0
 49
-6.349999999999999
 74
     0
  0
LTYPE
  5
19B
330
5
100
AcDbSymbolTableRecord
100
AcDbLinetypeTableRecord
  2
BORDER2
 70
     0
  3
BORDER2
 72
    65
 73
     6
 40
22.22499999999999
 49
6.349999999999999
 74
     0
 49
-3.174999999999999
 74
     0
 49
6.349999999999999
 74
     0
 49
-3.174999999999999
 74
     0
 49
0.0
 74
     0
 49
-3.174999999999999
 74
     0
  0
LTYPE
  5
19C
330
5
100
AcDbSymbolTableRecord
100
AcDbLinetypeTableRecord
  2
BORDERX2
 70
     0
  3
BORDERX2
 72
    65
 73
     6
 40
88.89999999999999
 49
25.4
 74
     0
 49
-12.7
 74
     0
 49
25.4
 74
     0
 49
-12.7
 74
     0
 49
0.0
 74
     0
 49
-12.7
 74
     0
  0
LTYPE
  5
19D
330
5
100
AcDbSymbolTableRecord
100
AcDbLinetypeTableRecord
  2
CENTER
 70
     0
  3
CENTER
 72
    65
 73
     4
 40
50.8
 49
31.75
 74
     0
 49
-6.349999999999999
 74
     0
 49
6.349999999999999
 74
     0
 49
-6.349999999999999
 74
     0
  0
LTYPE
  5
19E
330
5
100
AcDbSymbolTableRecord
100
AcDbLinetypeTableRecord
  2
CENTER2
 70
     0
  3
CENTER2
 72
    65
 73
     4
 40
28.575
 49
19.05
 74
     0
 49
-3.174999999999999
 74
     0
 49
3.174999999999999
 74
     0
 49
-3.174999999999999
 74
     0
  0
LTYPE
  5
19F
330
5
100
AcDbSymbolTableRecord
100
AcDbLinetypeTableRecord
  2
CENTERX2
 70
     0
  3
CENTERX2
 72
    65
 73
     4
 40
101.6
 49
63.5
 74
     0
 49
-12.7
 74
     0
 49
12.7
 74
     0
 49
-12.7
 74
     0
  0
LTYPE
  5
1A0
330
5
100
AcDbSymbolTableRecord
100
AcDbLinetypeTableRecord
  2
DASHDOT2
 70
     0
  3
DASHDOT2
 72
    65
 73
     4
 40
12.7
 49
6.349999999999999
 74
     0
 49
-3.174999999999999
 74
     0
 49
0.0
 74
     0
 49
-3.174999999999999
 74
     0
  0
LTYPE
  5
1A1
330
5
100
AcDbSymbolTableRecord
100
AcDbLinetypeTableRecord
  2
DASHDOTX2
 70
     0
  3
DASHDOTX2
 72
    65
 73
     4
 40
50.8
 49
25.4
 74
     0
 49
-12.7
 74
     0
 49
0.0
 74
     0
 49
-12.7
 74
     0
  0
LTYPE
  5
1A2
330
5
100
AcDbSymbolTableRecord
100
AcDbLinetypeTableRecord
  2
DASHED2
 70
     0
  3
DASHED2
 72
    65
 73
     2
 40
9.524999999999999
 49
6.349999999999999
 74
     0
 49
-3.174999999999999
 74
     0
  0
LTYPE
  5
1A3
330
5
100
AcDbSymbolTableRecord
100
AcDbLinetypeTableRecord
  2
DASHEDX2
 70
     0
  3
DASHEDX2
 72
    65
 73
     2
 40
38.09999999999999
 49
25.4
 74
     0
 49
-12.7
 74
     0
  0
LTYPE
  5
1A4
330
5
100
AcDbSymbolTableRecord
100
AcDbLinetypeTableRecord
  2
DIVIDE
 70
     0
  3
DIVIDE
 72
    65
 73
     6
 40
31.74999999999999
 49
12.7
 74
     0
 49
-6.349999999999999
 74
     0
 49
0.0
 74
     0
 49
-6.349999999999999
 74
     0
 49
0.0
 74
     0
 49
-6.349999999999999
 74
     0
  0
LTYPE
  5
1A5
330
5
100
AcDbSymbolTableRecord
100
AcDbLinetypeTableRecord
  2
DIVIDE2
 70
     0
  3
DIVIDE2
 72
    65
 73
     6
 40
15.875
 49
6.349999999999999
 74
     0
 49
-3.174999999999999
 74
     0
 49
0.0
 74
     0
 49
-3.174999999999999
 74
     0
 49
0.0
 74
     0
 49
-3.174999999999999
 74
     0
  0
LTYPE
  5
1A6
330
5
100
AcDbSymbolTableRecord
100
AcDbLinetypeTableRecord
  2
DIVIDEX2
 70
     0
  3
DIVIDEX2
 72
    65
 73
     6
 40
63.5
 49
25.4
 74
     0
 49
-12.7
 74
     0
 49
0.0
 74
     0
 49
-12.7
 74
     0
 49
0.0
 74
     0
 49
-12.7
 74
     0
  0
LTYPE
  5
1A7
330
5
100
AcDbSymbolTableRecord
100
AcDbLinetypeTableRecord
  2
DOT
 70
     0
  3
DOT
 72
    65
 73
     2
 40
6.349999999999999
 49
0.0
 74
     0
 49
-6.349999999999999
 74
     0
  0
LTYPE
  5
1A8
330
5
100
AcDbSymbolTableRecord
100
AcDbLinetypeTableRecord
  2
DOT2
 70
     0
  3
DOT2
 72
    65
 73
     2
 40
3.174999999999999
 49
0.0
 74
     0
 49
-3.174999999999999
 74
     0
  0
LTYPE
  5
1A9
330
5
100
AcDbSymbolTableRecord
100
AcDbLinetypeTableRecord
  2
DOTX2
 70
     0
  3
DOTX2
 72
    65
 73
     2
 40
12.7
 49
0.0
 74
     0
 49
-12.7
 74
     0
  0
LTYPE
  5
1AA
330
5
100
AcDbSymbolTableRecord
100
AcDbLinetypeTableRecord
  2
HIDDEN
 70
     0
  3
HIDDEN
 72
    65
 73
     2
 40
9.524999999999999
 49
6.349999999999999
 74
     0
 49
-3.174999999999999
 74
     0
  0
LTYPE
  5
1AB
330
5
100
AcDbSymbolTableRecord
100
AcDbLinetypeTableRecord
  2
HIDDEN2
 70
     0
  3
HIDDEN2
 72
    65
 73
     2
 40
4.762499999999998
 49
3.174999999999999
 74
     0
 49
-1.587499999999999
 74
     0
  0
LTYPE
  5
1AC
330
5
100
AcDbSymbolTableRecord
100
AcDbLinetypeTableRecord
  2
HIDDENX2
 70
     0
  3
HIDDENX2
 72
    65
 73
     2
 40
19.05
 49
12.7
 74
     0
 49
-6.349999999999999
 74
     0
  0
LTYPE
  5
1AD
330
5
100
AcDbSymbolTableRecord
100
AcDbLinetypeTableRecord
  2
PHANTOM
 70
     0
  3
PHANTOM
 72
    65
 73
     6
 40
63.50000000000001
 49
31.75
 74
     0
 49
-6.349999999999999
 74
     0
 49
6.349999999999999
 74
     0
 49
-6.349999999999999
 74
     0
 49
6.349999999999999
 74
     0
 49
-6.349999999999999
 74
     0
  0
LTYPE
  5
1AE
330
5
100
AcDbSymbolTableRecord
100
AcDbLinetypeTableRecord
  2
PHANTOM2
 70
     0
  3
PHANTOM2
 72
    65
 73
     6
 40
31.74999999999999
 49
15.875
 74
     0
 49
-3.174999999999999
 74
     0
 49
3.174999999999999
 74
     0
 49
-3.174999999999999
 74
     0
 49
3.174999999999999
 74
     0
 49
-3.174999999999999
 74
     0
  0
LTYPE
  5
1AF
330
5
100
AcDbSymbolTableRecord
100
AcDbLinetypeTableRecord
  2
PHANTOMX2
 70
     0
  3
PHANTOMX2
 72
    65
 73
     6
 40
127.0
 49
63.5
 74
     0
 49
-12.7
 74
     0
 49
12.7
 74
     0
 49
-12.7
 74
     0
 49
12.7
 74
     0
 49
-12.7
 74
     0
  0
LTYPE
  5
1B0
330
5
100
AcDbSymbolTableRecord
100
AcDbLinetypeTableRecord
  2
ACAD_ISO02W100
 70
     0
  3
ACAD_ISO02W100
 72
    65
 73
     2
 40
15.0
 49
12.0
 74
     0
 49
-3.0
 74
     0
  0
LTYPE
  5
1B1
330
5
100
AcDbSymbolTableRecord
100
AcDbLinetypeTableRecord
  2
ACAD_ISO03W100
 70
     0
  3
ACAD_ISO03W100
 72
    65
 73
     2
 40
30.0
 49
12.0
 74
     0
 49
-18.0
 74
     0
  0
LTYPE
  5
1B2
330
5
100
AcDbSymbolTableRecord
100
AcDbLinetypeTableRecord
  2
ACAD_ISO04W100
 70
     0
  3
ACAD_ISO04W100
 72
    65
 73
     4
 40
30.0
 49
24.0
 74
     0
 49
-3.0
 74
     0
 49
0.0
 74
     0
 49
-3.0
 74
     0
  0
LTYPE
  5
1B3
330
5
100
AcDbSymbolTableRecord
100
AcDbLinetypeTableRecord
  2
ACAD_ISO05W100
 70
     0
  3
ACAD_ISO05W100
 72
    65
 73
     6
 40
33.0
 49
24.0
 74
     0
 49
-3.0
 74
     0
 49
0.0
 74
     0
 49
-3.0
 74
     0
 49
0.0
 74
     0
 49
-3.0
 74
     0
  0
LTYPE
  5
1B4
330
5
100
AcDbSymbolTableRecord
100
AcDbLinetypeTableRecord
  2
ACAD_ISO06W100
 70
     0
  3
ACAD_ISO06W100
 72
    65
 73
     8
 40
36.0
 49
24.0
 74
     0
 49
-3.0
 74
     0
 49
0.0
 74
     0
 49
-3.0
 74
     0
 49
0.0
 74
     0
 49
-3.0
 74
     0
 49
0.0
 74
     0
 49
-3.0
 74
     0
  0
LTYPE
  5
1B5
330
5
100
AcDbSymbolTableRecord
100
AcDbLinetypeTableRecord
  2
ACAD_ISO07W100
 70
     0
  3
ACAD_ISO07W100
 72
    65
 73
     2
 40
3.0
 49
0.0
 74
     0
 49
-3.0
 74
     0
  0
LTYPE
  5
1B6
330
5
100
AcDbSymbolTableRecord
100
AcDbLinetypeTableRecord
  2
ACAD_ISO08W100
 70
     0
  3
ACAD_ISO08W100
 72
    65
 73
     4
 40
36.0
 49
24.0
 74
     0
 49
-3.0
 74
     0
 49
6.0
 74
     0
 49
-3.0
 74
     0
  0
LTYPE
  5
1B7
330
5
100
AcDbSymbolTableRecord
100
AcDbLinetypeTableRecord
  2
ACAD_ISO09W100
 70
     0
  3
ACAD_ISO09W100
 72
    65
 73
     6
 40
45.0
 49
24.0
 74
     0
 49
-3.0
 74
     0
 49
6.0
 74
     0
 49
-3.0
 74
     0
 49
6.0
 74
     0
 49
-3.0
 74
     0
  0
LTYPE
  5
1B8
330
5
100
AcDbSymbolTableRecord
100
AcDbLinetypeTableRecord
  2
ACAD_ISO10W100
 70
     0
  3
ACAD_ISO10W100
 72
    65
 73
     4
 40
18.0
 49
12.0
 74
     0
 49
-3.0
 74
     0
 49
0.0
 74
     0
 49
-3.0
 74
     0
  0
LTYPE
  5
1B9
330
5
100
AcDbSymbolTableRecord
100
AcDbLinetypeTableRecord
  2
ACAD_ISO11W100
 70
     0
  3
ACAD_ISO11W100
 72
    65
 73
     6
 40
33.0
 49
12.0
 74
     0
 49
-3.0
 74
     0
 49
12.0
 74
     0
 49
-3.0
 74
     0
 49
0.0
 74
     0
 49
-3.0
 74
     0
  0
LTYPE
  5
1BA
330
5
100
AcDbSymbolTableRecord
100
AcDbLinetypeTableRecord
  2
ACAD_ISO12W100
 70
     0
  3
ACAD_ISO12W100
 72
    65
 73
     6
 40
21.0
 49
12.0
 74
     0
 49
-3.0
 74
     0
 49
0.0
 74
     0
 49
-3.0
 74
     0
 49
0.0
 74
     0
 49
-3.0
 74
     0
  0
LTYPE
  5
1BB
330
5
100
AcDbSymbolTableRecord
100
AcDbLinetypeTableRecord
  2
ACAD_ISO13W100
 70
     0
  3
ACAD_ISO13W100
 72
    65
 73
     8
 40
36.0
 49
12.0
 74
     0
 49
-3.0
 74
     0
 49
12.0
 74
     0
 49
-3.0
 74
     0
 49
0.0
 74
     0
 49
-3.0
 74
     0
 49
0.0
 74
     0
 49
-3.0
 74
     0
  0
LTYPE
  5
1BC
330
5
100
AcDbSymbolTableRecord
100
AcDbLinetypeTableRecord
  2
ACAD_ISO14W100
 70
     0
  3
ACAD_ISO14W100
 72
    65
 73
     8
 40
24.0
 49
12.0
 74
     0
 49
-3.0
 74
     0
 49
0.0
 74
     0
 49
-3.0
 74
     0
 49
0.0
 74
     0
 49
-3.0
 74
     0
 49
0.0
 74
     0
 49
-3.0
 74
     0
  0
LTYPE
  5
1BD
330
5
100
AcDbSymbolTableRecord
100
AcDbLinetypeTableRecord
  2
ACAD_ISO15W100
 70
     0
  3
ACAD_ISO15W100
 72
    65
 73
    10
 40
39.0
 49
12.0
 74
     0
 49
-3.0
 74
     0
 49
12.0
 74
     0
 49
-3.0
 74
     0
 49
0.0
 74
     0
 49
-3.0
 74
     0
 49
0.0
 74
     0
 49
-3.0
 74
     0
 49
0.0
 74
     0
 49
-3.0
 74
     0
  0
LTYPE
  5
1BF
330
5
100
AcDbSymbolTableRecord
100
AcDbLinetypeTableRecord
  2
FENCELINE1
 70
     0
  3
FENCELINE1
 72
    65
 73
     4
 40
36.83
 49
6.349999999999999
 74
     0
 49
-2.54
 74
     4
 75
   133
340
1BE
 46
2.54
 50
0.0
 44
-2.54
 45
0.0
 49
-2.54
 74
     0
 49
25.4
 74
     0
  0
LTYPE
  5
1C0
330
5
100
AcDbSymbolTableRecord
100
AcDbLinetypeTableRecord
  2
FENCELINE2
 70
     0
  3
FENCELINE2
 72
    65
 73
     4
 40
36.83
 49
6.349999999999999
 74
     0
 49
-2.54
 74
     4
 75
   132
340
1BE
 46
2.54
 50
0.0
 44
-2.54
 45
0.0
 49
-2.54
 74
     0
 49
25.4
 74
     0
  0
LTYPE
  5
1C1
330
5
100
AcDbSymbolTableRecord
100
AcDbLinetypeTableRecord
  2
TRACKS
 70
     0
  3
TRACKS
 72
    65
 73
     2
 40
7.62
 49
3.81
 74
     4
 75
   130
340
1BE
 46
6.349999999999999
 50
0.0
 44
0.0
 45
0.0
 49
3.81
 74
     0
  0
LTYPE
  5
1C2
330
5
100
AcDbSymbolTableRecord
100
AcDbLinetypeTableRecord
  2
BATTING
 70
     0
  3
BATTING
 72
    65
 73
     4
 40
10.16254
 49
0.00254
 74
     0
 49
-2.54
 74
     4
 75
   134
340
1BE
 46
2.54
 50
0.0
 44
-2.54
 45
0.0
 49
-5.08
 74
     4
 75
   134
340
1BE
 46
2.54
 50
180.0
 44
2.54
 45
0.0
 49
-2.54
 74
     0
  0
LTYPE
  5
1C4
330
5
100
AcDbSymbolTableRecord
100
AcDbLinetypeTableRecord
  2
HOT_WATER_SUPPLY
 70
     0
  3
HOT_WATER_SUPPLY
 72
    65
 73
     3
 40
22.86
 49
12.7
 74
     0
 49
-5.08
 74
     2
 75
     0
340
1C3
 46
2.54
 50
0.0
 44
-2.54
 45
-1.27
  9
HW
 49
-5.08
 74
     0
  0
LTYPE
  5
1C5
330
5
100
AcDbSymbolTableRecord
100
AcDbLinetypeTableRecord
  2
GAS_LINE
 70
     0
  3
GAS_LINE
 72
    65
 73
     3
 40
24.13
 49
12.7
 74
     0
 49
-5.08
 74
     2
 75
     0
340
1C3
 46
2.54
 50
0.0
 44
-2.54
 45
-1.27
  9
GAS
 49
-6.349999999999999
 74
     0
  0
LTYPE
  5
1C6
330
5
100
AcDbSymbolTableRecord
100
AcDbLinetypeTableRecord
  2
ZIGZAG
 70
     0
  3
ZIGZAG
 72
    65
 73
     4
 40
20.32254
 49
0.00254
 74
     0
 49
-5.08
 74
     4
 75
   131
340
1BE
 46
5.08
 50
0.0
 44
-5.08
 45
0.0
 49
-10.16
 74
     4
 75
   131
340
1BE
 46
5.08
 50
180.0
 44
5.08
 45
0.0
 49
-5.08
 74
     0
  0
LTYPE
  5
1C7
330
5
100
AcDbSymbolTableRecord
100
AcDbLinetypeTableRecord
  2
$CONSTRUCTION
 70
     0
  3
$CONSTRUCTION
 72
    65
 73
     4
 40
0.3
 49
0.2
 74
     0
 49
-0.05
 74
     0
 49
0.0
 74
     0
 49
-0.05
 74
     0
  0
LTYPE
  5
1C8
330
5
100
AcDbSymbolTableRecord
100
AcDbLinetypeTableRecord
  2
$AUXILIARY
 70
     0
  3
$AUXILIARY
 72
    65
 73
     2
 40
0.1
 49
0.05
 74
     0
 49
-0.05
 74
     0
  0
LTYPE
  5
1C9
330
5
100
AcDbSymbolTableRecord
100
AcDbLinetypeTableRecord
  2
$SNAPEXT
 70
     0
  3
$SNAPEXT
 72
    65
 73
     2
 40
0.04
 49
0.02
 74
     0
 49
-0.02
 74
     0
  0
ENDTAB
  0
TABLE
  2
LAYER
  5
2
330
0
100
AcDbSymbolTable
 70
     1
  0
LAYER
  5
10
330
2
100
AcDbSymbolTableRecord
100
AcDbLayerTableRecord
  2
0
 70
     0
 62
     7
  6
CONTINUOUS
  0
ENDTAB
  0
TABLE
  2
STYLE
  5
3
330
0
100
AcDbSymbolTable
 70
     6
  0
STYLE
  5
11
330
3
100
AcDbSymbolTableRecord
100
AcDbTextStyleTableRecord
  2
STANDARD
 70
     0
 40
0.0
 41
1.0
 50
0.0
 71
     0
 42
0.2000000178813934
  3
TXT.SHX
  4

  0
STYLE
  5
1BE
330
3
100
AcDbSymbolTableRecord
100
AcDbTextStyleTableRecord
  2

 70
     1
 40
0.0
 41
1.0
 50
0.0
 71
     0
 42
0.2
  3
ltypeshp.shx
  4

  0
STYLE
  5
1C3
330
3
100
AcDbSymbolTableRecord
100
AcDbTextStyleTableRecord
  2
TXT_SHX
 70
     0
 40
0.0
 41
1.0
 50
0.0
 71
     0
 42
0.2
  3

  4

1001
ACAD
1000
txt.shx
1071
        0
  0
STYLE
  5
1CB
330
3
100
AcDbSymbolTableRecord
100
AcDbTextStyleTableRecord
  2
ANNOTATIVE
 70
     0
 40
0.0
 41
1.0
 50
0.0
 71
     0
 42
0.2
  3
TXT.SHX
  4

  0
STYLE
  5
1CC
330
3
100
AcDbSymbolTableRecord
100
AcDbTextStyleTableRecord
  2
NOTIZTEXT__DIN__-_3DA
 70
     0
 40
0.0
 41
1.0
 50
0.0
 71
     0
 42
0.2
  3

  4

1001
ACAD
1000
isocpeur
1071
      290
  0
STYLE
  5
1CD
330
3
100
AcDbSymbolTableRecord
100
AcDbTextStyleTableRecord
  2
SKIZZENTEXT__ISO__-_3DA
 70
     0
 40
0.0
 41
1.0
 50
0.0
 71
     0
 42
0.2
  3

  4

1001
ACAD
1000
Tahoma
1071
       34
  0
ENDTAB
  0
TABLE
  2
VIEW
  5
6
330
0
100
AcDbSymbolTable
 70
     1
  0
VIEW
  5
1CA
330
6
100
AcDbSymbolTableRecord
100
AcDbViewTableRecord
  2
ANSICHT_0
 70
     0
 40
210.0
 10
148.5
 20
105.0
 41
297.0
 11
0.0
 21
0.0
 31
1.0
 12
0.0
 22
0.0
 32
0.0
 42
50.0
 43
0.0
 44
0.0
 50
0.0
 71
     0
  0
ENDTAB
  0
TABLE
  2
UCS
  5
7
330
0
100
AcDbSymbolTable
 70
     0
  0
ENDTAB
  0
TABLE
  2
APPID
  5
9
330
0
100
AcDbSymbolTable
 70
     6
  0
APPID
  5
12
330
9
100
AcDbSymbolTableRecord
100
AcDbRegAppTableRecord
  2
ACAD
 70
     0
  0
APPID
  5
6E
330
9
100
AcDbSymbolTableRecord
100
AcDbRegAppTableRecord
  2
TCAD
 70
     0
  0
APPID
  5
5F0
330
9
100
AcDbSymbolTableRecord
100
AcDbRegAppTableRecord
  2
ACAD_MLEADERVER
 70
     0
  0
ENDTAB
  0
TABLE
  2
DIMSTYLE
  5
A
330
0
100
AcDbSymbolTable
 70
     2
  0
DIMSTYLE
105
27
330
A
100
AcDbSymbolTableRecord
100
AcDbDimStyleTableRecord
  2
STANDARD
 70
     0
  3

  4
^B2147483648l^B
  5

  6

  7

 40
1.0
 41
0.18
 42
0.0625
 43
0.38
 44
0.18
 45
0.0
 46
0.0
 47
0.0
 48
0.0
140
0.18
141
0.09
142
0.0
143
25.4
144
1.0
145
0.0
146
1.0
147
0.09
 71
     0
 72
     0
 73
     1
 74
     1
 75
     0
 76
     0
 77
     0
 78
     0
170
     0
171
     2
172
     0
173
     0
174
     0
175
     0
176
     0
177
     0
178
     0
270
     2
271
     4
272
     4
273
     2
274
     2
340
11
275
     0
280
     0
281
     0
282
     0
283
     1
284
     0
285
     0
286
     0
287
     3
288
     0
  0
DIMSTYLE
105
1CE
330
A
100
AcDbSymbolTableRecord
100
AcDbDimStyleTableRecord
  2
ANNOTATIVE
 70
     0
  3

  4
^B2147483648l^B
  5

  6

  7

 40
1.0
 41
0.18
 42
0.0625
 43
0.38
 44
0.18
 45
0.0
 46
0.0
 47
0.0
 48
0.0
140
0.18
141
0.09
142
0.0
143
25.4
144
1.0
145
0.0
146
1.0
147
0.09
 71
     0
 72
     0
 73
     1
 74
     1
 75
     0
 76
     0
 77
     0
 78
     0
170
     0
171
     2
172
     0
173
     0
174
     0
175
     0
176
     0
177
     0
178
     0
270
     2
271
     4
272
     4
273
     2
274
     2
340
11
275
     0
280
     0
281
     0
282
     0
283
     1
284
     0
285
     0
286
     0
287
     3
288
     0
  0
ENDTAB
  0
TABLE
  2
BLOCK_RECORD
  5
1
330
0
100
AcDbSymbolTable
 70
     3
  0
BLOCK_RECORD
  5
1F
102
{ACAD_XDICTIONARY
360
1CF
102
}
330
1
100
AcDbSymbolTableRecord
100
AcDbBlockTableRecord
  2
*MODEL_SPACE
  0
BLOCK_RECORD
  5
1B
330
1
100
AcDbSymbolTableRecord
100
AcDbBlockTableRecord
  2
*PAPER_SPACE
  0
ENDTAB
  0
ENDSEC
  0
SECTION
  2
BLOCKS
  0
BLOCK
  5
20
330
1F
100
AcDbEntity
  8
0
100
AcDbBlockBegin
  2
*MODEL_SPACE
 70
     0
 10
0.0
 20
0.0
 30
0.0
  3
*MODEL_SPACE
  1

  0
ENDBLK
  5
21
330
1F
100
AcDbEntity
  8
0
100
AcDbBlockEnd
  0
BLOCK
  5
1C
330
1B
100
AcDbEntity
 67
     1
  8
0
100
AcDbBlockBegin
  2
*PAPER_SPACE
 70
     0
 10
0.0
 20
0.0
 30
0.0
  3
*PAPER_SPACE
  1

  0
ENDBLK
  5
1D
330
1B
100
AcDbEntity
 67
     1
  8
0
100
AcDbBlockEnd
  0
ENDSEC
  0
SECTION
  2
ENTITIES
  0
LINE
  5
1DB
102
{ACAD_XDICTIONARY
360
1DC
102
}
330
1F
100
AcDbEntity
  8
0
100
AcDbLine
 10
-2.599999999999997
 20
5.900000000000119
 30
0.0
 11
0.0
 21
5.900000000000119
 31
0.0
  0
LINE
  5
1DE
102
{ACAD_XDICTIONARY
360
1DF
102
}
330
1F
100
AcDbEntity
  8
0
100
AcDbLine
 10
0.0
 20
5.900000000000119
 30
0.0
 11
0.0
 21
0.0
 31
0.0
  0
LINE
  5
1E1
102
{ACAD_XDICTIONARY
360
1E2
102
}
330
1F
100
AcDbEntity
  8
0
100
AcDbLine
 10
0.0
 20
0.0
 30
0.0
 11
2.479999999999997
 21
0.0
 31
0.0
  0
LINE
  5
1E4
102
{ACAD_XDICTIONARY
360
1E5
102
}
330
1F
100
AcDbEntity
  8
0
100
AcDbLine
 10
2.479999999999997
 20
0.0
 30
0.0
 11
2.479999999999997
 21
5.900000000000119
 31
0.0
  0
LINE
  5
1E7
102
{ACAD_XDICTIONARY
360
1E8
102
}
330
1F
100
AcDbEntity
  8
0
100
AcDbLine
 10
2.479999999999997
 20
5.900000000000119
 30
0.0
 11
5.08
 21
5.900000000000119
 31
0.0
  0
LINE
  5
1EA
102
{ACAD_XDICTIONARY
360
1EB
102
}
330
1F
100
AcDbEntity
  8
0
100
AcDbLine
 10
5.08
 20
5.900000000000119
 30
0.0
 11
5.08
 21
0.0
 31
0.0
  0
LINE
  5
1ED
102
{ACAD_XDICTIONARY
360
1EE
102
}
330
1F
100
AcDbEntity
  8
0
100
AcDbLine
 10
5.08
 20
0.0
 30
0.0
 11
7.560000000000002
 21
0.0
 31
0.0
  0
LINE
  5
1F0
102
{ACAD_XDICTIONARY
360
1F1
102
}
330
1F
100
AcDbEntity
  8
0
100
AcDbLine
 10
7.560000000000002
 20
0.0
 30
0.0
 11
7.560000000000002
 21
5.900000000000119
 31
0.0
  0
LINE
  5
1F3
102
{ACAD_XDICTIONARY
360
1F4
102
}
330
1F
100
AcDbEntity
  8
0
100
AcDbLine
 10
7.560000000000002
 20
5.900000000000119
 30
0.0
 11
10.16
 21
5.900000000000119
 31
0.0
  0
LINE
  5
1F6
102
{ACAD_XDICTIONARY
360
1F7
102
}
330
1F
100
AcDbEntity
  8
0
100
AcDbLine
 10
10.16
 20
5.900000000000119
 30
0.0
 11
10.16
 21
0.0
 31
0.0
  0
LINE
  5
1F9
102
{ACAD_XDICTIONARY
360
1FA
102
}
330
1F
100
AcDbEntity
  8
0
100
AcDbLine
 10
10.16
 20
0.0
 30
0.0
 11
12.64
 21
0.0
 31
0.0
  0
LINE
  5
1FC
102
{ACAD_XDICTIONARY
360
1FD
102
}
330
1F
100
AcDbEntity
  8
0
100
AcDbLine
 10
12.64
 20
0.0
 30
0.0
 11
12.64
 21
5.900000000000119
 31
0.0
  0
LINE
  5
1FF
102
{ACAD_XDICTIONARY
360
200
102
}
330
1F
100
AcDbEntity
  8
0
100
AcDbLine
 10
12.64
 20
5.900000000000119
 30
0.0
 11
15.24
 21
5.900000000000119
 31
0.0
  0
LINE
  5
202
102
{ACAD_XDICTIONARY
360
203
102
}
330
1F
100
AcDbEntity
  8
0
100
AcDbLine
 10
15.24
 20
5.900000000000119
 30
0.0
 11
15.24
 21
0.0
 31
0.0
  0
LINE
  5
205
102
{ACAD_XDICTIONARY
360
206
102
}
330
1F
100
AcDbEntity
  8
0
100
AcDbLine
 10
15.24
 20
0.0
 30
0.0
 11
17.72
 21
0.0
 31
0.0
  0
LINE
  5
208
102
{ACAD_XDICTIONARY
360
209
102
}
330
1F
100
AcDbEntity
  8
0
100
AcDbLine
 10
17.72
 20
0.0
 30
0.0
 11
17.72
 21
5.900000000000119
 31
0.0
  0
LINE
  5
20B
102
{ACAD_XDICTIONARY
360
20C
102
}
330
1F
100
AcDbEntity
  8
0
100
AcDbLine
 10
17.72
 20
5.900000000000119
 30
0.0
 11
20.32
 21
5.900000000000119
 31
0.0
  0
LINE
  5
20E
102
{ACAD_XDICTIONARY
360
20F
102
}
330
1F
100
AcDbEntity
  8
0
100
AcDbLine
 10
20.32
 20
5.900000000000119
 30
0.0
 11
20.32
 21
0.0
 31
0.0
  0
LINE
  5
211
102
{ACAD_XDICTIONARY
360
212
102
}
330
1F
100
AcDbEntity
  8
0
100
AcDbLine
 10
20.32
 20
0.0
 30
0.0
 11
22.80000000000001
 21
0.0
 31
0.0
  0
LINE
  5
214
102
{ACAD_XDICTIONARY
360
215
102
}
330
1F
100
AcDbEntity
  8
0
100
AcDbLine
 10
22.80000000000001
 20
0.0
 30
0.0
 11
22.80000000000001
 21
5.900000000000119
 31
0.0
  0
LINE
  5
217
102
{ACAD_XDICTIONARY
360
218
102
}
330
1F
100
AcDbEntity
  8
0
100
AcDbLine
 10
22.80000000000001
 20
5.900000000000119
 30
0.0
 11
25.4
 21
5.900000000000118
 31
0.0
  0
LINE
  5
21A
102
{ACAD_XDICTIONARY
360
21B
102
}
330
1F
100
AcDbEntity
  8
0
100
AcDbLine
 10
25.4
 20
5.900000000000118
 30
0.0
 11
25.4
 21
0.0
 31
0.0
  0
LINE
  5
21D
102
{ACAD_XDICTIONARY
360
21E
102
}
330
1F
100
AcDbEntity
  8
0
100
AcDbLine
 10
25.4
 20
0.0
 30
0.0
 11
30.7
 21
0.0
 31
0.0
  0
LWPOLYLINE
  5
220
102
{ACAD_XDICTIONARY
360
221
102
}
330
1F
100
AcDbEntity
  8
0
100
AcDbPolyline
 90
       16
 70
     0
 43
0.0
 10
30.7
 20
0.0
 10
30.75226423163383
 20
0.0027390523158634
 10
30.80395584540888
 20
0.0109261996330972
 10
30.85450849718747
 20
0.0244717418524233
 10
30.9033683215379
 20
0.0432272711786996
 10
30.95
 20
0.0669872981077808
 10
30.99389262614623
 20
0.0954915028125264
 10
31.03456530317943
 20
0.128427587261303
 10
31.0715724127387
 20
0.165434696820571
 10
31.10450849718747
 20
0.2061073738537635
 10
31.13301270189222
 20
0.2500000000000001
 10
31.1567727288213
 20
0.2966316784621
 10
31.17552825814758
 20
0.3454915028125264
 10
31.1890738003669
 20
0.3960441545911204
 10
31.19726094768414
 20
0.4477357683661733
 10
31.2
 20
0.5
  0
LINE
  5
223
102
{ACAD_XDICTIONARY
360
224
102
}
330
1F
100
AcDbEntity
  8
0
100
AcDbLine
 10
31.2
 20
0.5
 30
0.0
 11
31.2
 21
5.400000000000407
 31
0.0
  0
LWPOLYLINE
  5
226
102
{ACAD_XDICTIONARY
360
227
102
}
330
1F
100
AcDbEntity
  8
0
100
AcDbPolyline
 90
       16
 70
     0
 43
0.0
 10
31.2
 20
5.400000000000407
 10
31.19726094768414
 20
5.452264231634234
 10
31.1890738003669
 20
5.503955845409287
 10
31.17552825814758
 20
5.55450849718788
 10
31.1567727288213
 20
5.603368321538307
 10
31.13301270189222
 20
5.650000000000407
 10
31.10450849718747
 20
5.693892626146644
 10
31.0715724127387
 20
5.734565303179836
 10
31.03456530317943
 20
5.771572412739104
 10
30.99389262614623
 20
5.80450849718788
 10
30.95
 20
5.833012701892626
 10
30.9033683215379
 20
5.856772728821707
 10
30.85450849718747
 20
5.875528258147984
 10
30.80395584540888
 20
5.88907380036731
 10
30.75226423163383
 20
5.897260947684543
 10
30.7
 20
5.900000000000407
  0
LINE
  5
229
102
{ACAD_XDICTIONARY
360
22A
102
}
330
1F
100
AcDbEntity
  8
0
100
AcDbLine
 10
30.7
 20
5.900000000000407
 30
0.0
 11
27.14
 21
5.900000000000407
 31
0.0
  0
LWPOLYLINE
  5
22C
102
{ACAD_XDICTIONARY
360
22D
102
}
330
1F
100
AcDbEntity
  8
0
100
AcDbPolyline
 90
       16
 70
     0
 43
0.0
 10
26.64
 20
6.400000000000407
 10
26.64273905231586
 20
6.34773576836658
 10
26.6509261996331
 20
6.296044154591527
 10
26.66447174185242
 20
6.245491502812934
 10
26.6832272711787
 20
6.196631678462508
 10
26.70698729810778
 20
6.150000000000407
 10
26.73549150281253
 20
6.10610737385417
 10
26.7684275872613
 20
6.065434696820978
 10
26.80543469682057
 20
6.02842758726171
 10
26.84610737385377
 20
5.995491502812934
 10
26.89
 20
5.966987298108188
 10
26.9366316784621
 20
5.943227271179107
 10
26.98549150281253
 20
5.92447174185283
 10
27.03604415459112
 20
5.910926199633504
 10
27.08773576836617
 20
5.902739052316271
 10
27.14
 20
5.900000000000407
  0
LINE
  5
22F
102
{ACAD_XDICTIONARY
360
230
102
}
330
1F
100
AcDbEntity
  8
0
100
AcDbLine
 10
26.64
 20
6.400000000000407
 30
0.0
 11
26.64
 21
6.500000000000407
 31
0.0
  0
LINE
  5
232
102
{ACAD_XDICTIONARY
360
233
102
}
330
1F
100
AcDbEntity
  8
0
100
AcDbLine
 10
26.64
 20
6.500000000000407
 30
0.0
 11
-14.0
 21
6.500000000000407
 31
0.0
  0
LINE
  5
235
102
{ACAD_XDICTIONARY
360
236
102
}
330
1F
100
AcDbEntity
  8
0
100
AcDbLine
 10
-14.0
 20
6.500000000000407
 30
0.0
 11
-14.0
 21
6.400000000000407
 31
0.0
  0
LWPOLYLINE
  5
238
102
{ACAD_XDICTIONARY
360
239
102
}
330
1F
100
AcDbEntity
  8
0
100
AcDbPolyline
 90
       16
 70
     0
 43
0.0
 10
-14.5
 20
5.900000000000407
 10
-14.44773576836617
 20
5.902739052316271
 10
-14.39604415459112
 20
5.910926199633504
 10
-14.34549150281253
 20
5.92447174185283
 10
-14.2966316784621
 20
5.943227271179107
 10
-14.25
 20
5.966987298108188
 10
-14.20610737385376
 20
5.995491502812934
 10
-14.16543469682057
 20
6.02842758726171
 10
-14.1284275872613
 20
6.065434696820978
 10
-14.09549150281253
 20
6.10610737385417
 10
-14.06698729810778
 20
6.150000000000407
 10
-14.0432272711787
 20
6.196631678462508
 10
-14.02447174185242
 20
6.245491502812934
 10
-14.0109261996331
 20
6.296044154591527
 10
-14.00273905231586
 20
6.34773576836658
 10
-14.0
 20
6.400000000000407
  0
LINE
  5
23B
102
{ACAD_XDICTIONARY
360
23C
102
}
330
1F
100
AcDbEntity
  8
0
100
AcDbLine
 10
-14.5
 20
5.900000000000407
 30
0.0
 11
-18.06
 21
5.900000000000407
 31
0.0
  0
LWPOLYLINE
  5
23E
102
{ACAD_XDICTIONARY
360
23F
102
}
330
1F
100
AcDbEntity
  8
0
100
AcDbPolyline
 90
       16
 70
     0
 43
0.0
 10
-18.06
 20
5.900000000000407
 10
-18.11226423163383
 20
5.897260947684543
 10
-18.16395584540888
 20
5.88907380036731
 10
-18.21450849718747
 20
5.875528258147984
 10
-18.2633683215379
 20
5.856772728821707
 10
-18.31
 20
5.833012701892627
 10
-18.35389262614623
 20
5.80450849718788
 10
-18.39456530317943
 20
5.771572412739104
 10
-18.4315724127387
 20
5.734565303179837
 10
-18.46450849718747
 20
5.693892626146644
 10
-18.49301270189222
 20
5.650000000000407
 10
-18.5167727288213
 20
5.603368321538308
 10
-18.53552825814758
 20
5.55450849718788
 10
-18.5490738003669
 20
5.503955845409287
 10
-18.55726094768414
 20
5.452264231634234
 10
-18.56
 20
5.400000000000407
  0
LINE
  5
241
102
{ACAD_XDICTIONARY
360
242
102
}
330
1F
100
AcDbEntity
  8
0
100
AcDbLine
 10
-18.56
 20
5.400000000000407
 30
0.0
 11
-18.56
 21
0.5
 31
0.0
  0
LWPOLYLINE
  5
244
102
{ACAD_XDICTIONARY
360
245
102
}
330
1F
100
AcDbEntity
  8
0
100
AcDbPolyline
 90
       16
 70
     0
 43
0.0
 10
-18.56
 20
0.5
 10
-18.55726094768414
 20
0.4477357683661733
 10
-18.5490738003669
 20
0.3960441545911204
 10
-18.53552825814758
 20
0.3454915028125264
 10
-18.5167727288213
 20
0.2966316784621
 10
-18.49301270189222
 20
0.2500000000000001
 10
-18.46450849718747
 20
0.2061073738537636
 10
-18.4315724127387
 20
0.165434696820571
 10
-18.39456530317943
 20
0.128427587261303
 10
-18.35389262614623
 20
0.0954915028125264
 10
-18.31
 20
0.0669872981077809
 10
-18.2633683215379
 20
0.0432272711786997
 10
-18.21450849718747
 20
0.0244717418524235
 10
-18.16395584540888
 20
0.0109261996330974
 10
-18.11226423163383
 20
0.0027390523158636
 10
-18.06
 20
0.0000000000000003
  0
LINE
  5
247
102
{ACAD_XDICTIONARY
360
248
102
}
330
1F
100
AcDbEntity
  8
0
100
AcDbLine
 10
-18.06
 20
0.0
 30
0.0
 11
-12.76
 21
0.0
 31
0.0
  0
LINE
  5
24A
102
{ACAD_XDICTIONARY
360
24B
102
}
330
1F
100
AcDbEntity
  8
0
100
AcDbLine
 10
-12.76
 20
0.0
 30
0.0
 11
-12.76
 21
5.900000000000118
 31
0.0
  0
LINE
  5
24D
102
{ACAD_XDICTIONARY
360
24E
102
}
330
1F
100
AcDbEntity
  8
0
100
AcDbLine
 10
-12.76
 20
5.900000000000118
 30
0.0
 11
-10.16
 21
5.900000000000119
 31
0.0
  0
LINE
  5
250
102
{ACAD_XDICTIONARY
360
251
102
}
330
1F
100
AcDbEntity
  8
0
100
AcDbLine
 10
-10.16
 20
5.900000000000119
 30
0.0
 11
-10.16
 21
0.0
 31
0.0
  0
LINE
  5
253
102
{ACAD_XDICTIONARY
360
254
102
}
330
1F
100
AcDbEntity
  8
0
100
AcDbLine
 10
-10.16
 20
0.0
 30
0.0
 11
-7.680000000000002
 21
0.0
 31
0.0
  0
LINE
  5
256
102
{ACAD_XDICTIONARY
360
257
102
}
330
1F
100
AcDbEntity
  8
0
100
AcDbLine
 10
-7.680000000000002
 20
0.0
 30
0.0
 11
-7.680000000000002
 21
5.900000000000119
 31
0.0
  0
LINE
  5
259
102
{ACAD_XDICTIONARY
360
25A
102
}
330
1F
100
AcDbEntity
  8
0
100
AcDbLine
 10
-7.680000000000002
 20
5.900000000000119
 30
0.0
 11
-5.08
 21
5.900000000000119
 31
0.0
  0
LINE
  5
25C
102
{ACAD_XDICTIONARY
360
25D
102
}
330
1F
100
AcDbEntity
  8
0
100
AcDbLine
 10
-5.08
 20
5.900000000000119
 30
0.0
 11
-5.08
 21
0.0
 31
0.0
  0
LINE
  5
25F
102
{ACAD_XDICTIONARY
360
260
102
}
330
1F
100
AcDbEntity
  8
0
100
AcDbLine
 10
-5.08
 20
0.0
 30
0.0
 11
-2.599999999999997
 21
0.0
 31
0.0
  0
LINE
  5
262
102
{ACAD_XDICTIONARY
360
263
102
}
330
1F
100
AcDbEntity
  8
0
100
AcDbLine
 10
-2.599999999999997
 20
0.0
 30
0.0
 11
-2.599999999999997
 21
5.900000000000119
 31
0.0
  0
LINE
  5
265
102
{ACAD_XDICTIONARY
360
266
102
}
330
1F
100
AcDbEntity
  8
0
100
AcDbLine
 10
-2.599999999999997
 20
5.900000000000119
 30
0.0
 11
-2.599999999999997
 21
0.0
 31
0.0
  0
LINE
  5
268
102
{ACAD_XDICTIONARY
360
269
102
}
330
1F
100
AcDbEntity
  8
0
100
AcDbLine
 10
-2.599999999999997
 20
0.0
 30
0.0
 11
0.0
 21
0.0
 31
0.0
  0
LINE
  5
26B
102
{ACAD_XDICTIONARY
360
26C
102
}
330
1F
100
AcDbEntity
  8
0
100
AcDbLine
 10
0.0
 20
0.0
 30
0.0
 11
0.0
 21
5.900000000000119
 31
0.0
  0
LINE
  5
26E
102
{ACAD_XDICTIONARY
360
26F
102
}
330
1F
100
AcDbEntity
  8
0
100
AcDbLine
 10
0.0
 20
5.900000000000119
 30
0.0
 11
-2.599999999999997
 21
5.900000000000119
 31
0.0
  0
LINE
  5
271
102
{ACAD_XDICTIONARY
360
272
102
}
330
1F
100
AcDbEntity
  8
0
100
AcDbLine
 10
2.479999999999997
 20
0.0
 30
0.0
 11
5.08
 21
0.0
 31
0.0
  0
LINE
  5
274
102
{ACAD_XDICTIONARY
360
275
102
}
330
1F
100
AcDbEntity
  8
0
100
AcDbLine
 10
5.08
 20
0.0
 30
0.0
 11
5.08
 21
5.900000000000119
 31
0.0
  0
LINE
  5
277
102
{ACAD_XDICTIONARY
360
278
102
}
330
1F
100
AcDbEntity
  8
0
100
AcDbLine
 10
5.08
 20
5.900000000000119
 30
0.0
 11
2.479999999999997
 21
5.900000000000119
 31
0.0
  0
LINE
  5
27A
102
{ACAD_XDICTIONARY
360
27B
102
}
330
1F
100
AcDbEntity
  8
0
100
AcDbLine
 10
2.479999999999997
 20
5.900000000000119
 30
0.0
 11
2.479999999999997
 21
0.0
 31
0.0
  0
LINE
  5
27D
102
{ACAD_XDICTIONARY
360
27E
102
}
330
1F
100
AcDbEntity
  8
0
100
AcDbLine
 10
7.560000000000002
 20
0.0
 30
0.0
 11
10.16
 21
0.0
 31
0.0
  0
LINE
  5
280
102
{ACAD_XDICTIONARY
360
281
102
}
330
1F
100
AcDbEntity
  8
0
100
AcDbLine
 10
10.16
 20
0.0
 30
0.0
 11
10.16
 21
5.900000000000119
 31
0.0
  0
LINE
  5
283
102
{ACAD_XDICTIONARY
360
284
102
}
330
1F
100
AcDbEntity
  8
0
100
AcDbLine
 10
10.16
 20
5.900000000000119
 30
0.0
 11
7.560000000000002
 21
5.900000000000119
 31
0.0
  0
LINE
  5
286
102
{ACAD_XDICTIONARY
360
287
102
}
330
1F
100
AcDbEntity
  8
0
100
AcDbLine
 10
7.560000000000002
 20
5.900000000000119
 30
0.0
 11
7.560000000000002
 21
0.0
 31
0.0
  0
LINE
  5
289
102
{ACAD_XDICTIONARY
360
28A
102
}
330
1F
100
AcDbEntity
  8
0
100
AcDbLine
 10
12.64
 20
0.0
 30
0.0
 11
15.24
 21
0.0
 31
0.0
  0
LINE
  5
28C
102
{ACAD_XDICTIONARY
360
28D
102
}
330
1F
100
AcDbEntity
  8
0
100
AcDbLine
 10
15.24
 20
0.0
 30
0.0
 11
15.24
 21
5.900000000000119
 31
0.0
  0
LINE
  5
28F
102
{ACAD_XDICTIONARY
360
290
102
}
330
1F
100
AcDbEntity
  8
0
100
AcDbLine
 10
15.24
 20
5.900000000000119
 30
0.0
 11
12.64
 21
5.900000000000119
 31
0.0
  0
LINE
  5
292
102
{ACAD_XDICTIONARY
360
293
102
}
330
1F
100
AcDbEntity
  8
0
100
AcDbLine
 10
12.64
 20
5.900000000000119
 30
0.0
 11
12.64
 21
0.0
 31
0.0
  0
LINE
  5
295
102
{ACAD_XDICTIONARY
360
296
102
}
330
1F
100
AcDbEntity
  8
0
100
AcDbLine
 10
17.72
 20
0.0
 30
0.0
 11
20.32
 21
0.0
 31
0.0
  0
LINE
  5
298
102
{ACAD_XDICTIONARY
360
299
102
}
330
1F
100
AcDbEntity
  8
0
100
AcDbLine
 10
20.32
 20
0.0
 30
0.0
 11
20.32
 21
5.900000000000119
 31
0.0
  0
LINE
  5
29B
102
{ACAD_XDICTIONARY
360
29C
102
}
330
1F
100
AcDbEntity
  8
0
100
AcDbLine
 10
20.32
 20
5.900000000000119
 30
0.0
 11
17.72
 21
5.900000000000119
 31
0.0
  0
LINE
  5
29E
102
{ACAD_XDICTIONARY
360
29F
102
}
330
1F
100
AcDbEntity
  8
0
100
AcDbLine
 10
17.72
 20
5.900000000000119
 30
0.0
 11
17.72
 21
0.0
 31
0.0
  0
LINE
  5
2A1
102
{ACAD_XDICTIONARY
360
2A2
102
}
330
1F
100
AcDbEntity
  8
0
100
AcDbLine
 10
22.80000000000001
 20
0.0
 30
0.0
 11
25.4
 21
0.0
 31
0.0
  0
LINE
  5
2A4
102
{ACAD_XDICTIONARY
360
2A5
102
}
330
1F
100
AcDbEntity
  8
0
100
AcDbLine
 10
25.4
 20
0.0
 30
0.0
 11
25.4
 21
5.900000000000118
 31
0.0
  0
LINE
  5
2A7
102
{ACAD_XDICTIONARY
360
2A8
102
}
330
1F
100
AcDbEntity
  8
0
100
AcDbLine
 10
25.4
 20
5.900000000000118
 30
0.0
 11
22.80000000000001
 21
5.900000000000119
 31
0.0
  0
LINE
  5
2AA
102
{ACAD_XDICTIONARY
360
2AB
102
}
330
1F
100
AcDbEntity
  8
0
100
AcDbLine
 10
22.80000000000001
 20
5.900000000000119
 30
0.0
 11
22.80000000000001
 21
0.0
 31
0.0
  0
LINE
  5
2AD
102
{ACAD_XDICTIONARY
360
2AE
102
}
330
1F
100
AcDbEntity
  8
0
100
AcDbLine
 10
26.64
 20
6.500000000000407
 30
0.0
 11
26.64
 21
7.000000000000408
 31
0.0
  0
LINE
  5
2B0
102
{ACAD_XDICTIONARY
360
2B1
102
}
330
1F
100
AcDbEntity
  8
0
100
AcDbLine
 10
26.64
 20
7.000000000000408
 30
0.0
 11
26.64
 21
7.050000000000404
 31
0.0
  0
LINE
  5
2B3
102
{ACAD_XDICTIONARY
360
2B4
102
}
330
1F
100
AcDbEntity
  8
0
100
AcDbLine
 10
26.64
 20
7.050000000000404
 30
0.0
 11
26.64
 21
7.250000000000408
 31
0.0
  0
LINE
  5
2B6
102
{ACAD_XDICTIONARY
360
2B7
102
}
330
1F
100
AcDbEntity
  8
0
100
AcDbLine
 10
26.64
 20
7.250000000000408
 30
0.0
 11
-14.0
 21
7.250000000000408
 31
0.0
  0
LINE
  5
2B9
102
{ACAD_XDICTIONARY
360
2BA
102
}
330
1F
100
AcDbEntity
  8
0
100
AcDbLine
 10
-14.0
 20
7.250000000000408
 30
0.0
 11
-14.0
 21
7.050000000000404
 31
0.0
  0
LINE
  5
2BC
102
{ACAD_XDICTIONARY
360
2BD
102
}
330
1F
100
AcDbEntity
  8
0
100
AcDbLine
 10
-14.0
 20
7.050000000000404
 30
0.0
 11
-14.0
 21
7.000000000000408
 31
0.0
  0
LINE
  5
2BF
102
{ACAD_XDICTIONARY
360
2C0
102
}
330
1F
100
AcDbEntity
  8
0
100
AcDbLine
 10
-14.0
 20
7.000000000000408
 30
0.0
 11
-14.0
 21
6.500000000000407
 31
0.0
  0
LINE
  5
2C2
102
{ACAD_XDICTIONARY
360
2C3
102
}
330
1F
100
AcDbEntity
  8
0
100
AcDbLine
 10
-14.0
 20
6.500000000000407
 30
0.0
 11
26.64
 21
6.500000000000407
 31
0.0
  0
LINE
  5
2C5
102
{ACAD_XDICTIONARY
360
2C6
102
}
330
1F
100
AcDbEntity
  8
0
100
AcDbLine
 10
-12.76
 20
0.0
 30
0.0
 11
-10.16
 21
0.0
 31
0.0
  0
LINE
  5
2C8
102
{ACAD_XDICTIONARY
360
2C9
102
}
330
1F
100
AcDbEntity
  8
0
100
AcDbLine
 10
-10.16
 20
0.0
 30
0.0
 11
-10.16
 21
5.900000000000119
 31
0.0
  0
LINE
  5
2CB
102
{ACAD_XDICTIONARY
360
2CC
102
}
330
1F
100
AcDbEntity
  8
0
100
AcDbLine
 10
-10.16
 20
5.900000000000119
 30
0.0
 11
-12.76
 21
5.900000000000118
 31
0.0
  0
LINE
  5
2CE
102
{ACAD_XDICTIONARY
360
2CF
102
}
330
1F
100
AcDbEntity
  8
0
100
AcDbLine
 10
-12.76
 20
5.900000000000118
 30
0.0
 11
-12.76
 21
0.0
 31
0.0
  0
LINE
  5
2D1
102
{ACAD_XDICTIONARY
360
2D2
102
}
330
1F
100
AcDbEntity
  8
0
100
AcDbLine
 10
-7.680000000000002
 20
0.0
 30
0.0
 11
-5.08
 21
0.0
 31
0.0
  0
LINE
  5
2D4
102
{ACAD_XDICTIONARY
360
2D5
102
}
330
1F
100
AcDbEntity
  8
0
100
AcDbLine
 10
-5.08
 20
0.0
 30
0.0
 11
-5.08
 21
5.900000000000119
 31
0.0
  0
LINE
  5
2D7
102
{ACAD_XDICTIONARY
360
2D8
102
}
330
1F
100
AcDbEntity
  8
0
100
AcDbLine
 10
-5.08
 20
5.900000000000119
 30
0.0
 11
-7.680000000000002
 21
5.900000000000119
 31
0.0
  0
LINE
  5
2DA
102
{ACAD_XDICTIONARY
360
2DB
102
}
330
1F
100
AcDbEntity
  8
0
100
AcDbLine
 10
-7.680000000000002
 20
5.900000000000119
 30
0.0
 11
-7.680000000000002
 21
0.0
 31
0.0
  0
LINE
  5
2DD
102
{ACAD_XDICTIONARY
360
2DE
102
}
330
1F
100
AcDbEntity
  8
0
100
AcDbLine
 10
-2.599999999999997
 20
0.0
 30
0.0
 11
-2.599999999999997
 21
5.900000000000119
 31
0.0
  0
LINE
  5
2E0
102
{ACAD_XDICTIONARY
360
2E1
102
}
330
1F
100
AcDbEntity
  8
0
100
AcDbLine
 10
-2.599999999999997
 20
5.900000000000119
 30
0.0
 11
0.0
 21
5.900000000000119
 31
0.0
  0
LINE
  5
2E3
102
{ACAD_XDICTIONARY
360
2E4
102
}
330
1F
100
AcDbEntity
  8
0
100
AcDbLine
 10
0.0
 20
5.900000000000119
 30
0.0
 11
0.0
 21
0.0
 31
0.0
  0
LINE
  5
2E6
102
{ACAD_XDICTIONARY
360
2E7
102
}
330
1F
100
AcDbEntity
  8
0
100
AcDbLine
 10
2.479999999999997
 20
0.0
 30
0.0
 11
2.479999999999997
 21
5.900000000000119
 31
0.0
  0
LINE
  5
2E9
102
{ACAD_XDICTIONARY
360
2EA
102
}
330
1F
100
AcDbEntity
  8
0
100
AcDbLine
 10
2.479999999999997
 20
5.900000000000119
 30
0.0
 11
5.08
 21
5.900000000000119
 31
0.0
  0
LINE
  5
2EC
102
{ACAD_XDICTIONARY
360
2ED
102
}
330
1F
100
AcDbEntity
  8
0
100
AcDbLine
 10
5.08
 20
5.900000000000119
 30
0.0
 11
5.08
 21
0.0
 31
0.0
  0
LINE
  5
2EF
102
{ACAD_XDICTIONARY
360
2F0
102
}
330
1F
100
AcDbEntity
  8
0
100
AcDbLine
 10
10.16
 20
0.0
 30
0.0
 11
10.16
 21
5.900000000000119
 31
0.0
  0
LINE
  5
2F2
102
{ACAD_XDICTIONARY
360
2F3
102
}
330
1F
100
AcDbEntity
  8
0
100
AcDbLine
 10
10.16
 20
5.900000000000119
 30
0.0
 11
7.560000000000002
 21
5.900000000000119
 31
0.0
  0
LINE
  5
2F5
102
{ACAD_XDICTIONARY
360
2F6
102
}
330
1F
100
AcDbEntity
  8
0
100
AcDbLine
 10
7.560000000000002
 20
5.900000000000119
 30
0.0
 11
7.560000000000002
 21
0.0
 31
0.0
  0
LINE
  5
2F8
102
{ACAD_XDICTIONARY
360
2F9
102
}
330
1F
100
AcDbEntity
  8
0
100
AcDbLine
 10
12.64
 20
0.0
 30
0.0
 11
12.64
 21
5.900000000000119
 31
0.0
  0
LINE
  5
2FB
102
{ACAD_XDICTIONARY
360
2FC
102
}
330
1F
100
AcDbEntity
  8
0
100
AcDbLine
 10
12.64
 20
5.900000000000119
 30
0.0
 11
15.24
 21
5.900000000000119
 31
0.0
  0
LINE
  5
2FE
102
{ACAD_XDICTIONARY
360
2FF
102
}
330
1F
100
AcDbEntity
  8
0
100
AcDbLine
 10
15.24
 20
5.900000000000119
 30
0.0
 11
15.24
 21
0.0
 31
0.0
  0
LINE
  5
301
102
{ACAD_XDICTIONARY
360
302
102
}
330
1F
100
AcDbEntity
  8
0
100
AcDbLine
 10
20.32
 20
0.0
 30
0.0
 11
20.32
 21
5.900000000000119
 31
0.0
  0
LINE
  5
304
102
{ACAD_XDICTIONARY
360
305
102
}
330
1F
100
AcDbEntity
  8
0
100
AcDbLine
 10
20.32
 20
5.900000000000119
 30
0.0
 11
17.72
 21
5.900000000000119
 31
0.0
  0
LINE
  5
307
102
{ACAD_XDICTIONARY
360
308
102
}
330
1F
100
AcDbEntity
  8
0
100
AcDbLine
 10
17.72
 20
5.900000000000119
 30
0.0
 11
17.72
 21
0.0
 31
0.0
  0
LINE
  5
30A
102
{ACAD_XDICTIONARY
360
30B
102
}
330
1F
100
AcDbEntity
  8
0
100
AcDbLine
 10
25.4
 20
0.0
 30
0.0
 11
25.4
 21
5.900000000000118
 31
0.0
  0
LINE
  5
30D
102
{ACAD_XDICTIONARY
360
30E
102
}
330
1F
100
AcDbEntity
  8
0
100
AcDbLine
 10
25.4
 20
5.900000000000118
 30
0.0
 11
22.80000000000001
 21
5.900000000000119
 31
0.0
  0
LINE
  5
310
102
{ACAD_XDICTIONARY
360
311
102
}
330
1F
100
AcDbEntity
  8
0
100
AcDbLine
 10
22.80000000000001
 20
5.900000000000119
 30
0.0
 11
22.80000000000001
 21
0.0
 31
0.0
  0
LINE
  5
313
102
{ACAD_XDICTIONARY
360
314
102
}
330
1F
100
AcDbEntity
  8
0
100
AcDbLine
 10
25.4
 20
0.0
 30
0.0
 11
30.7
 21
0.0
 31
0.0
  0
LWPOLYLINE
  5
316
102
{ACAD_XDICTIONARY
360
317
102
}
330
1F
100
AcDbEntity
  8
0
100
AcDbPolyline
 90
       16
 70
     0
 43
0.0
 10
30.7
 20
0.0
 10
30.75226423163383
 20
0.0027390523158634
 10
30.80395584540888
 20
0.0109261996330972
 10
30.85450849718747
 20
0.0244717418524233
 10
30.9033683215379
 20
0.0432272711786996
 10
30.95
 20
0.0669872981077808
 10
30.99389262614623
 20
0.0954915028125264
 10
31.03456530317943
 20
0.128427587261303
 10
31.0715724127387
 20
0.165434696820571
 10
31.10450849718747
 20
0.2061073738537635
 10
31.13301270189222
 20
0.2500000000000001
 10
31.1567727288213
 20
0.2966316784621
 10
31.17552825814758
 20
0.3454915028125264
 10
31.1890738003669
 20
0.3960441545911204
 10
31.19726094768414
 20
0.4477357683661733
 10
31.2
 20
0.5
  0
LINE
  5
319
102
{ACAD_XDICTIONARY
360
31A
102
}
330
1F
100
AcDbEntity
  8
0
100
AcDbLine
 10
31.2
 20
0.5
 30
0.0
 11
31.2
 21
5.400000000000407
 31
0.0
  0
LWPOLYLINE
  5
31C
102
{ACAD_XDICTIONARY
360
31D
102
}
330
1F
100
AcDbEntity
  8
0
100
AcDbPolyline
 90
       16
 70
     0
 43
0.0
 10
31.2
 20
5.400000000000407
 10
31.19726094768414
 20
5.452264231634234
 10
31.1890738003669
 20
5.503955845409287
 10
31.17552825814758
 20
5.55450849718788
 10
31.1567727288213
 20
5.603368321538307
 10
31.13301270189222
 20
5.650000000000407
 10
31.10450849718747
 20
5.693892626146644
 10
31.0715724127387
 20
5.734565303179836
 10
31.03456530317943
 20
5.771572412739104
 10
30.99389262614623
 20
5.80450849718788
 10
30.95
 20
5.833012701892626
 10
30.9033683215379
 20
5.856772728821707
 10
30.85450849718747
 20
5.875528258147984
 10
30.80395584540888
 20
5.88907380036731
 10
30.75226423163383
 20
5.897260947684543
 10
30.7
 20
5.900000000000407
  0
LINE
  5
31F
102
{ACAD_XDICTIONARY
360
320
102
}
330
1F
100
AcDbEntity
  8
0
100
AcDbLine
 10
30.7
 20
5.900000000000407
 30
0.0
 11
27.14
 21
5.900000000000407
 31
0.0
  0
LWPOLYLINE
  5
322
102
{ACAD_XDICTIONARY
360
323
102
}
330
1F
100
AcDbEntity
  8
0
100
AcDbPolyline
 90
       16
 70
     0
 43
0.0
 10
26.64
 20
6.400000000000407
 10
26.64273905231586
 20
6.34773576836658
 10
26.6509261996331
 20
6.296044154591527
 10
26.66447174185242
 20
6.245491502812934
 10
26.6832272711787
 20
6.196631678462508
 10
26.70698729810778
 20
6.150000000000407
 10
26.73549150281253
 20
6.10610737385417
 10
26.7684275872613
 20
6.065434696820978
 10
26.80543469682057
 20
6.02842758726171
 10
26.84610737385377
 20
5.995491502812934
 10
26.89
 20
5.966987298108188
 10
26.9366316784621
 20
5.943227271179107
 10
26.98549150281253
 20
5.92447174185283
 10
27.03604415459112
 20
5.910926199633504
 10
27.08773576836617
 20
5.902739052316271
 10
27.14
 20
5.900000000000407
  0
LINE
  5
325
102
{ACAD_XDICTIONARY
360
326
102
}
330
1F
100
AcDbEntity
  8
0
100
AcDbLine
 10
26.64
 20
6.400000000000407
 30
0.0
 11
26.64
 21
6.500000000000407
 31
0.0
  0
LINE
  5
328
102
{ACAD_XDICTIONARY
360
329
102
}
330
1F
100
AcDbEntity
  8
0
100
AcDbLine
 10
-12.76
 20
0.0
 30
0.0
 11
-18.06
 21
0.0
 31
0.0
  0
LWPOLYLINE
  5
32B
102
{ACAD_XDICTIONARY
360
32C
102
}
330
1F
100
AcDbEntity
  8
0
100
AcDbPolyline
 90
       16
 70
     0
 43
0.0
 10
-18.56
 20
0.5
 10
-18.55726094768414
 20
0.4477357683661733
 10
-18.5490738003669
 20
0.3960441545911204
 10
-18.53552825814758
 20
0.3454915028125264
 10
-18.5167727288213
 20
0.2966316784621
 10
-18.49301270189222
 20
0.2500000000000001
 10
-18.46450849718747
 20
0.2061073738537636
 10
-18.4315724127387
 20
0.165434696820571
 10
-18.39456530317943
 20
0.128427587261303
 10
-18.35389262614623
 20
0.0954915028125264
 10
-18.31
 20
0.0669872981077809
 10
-18.2633683215379
 20
0.0432272711786997
 10
-18.21450849718747
 20
0.0244717418524235
 10
-18.16395584540888
 20
0.0109261996330974
 10
-18.11226423163383
 20
0.0027390523158636
 10
-18.06
 20
0.0000000000000003
  0
LINE
  5
32E
102
{ACAD_XDICTIONARY
360
32F
102
}
330
1F
100
AcDbEntity
  8
0
100
AcDbLine
 10
-18.56
 20
0.5
 30
0.0
 11
-18.56
 21
5.400000000000407
 31
0.0
  0
LWPOLYLINE
  5
331
102
{ACAD_XDICTIONARY
360
332
102
}
330
1F
100
AcDbEntity
  8
0
100
AcDbPolyline
 90
       16
 70
     0
 43
0.0
 10
-18.06
 20
5.900000000000407
 10
-18.11226423163383
 20
5.897260947684543
 10
-18.16395584540888
 20
5.88907380036731
 10
-18.21450849718747
 20
5.875528258147984
 10
-18.2633683215379
 20
5.856772728821707
 10
-18.31
 20
5.833012701892627
 10
-18.35389262614623
 20
5.80450849718788
 10
-18.39456530317943
 20
5.771572412739104
 10
-18.4315724127387
 20
5.734565303179837
 10
-18.46450849718747
 20
5.693892626146644
 10
-18.49301270189222
 20
5.650000000000407
 10
-18.5167727288213
 20
5.603368321538308
 10
-18.53552825814758
 20
5.55450849718788
 10
-18.5490738003669
 20
5.503955845409287
 10
-18.55726094768414
 20
5.452264231634234
 10
-18.56
 20
5.400000000000407
  0
LINE
  5
334
102
{ACAD_XDICTIONARY
360
335
102
}
330
1F
100
AcDbEntity
  8
0
100
AcDbLine
 10
-18.06
 20
5.900000000000407
 30
0.0
 11
-14.5
 21
5.900000000000407
 31
0.0
  0
LWPOLYLINE
  5
337
102
{ACAD_XDICTIONARY
360
338
102
}
330
1F
100
AcDbEntity
  8
0
100
AcDbPolyline
 90
       16
 70
     0
 43
0.0
 10
-14.5
 20
5.900000000000407
 10
-14.44773576836617
 20
5.902739052316271
 10
-14.39604415459112
 20
5.910926199633504
 10
-14.34549150281253
 20
5.92447174185283
 10
-14.2966316784621
 20
5.943227271179107
 10
-14.25
 20
5.966987298108188
 10
-14.20610737385376
 20
5.995491502812934
 10
-14.16543469682057
 20
6.02842758726171
 10
-14.1284275872613
 20
6.065434696820978
 10
-14.09549150281253
 20
6.10610737385417
 10
-14.06698729810778
 20
6.150000000000407
 10
-14.0432272711787
 20
6.196631678462508
 10
-14.02447174185242
 20
6.245491502812934
 10
-14.0109261996331
 20
6.296044154591527
 10
-14.00273905231586
 20
6.34773576836658
 10
-14.0
 20
6.400000000000407
  0
LINE
  5
33A
102
{ACAD_XDICTIONARY
360
33B
102
}
330
1F
100
AcDbEntity
  8
0
100
AcDbLine
 10
-14.0
 20
6.400000000000407
 30
0.0
 11
-14.0
 21
6.500000000000407
 31
0.0
  0
LINE
  5
33D
102
{ACAD_XDICTIONARY
360
33E
102
}
330
1F
100
AcDbEntity
  8
0
100
AcDbLine
 10
-10.16
 20
0.0
 30
0.0
 11
-10.16
 21
5.900000000000119
 31
0.0
  0
LINE
  5
340
102
{ACAD_XDICTIONARY
360
341
102
}
330
1F
100
AcDbEntity
  8
0
100
AcDbLine
 10
-10.16
 20
5.900000000000119
 30
0.0
 11
-12.76
 21
5.900000000000118
 31
0.0
  0
LINE
  5
343
102
{ACAD_XDICTIONARY
360
344
102
}
330
1F
100
AcDbEntity
  8
0
100
AcDbLine
 10
-12.76
 20
5.900000000000118
 30
0.0
 11
-12.76
 21
0.0
 31
0.0
  0
LINE
  5
346
102
{ACAD_XDICTIONARY
360
347
102
}
330
1F
100
AcDbEntity
  8
0
100
AcDbLine
 10
-7.680000000000002
 20
0.0
 30
0.0
 11
-7.680000000000002
 21
5.900000000000119
 31
0.0
  0
LINE
  5
349
102
{ACAD_XDICTIONARY
360
34A
102
}
330
1F
100
AcDbEntity
  8
0
100
AcDbLine
 10
-7.680000000000002
 20
5.900000000000119
 30
0.0
 11
-5.08
 21
5.900000000000119
 31
0.0
  0
LINE
  5
34C
102
{ACAD_XDICTIONARY
360
34D
102
}
330
1F
100
AcDbEntity
  8
0
100
AcDbLine
 10
-5.08
 20
5.900000000000119
 30
0.0
 11
-5.08
 21
0.0
 31
0.0
  0
LINE
  5
34F
102
{ACAD_XDICTIONARY
360
350
102
}
330
1F
100
AcDbEntity
  8
0
100
AcDbLine
 10
-14.0
 20
6.500000000000407
 30
0.0
 11
-14.0
 21
7.000000000000408
 31
0.0
  0
LINE
  5
352
102
{ACAD_XDICTIONARY
360
353
102
}
330
1F
100
AcDbEntity
  8
0
100
AcDbLine
 10
-14.0
 20
7.000000000000408
 30
0.0
 11
-14.0
 21
7.050000000000404
 31
0.0
  0
LINE
  5
355
102
{ACAD_XDICTIONARY
360
356
102
}
330
1F
100
AcDbEntity
  8
0
100
AcDbLine
 10
-14.0
 20
7.050000000000404
 30
0.0
 11
-14.0
 21
7.250000000000408
 31
0.0
  0
LINE
  5
358
102
{ACAD_XDICTIONARY
360
359
102
}
330
1F
100
AcDbEntity
  8
0
100
AcDbLine
 10
-14.0
 20
7.250000000000408
 30
0.0
 11
26.64
 21
7.250000000000408
 31
0.0
  0
LINE
  5
35B
102
{ACAD_XDICTIONARY
360
35C
102
}
330
1F
100
AcDbEntity
  8
0
100
AcDbLine
 10
26.64
 20
7.250000000000408
 30
0.0
 11
26.64
 21
7.050000000000404
 31
0.0
  0
LINE
  5
35E
102
{ACAD_XDICTIONARY
360
35F
102
}
330
1F
100
AcDbEntity
  8
0
100
AcDbLine
 10
26.64
 20
7.050000000000404
 30
0.0
 11
26.64
 21
7.000000000000408
 31
0.0
  0
LINE
  5
361
102
{ACAD_XDICTIONARY
360
362
102
}
330
1F
100
AcDbEntity
  8
0
100
AcDbLine
 10
26.64
 20
7.000000000000408
 30
0.0
 11
26.64
 21
6.500000000000407
 31
0.0
  0
LINE
  5
364
330
1F
100
AcDbEntity
  8
0
100
AcDbLine
 10
29.8
 20
3.000000000000116
 30
0.0
 11
29.79342627444193
 21
3.1254341559213
 31
0.0
  0
LINE
  5
365
330
1F
100
AcDbEntity
  8
0
100
AcDbLine
 10
29.79342627444193
 20
3.1254341559213
 30
0.0
 11
29.77377712088057
 21
3.249494028981427
 31
0.0
  0
LINE
  5
366
330
1F
100
AcDbEntity
  8
0
100
AcDbLine
 10
29.77377712088057
 20
3.249494028981427
 30
0.0
 11
29.74126781955419
 21
3.370820393250052
 31
0.0
  0
LINE
  5
367
330
1F
100
AcDbEntity
  8
0
100
AcDbLine
 10
29.74126781955419
 20
3.370820393250052
 30
0.0
 11
29.69625454917112
 21
3.488083971691076
 31
0.0
  0
LINE
  5
368
330
1F
100
AcDbEntity
  8
0
100
AcDbLine
 10
29.69625454917112
 20
3.488083971691076
 30
0.0
 11
29.63923048454133
 21
3.600000000000115
 31
0.0
  0
LINE
  5
369
330
1F
100
AcDbEntity
  8
0
100
AcDbLine
 10
29.63923048454133
 20
3.600000000000115
 30
0.0
 11
29.57082039324994
 21
3.705342302751083
 31
0.0
  0
LINE
  5
36A
330
1F
100
AcDbEntity
  8
0
100
AcDbLine
 10
29.57082039324994
 20
3.705342302751083
 30
0.0
 11
29.49177379057287
 21
3.802956727630745
 31
0.0
  0
LINE
  5
36B
330
1F
100
AcDbEntity
  8
0
100
AcDbLine
 10
29.49177379057287
 20
3.802956727630745
 30
0.0
 11
29.40295672763063
 21
3.891773790572988
 31
0.0
  0
LINE
  5
36C
330
1F
100
AcDbEntity
  8
0
100
AcDbLine
 10
29.40295672763063
 20
3.891773790572988
 30
0.0
 11
29.30534230275097
 21
3.970820393250052
 31
0.0
  0
LINE
  5
36D
330
1F
100
AcDbEntity
  8
0
100
AcDbLine
 10
29.30534230275097
 20
3.970820393250052
 30
0.0
 11
29.2
 21
4.039230484541441
 31
0.0
  0
LINE
  5
36E
330
1F
100
AcDbEntity
  8
0
100
AcDbLine
 10
29.2
 20
4.039230484541441
 30
0.0
 11
29.08808397169096
 21
4.096254549171236
 31
0.0
  0
LINE
  5
36F
330
1F
100
AcDbEntity
  8
0
100
AcDbLine
 10
29.08808397169096
 20
4.096254549171236
 30
0.0
 11
28.97082039324994
 21
4.141267819554299
 31
0.0
  0
LINE
  5
370
330
1F
100
AcDbEntity
  8
0
100
AcDbLine
 10
28.97082039324994
 20
4.141267819554299
 30
0.0
 11
28.84949402898131
 21
4.173777120880681
 31
0.0
  0
LINE
  5
371
330
1F
100
AcDbEntity
  8
0
100
AcDbLine
 10
28.84949402898131
 20
4.173777120880681
 30
0.0
 11
28.72543415592119
 21
4.193426274442042
 31
0.0
  0
LINE
  5
372
330
1F
100
AcDbEntity
  8
0
100
AcDbLine
 10
28.72543415592119
 20
4.193426274442042
 30
0.0
 11
28.6
 21
4.200000000000115
 31
0.0
  0
LINE
  5
373
330
1F
100
AcDbEntity
  8
0
100
AcDbLine
 10
28.6
 20
4.200000000000115
 30
0.0
 11
28.47456584407882
 21
4.193426274442042
 31
0.0
  0
LINE
  5
374
330
1F
100
AcDbEntity
  8
0
100
AcDbLine
 10
28.47456584407882
 20
4.193426274442042
 30
0.0
 11
28.35050597101869
 21
4.173777120880681
 31
0.0
  0
LINE
  5
375
330
1F
100
AcDbEntity
  8
0
100
AcDbLine
 10
28.35050597101869
 20
4.173777120880681
 30
0.0
 11
28.22917960675007
 21
4.141267819554298
 31
0.0
  0
LINE
  5
376
330
1F
100
AcDbEntity
  8
0
100
AcDbLine
 10
28.22917960675007
 20
4.141267819554298
 30
0.0
 11
28.11191602830904
 21
4.096254549171236
 31
0.0
  0
LINE
  5
377
330
1F
100
AcDbEntity
  8
0
100
AcDbLine
 10
28.11191602830904
 20
4.096254549171236
 30
0.0
 11
28.0
 21
4.039230484541441
 31
0.0
  0
LINE
  5
378
330
1F
100
AcDbEntity
  8
0
100
AcDbLine
 10
28.0
 20
4.039230484541441
 30
0.0
 11
27.89465769724903
 21
3.970820393250051
 31
0.0
  0
LINE
  5
379
330
1F
100
AcDbEntity
  8
0
100
AcDbLine
 10
27.89465769724903
 20
3.970820393250051
 30
0.0
 11
27.79704327236937
 21
3.891773790572988
 31
0.0
  0
LINE
  5
37A
330
1F
100
AcDbEntity
  8
0
100
AcDbLine
 10
27.79704327236937
 20
3.891773790572988
 30
0.0
 11
27.70822620942713
 21
3.802956727630745
 31
0.0
  0
LINE
  5
37B
330
1F
100
AcDbEntity
  8
0
100
AcDbLine
 10
27.70822620942713
 20
3.802956727630745
 30
0.0
 11
27.62917960675007
 21
3.705342302751083
 31
0.0
  0
LINE
  5
37C
330
1F
100
AcDbEntity
  8
0
100
AcDbLine
 10
27.62917960675007
 20
3.705342302751083
 30
0.0
 11
27.56076951545868
 21
3.600000000000115
 31
0.0
  0
LINE
  5
37D
330
1F
100
AcDbEntity
  8
0
100
AcDbLine
 10
27.56076951545868
 20
3.600000000000115
 30
0.0
 11
27.50374545082888
 21
3.488083971691076
 31
0.0
  0
LINE
  5
37E
330
1F
100
AcDbEntity
  8
0
100
AcDbLine
 10
27.50374545082888
 20
3.488083971691076
 30
0.0
 11
27.45873218044582
 21
3.370820393250053
 31
0.0
  0
LINE
  5
37F
330
1F
100
AcDbEntity
  8
0
100
AcDbLine
 10
27.45873218044582
 20
3.370820393250053
 30
0.0
 11
27.42622287911944
 21
3.249494028981427
 31
0.0
  0
LINE
  5
380
330
1F
100
AcDbEntity
  8
0
100
AcDbLine
 10
27.42622287911944
 20
3.249494028981427
 30
0.0
 11
27.40657372555808
 21
3.1254341559213
 31
0.0
  0
LINE
  5
381
330
1F
100
AcDbEntity
  8
0
100
AcDbLine
 10
27.40657372555808
 20
3.1254341559213
 30
0.0
 11
27.4
 21
3.000000000000116
 31
0.0
  0
LINE
  5
382
330
1F
100
AcDbEntity
  8
0
100
AcDbLine
 10
27.4
 20
3.000000000000116
 30
0.0
 11
27.40657372555808
 21
2.874565844078933
 31
0.0
  0
LINE
  5
383
330
1F
100
AcDbEntity
  8
0
100
AcDbLine
 10
27.40657372555808
 20
2.874565844078933
 30
0.0
 11
27.42622287911944
 21
2.750505971018806
 31
0.0
  0
LINE
  5
384
330
1F
100
AcDbEntity
  8
0
100
AcDbLine
 10
27.42622287911944
 20
2.750505971018806
 30
0.0
 11
27.45873218044582
 21
2.62917960675018
 31
0.0
  0
LINE
  5
385
330
1F
100
AcDbEntity
  8
0
100
AcDbLine
 10
27.45873218044582
 20
2.62917960675018
 30
0.0
 11
27.50374545082888
 21
2.511916028309157
 31
0.0
  0
LINE
  5
386
330
1F
100
AcDbEntity
  8
0
100
AcDbLine
 10
27.50374545082888
 20
2.511916028309157
 30
0.0
 11
27.56076951545868
 21
2.400000000000118
 31
0.0
  0
LINE
  5
387
330
1F
100
AcDbEntity
  8
0
100
AcDbLine
 10
27.56076951545868
 20
2.400000000000118
 30
0.0
 11
27.62917960675007
 21
2.29465769724915
 31
0.0
  0
LINE
  5
388
330
1F
100
AcDbEntity
  8
0
100
AcDbLine
 10
27.62917960675007
 20
2.29465769724915
 30
0.0
 11
27.70822620942713
 21
2.197043272369488
 31
0.0
  0
LINE
  5
389
330
1F
100
AcDbEntity
  8
0
100
AcDbLine
 10
27.70822620942713
 20
2.197043272369488
 30
0.0
 11
27.79704327236937
 21
2.108226209427245
 31
0.0
  0
LINE
  5
38A
330
1F
100
AcDbEntity
  8
0
100
AcDbLine
 10
27.79704327236937
 20
2.108226209427245
 30
0.0
 11
27.89465769724903
 21
2.029179606750182
 31
0.0
  0
LINE
  5
38B
330
1F
100
AcDbEntity
  8
0
100
AcDbLine
 10
27.89465769724903
 20
2.029179606750182
 30
0.0
 11
28.0
 21
1.960769515458792
 31
0.0
  0
LINE
  5
38C
330
1F
100
AcDbEntity
  8
0
100
AcDbLine
 10
28.0
 20
1.960769515458792
 30
0.0
 11
28.11191602830904
 21
1.903745450828998
 31
0.0
  0
LINE
  5
38D
330
1F
100
AcDbEntity
  8
0
100
AcDbLine
 10
28.11191602830904
 20
1.903745450828998
 30
0.0
 11
28.22917960675007
 21
1.858732180445935
 31
0.0
  0
LINE
  5
38E
330
1F
100
AcDbEntity
  8
0
100
AcDbLine
 10
28.22917960675007
 20
1.858732180445935
 30
0.0
 11
28.35050597101869
 21
1.826222879119552
 31
0.0
  0
LINE
  5
38F
330
1F
100
AcDbEntity
  8
0
100
AcDbLine
 10
28.35050597101869
 20
1.826222879119552
 30
0.0
 11
28.47456584407882
 21
1.806573725558191
 31
0.0
  0
LINE
  5
390
330
1F
100
AcDbEntity
  8
0
100
AcDbLine
 10
28.47456584407882
 20
1.806573725558191
 30
0.0
 11
28.6
 21
1.800000000000119
 31
0.0
  0
LINE
  5
391
330
1F
100
AcDbEntity
  8
0
100
AcDbLine
 10
28.6
 20
1.800000000000119
 30
0.0
 11
28.72543415592119
 21
1.806573725558191
 31
0.0
  0
LINE
  5
392
330
1F
100
AcDbEntity
  8
0
100
AcDbLine
 10
28.72543415592119
 20
1.806573725558191
 30
0.0
 11
28.84949402898131
 21
1.826222879119553
 31
0.0
  0
LINE
  5
393
330
1F
100
AcDbEntity
  8
0
100
AcDbLine
 10
28.84949402898131
 20
1.826222879119553
 30
0.0
 11
28.97082039324994
 21
1.858732180445935
 31
0.0
  0
LINE
  5
394
330
1F
100
AcDbEntity
  8
0
100
AcDbLine
 10
28.97082039324994
 20
1.858732180445935
 30
0.0
 11
29.08808397169096
 21
1.903745450828998
 31
0.0
  0
LINE
  5
395
330
1F
100
AcDbEntity
  8
0
100
AcDbLine
 10
29.08808397169096
 20
1.903745450828998
 30
0.0
 11
29.2
 21
1.960769515458793
 31
0.0
  0
LINE
  5
396
330
1F
100
AcDbEntity
  8
0
100
AcDbLine
 10
29.2
 20
1.960769515458793
 30
0.0
 11
29.30534230275097
 21
2.029179606750182
 31
0.0
  0
LINE
  5
397
330
1F
100
AcDbEntity
  8
0
100
AcDbLine
 10
29.30534230275097
 20
2.029179606750182
 30
0.0
 11
29.40295672763063
 21
2.108226209427245
 31
0.0
  0
LINE
  5
398
330
1F
100
AcDbEntity
  8
0
100
AcDbLine
 10
29.40295672763063
 20
2.108226209427245
 30
0.0
 11
29.49177379057287
 21
2.197043272369488
 31
0.0
  0
LINE
  5
399
330
1F
100
AcDbEntity
  8
0
100
AcDbLine
 10
29.49177379057287
 20
2.197043272369488
 30
0.0
 11
29.57082039324994
 21
2.29465769724915
 31
0.0
  0
LINE
  5
39A
330
1F
100
AcDbEntity
  8
0
100
AcDbLine
 10
29.57082039324994
 20
2.29465769724915
 30
0.0
 11
29.63923048454133
 21
2.400000000000118
 31
0.0
  0
LINE
  5
39B
330
1F
100
AcDbEntity
  8
0
100
AcDbLine
 10
29.63923048454133
 20
2.400000000000118
 30
0.0
 11
29.69625454917112
 21
2.511916028309157
 31
0.0
  0
LINE
  5
39C
330
1F
100
AcDbEntity
  8
0
100
AcDbLine
 10
29.69625454917112
 20
2.511916028309157
 30
0.0
 11
29.74126781955418
 21
2.62917960675018
 31
0.0
  0
LINE
  5
39D
330
1F
100
AcDbEntity
  8
0
100
AcDbLine
 10
29.74126781955418
 20
2.62917960675018
 30
0.0
 11
29.77377712088056
 21
2.750505971018805
 31
0.0
  0
LINE
  5
39E
330
1F
100
AcDbEntity
  8
0
100
AcDbLine
 10
29.77377712088056
 20
2.750505971018805
 30
0.0
 11
29.79342627444193
 21
2.874565844078932
 31
0.0
  0
LINE
  5
39F
330
1F
100
AcDbEntity
  8
0
100
AcDbLine
 10
29.79342627444193
 20
2.874565844078932
 30
0.0
 11
29.8
 21
3.000000000000115
 31
0.0
  0
LINE
  5
3A0
330
1F
100
AcDbEntity
  8
0
100
AcDbLine
 10
-14.76
 20
3.000000000000116
 30
0.0
 11
-14.76657372555807
 21
3.1254341559213
 31
0.0
  0
LINE
  5
3A1
330
1F
100
AcDbEntity
  8
0
100
AcDbLine
 10
-14.76657372555807
 20
3.1254341559213
 30
0.0
 11
-14.78622287911944
 21
3.249494028981427
 31
0.0
  0
LINE
  5
3A2
330
1F
100
AcDbEntity
  8
0
100
AcDbLine
 10
-14.78622287911944
 20
3.249494028981427
 30
0.0
 11
-14.81873218044582
 21
3.370820393250052
 31
0.0
  0
LINE
  5
3A3
330
1F
100
AcDbEntity
  8
0
100
AcDbLine
 10
-14.81873218044582
 20
3.370820393250052
 30
0.0
 11
-14.86374545082888
 21
3.488083971691076
 31
0.0
  0
LINE
  5
3A4
330
1F
100
AcDbEntity
  8
0
100
AcDbLine
 10
-14.86374545082888
 20
3.488083971691076
 30
0.0
 11
-14.92076951545867
 21
3.600000000000115
 31
0.0
  0
LINE
  5
3A5
330
1F
100
AcDbEntity
  8
0
100
AcDbLine
 10
-14.92076951545867
 20
3.600000000000115
 30
0.0
 11
-14.98917960675006
 21
3.705342302751083
 31
0.0
  0
LINE
  5
3A6
330
1F
100
AcDbEntity
  8
0
100
AcDbLine
 10
-14.98917960675006
 20
3.705342302751083
 30
0.0
 11
-15.06822620942713
 21
3.802956727630745
 31
0.0
  0
LINE
  5
3A7
330
1F
100
AcDbEntity
  8
0
100
AcDbLine
 10
-15.06822620942713
 20
3.802956727630745
 30
0.0
 11
-15.15704327236937
 21
3.891773790572988
 31
0.0
  0
LINE
  5
3A8
330
1F
100
AcDbEntity
  8
0
100
AcDbLine
 10
-15.15704327236937
 20
3.891773790572988
 30
0.0
 11
-15.25465769724903
 21
3.970820393250052
 31
0.0
  0
LINE
  5
3A9
330
1F
100
AcDbEntity
  8
0
100
AcDbLine
 10
-15.25465769724903
 20
3.970820393250052
 30
0.0
 11
-15.36
 21
4.039230484541441
 31
0.0
  0
LINE
  5
3AA
330
1F
100
AcDbEntity
  8
0
100
AcDbLine
 10
-15.36
 20
4.039230484541441
 30
0.0
 11
-15.47191602830904
 21
4.096254549171236
 31
0.0
  0
LINE
  5
3AB
330
1F
100
AcDbEntity
  8
0
100
AcDbLine
 10
-15.47191602830904
 20
4.096254549171236
 30
0.0
 11
-15.58917960675006
 21
4.141267819554299
 31
0.0
  0
LINE
  5
3AC
330
1F
100
AcDbEntity
  8
0
100
AcDbLine
 10
-15.58917960675006
 20
4.141267819554299
 30
0.0
 11
-15.71050597101869
 21
4.173777120880681
 31
0.0
  0
LINE
  5
3AD
330
1F
100
AcDbEntity
  8
0
100
AcDbLine
 10
-15.71050597101869
 20
4.173777120880681
 30
0.0
 11
-15.83456584407882
 21
4.193426274442042
 31
0.0
  0
LINE
  5
3AE
330
1F
100
AcDbEntity
  8
0
100
AcDbLine
 10
-15.83456584407882
 20
4.193426274442042
 30
0.0
 11
-15.96
 21
4.200000000000115
 31
0.0
  0
LINE
  5
3AF
330
1F
100
AcDbEntity
  8
0
100
AcDbLine
 10
-15.96
 20
4.200000000000115
 30
0.0
 11
-16.08543415592118
 21
4.193426274442042
 31
0.0
  0
LINE
  5
3B0
330
1F
100
AcDbEntity
  8
0
100
AcDbLine
 10
-16.08543415592118
 20
4.193426274442042
 30
0.0
 11
-16.20949402898131
 21
4.173777120880681
 31
0.0
  0
LINE
  5
3B1
330
1F
100
AcDbEntity
  8
0
100
AcDbLine
 10
-16.20949402898131
 20
4.173777120880681
 30
0.0
 11
-16.33082039324994
 21
4.141267819554298
 31
0.0
  0
LINE
  5
3B2
330
1F
100
AcDbEntity
  8
0
100
AcDbLine
 10
-16.33082039324994
 20
4.141267819554298
 30
0.0
 11
-16.44808397169096
 21
4.096254549171236
 31
0.0
  0
LINE
  5
3B3
330
1F
100
AcDbEntity
  8
0
100
AcDbLine
 10
-16.44808397169096
 20
4.096254549171236
 30
0.0
 11
-16.56
 21
4.039230484541441
 31
0.0
  0
LINE
  5
3B4
330
1F
100
AcDbEntity
  8
0
100
AcDbLine
 10
-16.56
 20
4.039230484541441
 30
0.0
 11
-16.66534230275097
 21
3.970820393250051
 31
0.0
  0
LINE
  5
3B5
330
1F
100
AcDbEntity
  8
0
100
AcDbLine
 10
-16.66534230275097
 20
3.970820393250051
 30
0.0
 11
-16.76295672763063
 21
3.891773790572988
 31
0.0
  0
LINE
  5
3B6
330
1F
100
AcDbEntity
  8
0
100
AcDbLine
 10
-16.76295672763063
 20
3.891773790572988
 30
0.0
 11
-16.85177379057287
 21
3.802956727630745
 31
0.0
  0
LINE
  5
3B7
330
1F
100
AcDbEntity
  8
0
100
AcDbLine
 10
-16.85177379057287
 20
3.802956727630745
 30
0.0
 11
-16.93082039324993
 21
3.705342302751083
 31
0.0
  0
LINE
  5
3B8
330
1F
100
AcDbEntity
  8
0
100
AcDbLine
 10
-16.93082039324993
 20
3.705342302751083
 30
0.0
 11
-16.99923048454133
 21
3.600000000000115
 31
0.0
  0
LINE
  5
3B9
330
1F
100
AcDbEntity
  8
0
100
AcDbLine
 10
-16.99923048454133
 20
3.600000000000115
 30
0.0
 11
-17.05625454917112
 21
3.488083971691076
 31
0.0
  0
LINE
  5
3BA
330
1F
100
AcDbEntity
  8
0
100
AcDbLine
 10
-17.05625454917112
 20
3.488083971691076
 30
0.0
 11
-17.10126781955418
 21
3.370820393250053
 31
0.0
  0
LINE
  5
3BB
330
1F
100
AcDbEntity
  8
0
100
AcDbLine
 10
-17.10126781955418
 20
3.370820393250053
 30
0.0
 11
-17.13377712088057
 21
3.249494028981427
 31
0.0
  0
LINE
  5
3BC
330
1F
100
AcDbEntity
  8
0
100
AcDbLine
 10
-17.13377712088057
 20
3.249494028981427
 30
0.0
 11
-17.15342627444193
 21
3.1254341559213
 31
0.0
  0
LINE
  5
3BD
330
1F
100
AcDbEntity
  8
0
100
AcDbLine
 10
-17.15342627444193
 20
3.1254341559213
 30
0.0
 11
-17.16
 21
3.000000000000116
 31
0.0
  0
LINE
  5
3BE
330
1F
100
AcDbEntity
  8
0
100
AcDbLine
 10
-17.16
 20
3.000000000000116
 30
0.0
 11
-17.15342627444193
 21
2.874565844078933
 31
0.0
  0
LINE
  5
3BF
330
1F
100
AcDbEntity
  8
0
100
AcDbLine
 10
-17.15342627444193
 20
2.874565844078933
 30
0.0
 11
-17.13377712088057
 21
2.750505971018806
 31
0.0
  0
LINE
  5
3C0
330
1F
100
AcDbEntity
  8
0
100
AcDbLine
 10
-17.13377712088057
 20
2.750505971018806
 30
0.0
 11
-17.10126781955418
 21
2.62917960675018
 31
0.0
  0
LINE
  5
3C1
330
1F
100
AcDbEntity
  8
0
100
AcDbLine
 10
-17.10126781955418
 20
2.62917960675018
 30
0.0
 11
-17.05625454917112
 21
2.511916028309157
 31
0.0
  0
LINE
  5
3C2
330
1F
100
AcDbEntity
  8
0
100
AcDbLine
 10
-17.05625454917112
 20
2.511916028309157
 30
0.0
 11
-16.99923048454133
 21
2.400000000000118
 31
0.0
  0
LINE
  5
3C3
330
1F
100
AcDbEntity
  8
0
100
AcDbLine
 10
-16.99923048454133
 20
2.400000000000118
 30
0.0
 11
-16.93082039324993
 21
2.29465769724915
 31
0.0
  0
LINE
  5
3C4
330
1F
100
AcDbEntity
  8
0
100
AcDbLine
 10
-16.93082039324993
 20
2.29465769724915
 30
0.0
 11
-16.85177379057287
 21
2.197043272369488
 31
0.0
  0
LINE
  5
3C5
330
1F
100
AcDbEntity
  8
0
100
AcDbLine
 10
-16.85177379057287
 20
2.197043272369488
 30
0.0
 11
-16.76295672763063
 21
2.108226209427245
 31
0.0
  0
LINE
  5
3C6
330
1F
100
AcDbEntity
  8
0
100
AcDbLine
 10
-16.76295672763063
 20
2.108226209427245
 30
0.0
 11
-16.66534230275097
 21
2.029179606750182
 31
0.0
  0
LINE
  5
3C7
330
1F
100
AcDbEntity
  8
0
100
AcDbLine
 10
-16.66534230275097
 20
2.029179606750182
 30
0.0
 11
-16.56
 21
1.960769515458792
 31
0.0
  0
LINE
  5
3C8
330
1F
100
AcDbEntity
  8
0
100
AcDbLine
 10
-16.56
 20
1.960769515458792
 30
0.0
 11
-16.44808397169096
 21
1.903745450828998
 31
0.0
  0
LINE
  5
3C9
330
1F
100
AcDbEntity
  8
0
100
AcDbLine
 10
-16.44808397169096
 20
1.903745450828998
 30
0.0
 11
-16.33082039324994
 21
1.858732180445935
 31
0.0
  0
LINE
  5
3CA
330
1F
100
AcDbEntity
  8
0
100
AcDbLine
 10
-16.33082039324994
 20
1.858732180445935
 30
0.0
 11
-16.20949402898131
 21
1.826222879119552
 31
0.0
  0
LINE
  5
3CB
330
1F
100
AcDbEntity
  8
0
100
AcDbLine
 10
-16.20949402898131
 20
1.826222879119552
 30
0.0
 11
-16.08543415592118
 21
1.806573725558191
 31
0.0
  0
LINE
  5
3CC
330
1F
100
AcDbEntity
  8
0
100
AcDbLine
 10
-16.08543415592118
 20
1.806573725558191
 30
0.0
 11
-15.96
 21
1.800000000000119
 31
0.0
  0
LINE
  5
3CD
330
1F
100
AcDbEntity
  8
0
100
AcDbLine
 10
-15.96
 20
1.800000000000119
 30
0.0
 11
-15.83456584407882
 21
1.806573725558191
 31
0.0
  0
LINE
  5
3CE
330
1F
100
AcDbEntity
  8
0
100
AcDbLine
 10
-15.83456584407882
 20
1.806573725558191
 30
0.0
 11
-15.71050597101869
 21
1.826222879119553
 31
0.0
  0
LINE
  5
3CF
330
1F
100
AcDbEntity
  8
0
100
AcDbLine
 10
-15.71050597101869
 20
1.826222879119553
 30
0.0
 11
-15.58917960675006
 21
1.858732180445935
 31
0.0
  0
LINE
  5
3D0
330
1F
100
AcDbEntity
  8
0
100
AcDbLine
 10
-15.58917960675006
 20
1.858732180445935
 30
0.0
 11
-15.47191602830904
 21
1.903745450828998
 31
0.0
  0
LINE
  5
3D1
330
1F
100
AcDbEntity
  8
0
100
AcDbLine
 10
-15.47191602830904
 20
1.903745450828998
 30
0.0
 11
-15.36
 21
1.960769515458793
 31
0.0
  0
LINE
  5
3D2
330
1F
100
AcDbEntity
  8
0
100
AcDbLine
 10
-15.36
 20
1.960769515458793
 30
0.0
 11
-15.25465769724904
 21
2.029179606750182
 31
0.0
  0
LINE
  5
3D3
330
1F
100
AcDbEntity
  8
0
100
AcDbLine
 10
-15.25465769724904
 20
2.029179606750182
 30
0.0
 11
-15.15704327236937
 21
2.108226209427245
 31
0.0
  0
LINE
  5
3D4
330
1F
100
AcDbEntity
  8
0
100
AcDbLine
 10
-15.15704327236937
 20
2.108226209427245
 30
0.0
 11
-15.06822620942713
 21
2.197043272369488
 31
0.0
  0
LINE
  5
3D5
330
1F
100
AcDbEntity
  8
0
100
AcDbLine
 10
-15.06822620942713
 20
2.197043272369488
 30
0.0
 11
-14.98917960675007
 21
2.29465769724915
 31
0.0
  0
LINE
  5
3D6
330
1F
100
AcDbEntity
  8
0
100
AcDbLine
 10
-14.98917960675007
 20
2.29465769724915
 30
0.0
 11
-14.92076951545868
 21
2.400000000000118
 31
0.0
  0
LINE
  5
3D7
330
1F
100
AcDbEntity
  8
0
100
AcDbLine
 10
-14.92076951545868
 20
2.400000000000118
 30
0.0
 11
-14.86374545082888
 21
2.511916028309157
 31
0.0
  0
LINE
  5
3D8
330
1F
100
AcDbEntity
  8
0
100
AcDbLine
 10
-14.86374545082888
 20
2.511916028309157
 30
0.0
 11
-14.81873218044582
 21
2.62917960675018
 31
0.0
  0
LINE
  5
3D9
330
1F
100
AcDbEntity
  8
0
100
AcDbLine
 10
-14.81873218044582
 20
2.62917960675018
 30
0.0
 11
-14.78622287911944
 21
2.750505971018805
 31
0.0
  0
LINE
  5
3DA
330
1F
100
AcDbEntity
  8
0
100
AcDbLine
 10
-14.78622287911944
 20
2.750505971018805
 30
0.0
 11
-14.76657372555808
 21
2.874565844078932
 31
0.0
  0
LINE
  5
3DB
330
1F
100
AcDbEntity
  8
0
100
AcDbLine
 10
-14.76657372555808
 20
2.874565844078932
 30
0.0
 11
-14.76000000000001
 21
3.000000000000115
 31
0.0
  0
LINE
  5
3DC
330
1F
100
AcDbEntity
  8
0
100
AcDbLine
 10
24.7
 20
2.900000000000013
 30
0.0
 11
24.69671313722097
 21
2.962717077960605
 31
0.0
  0
LINE
  5
3DD
330
1F
100
AcDbEntity
  8
0
100
AcDbLine
 10
24.69671313722097
 20
2.962717077960605
 30
0.0
 11
24.68688856044029
 21
3.024747014490668
 31
0.0
  0
LINE
  5
3DE
330
1F
100
AcDbEntity
  8
0
100
AcDbLine
 10
24.68688856044029
 20
3.024747014490668
 30
0.0
 11
24.6706339097771
 21
3.085410196624981
 31
0.0
  0
LINE
  5
3DF
330
1F
100
AcDbEntity
  8
0
100
AcDbLine
 10
24.6706339097771
 20
3.085410196624981
 30
0.0
 11
24.64812727458556
 21
3.144041985845493
 31
0.0
  0
LINE
  5
3E0
330
1F
100
AcDbEntity
  8
0
100
AcDbLine
 10
24.64812727458556
 20
3.144041985845493
 30
0.0
 11
24.61961524227067
 21
3.200000000000013
 31
0.0
  0
LINE
  5
3E1
330
1F
100
AcDbEntity
  8
0
100
AcDbLine
 10
24.61961524227067
 20
3.200000000000013
 30
0.0
 11
24.58541019662497
 21
3.252671151375496
 31
0.0
  0
LINE
  5
3E2
330
1F
100
AcDbEntity
  8
0
100
AcDbLine
 10
24.58541019662497
 20
3.252671151375496
 30
0.0
 11
24.54588689528644
 21
3.301478363815328
 31
0.0
  0
LINE
  5
3E3
330
1F
100
AcDbEntity
  8
0
100
AcDbLine
 10
24.54588689528644
 20
3.301478363815328
 30
0.0
 11
24.50147836381532
 21
3.345886895286449
 31
0.0
  0
LINE
  5
3E4
330
1F
100
AcDbEntity
  8
0
100
AcDbLine
 10
24.50147836381532
 20
3.345886895286449
 30
0.0
 11
24.45267115137549
 21
3.385410196624981
 31
0.0
  0
LINE
  5
3E5
330
1F
100
AcDbEntity
  8
0
100
AcDbLine
 10
24.45267115137549
 20
3.385410196624981
 30
0.0
 11
24.4
 21
3.419615242270676
 31
0.0
  0
LINE
  5
3E6
330
1F
100
AcDbEntity
  8
0
100
AcDbLine
 10
24.4
 20
3.419615242270676
 30
0.0
 11
24.34404198584548
 21
3.448127274585573
 31
0.0
  0
LINE
  5
3E7
330
1F
100
AcDbEntity
  8
0
100
AcDbLine
 10
24.34404198584548
 20
3.448127274585573
 30
0.0
 11
24.28541019662497
 21
3.470633909777105
 31
0.0
  0
LINE
  5
3E8
330
1F
100
AcDbEntity
  8
0
100
AcDbLine
 10
24.28541019662497
 20
3.470633909777105
 30
0.0
 11
24.22474701449066
 21
3.486888560440296
 31
0.0
  0
LINE
  5
3E9
330
1F
100
AcDbEntity
  8
0
100
AcDbLine
 10
24.22474701449066
 20
3.486888560440296
 30
0.0
 11
24.16271707796059
 21
3.496713137220977
 31
0.0
  0
LINE
  5
3EA
330
1F
100
AcDbEntity
  8
0
100
AcDbLine
 10
24.16271707796059
 20
3.496713137220977
 30
0.0
 11
24.1
 21
3.500000000000012
 31
0.0
  0
LINE
  5
3EB
330
1F
100
AcDbEntity
  8
0
100
AcDbLine
 10
24.1
 20
3.500000000000012
 30
0.0
 11
24.03728292203941
 21
3.496713137220977
 31
0.0
  0
LINE
  5
3EC
330
1F
100
AcDbEntity
  8
0
100
AcDbLine
 10
24.03728292203941
 20
3.496713137220977
 30
0.0
 11
23.97525298550935
 21
3.486888560440296
 31
0.0
  0
LINE
  5
3ED
330
1F
100
AcDbEntity
  8
0
100
AcDbLine
 10
23.97525298550935
 20
3.486888560440296
 30
0.0
 11
23.91458980337503
 21
3.470633909777105
 31
0.0
  0
LINE
  5
3EE
330
1F
100
AcDbEntity
  8
0
100
AcDbLine
 10
23.91458980337503
 20
3.470633909777105
 30
0.0
 11
23.85595801415452
 21
3.448127274585573
 31
0.0
  0
LINE
  5
3EF
330
1F
100
AcDbEntity
  8
0
100
AcDbLine
 10
23.85595801415452
 20
3.448127274585573
 30
0.0
 11
23.8
 21
3.419615242270676
 31
0.0
  0
LINE
  5
3F0
330
1F
100
AcDbEntity
  8
0
100
AcDbLine
 10
23.8
 20
3.419615242270676
 30
0.0
 11
23.74732884862452
 21
3.385410196624981
 31
0.0
  0
LINE
  5
3F1
330
1F
100
AcDbEntity
  8
0
100
AcDbLine
 10
23.74732884862452
 20
3.385410196624981
 30
0.0
 11
23.69852163618469
 21
3.345886895286449
 31
0.0
  0
LINE
  5
3F2
330
1F
100
AcDbEntity
  8
0
100
AcDbLine
 10
23.69852163618469
 20
3.345886895286449
 30
0.0
 11
23.65411310471356
 21
3.301478363815328
 31
0.0
  0
LINE
  5
3F3
330
1F
100
AcDbEntity
  8
0
100
AcDbLine
 10
23.65411310471356
 20
3.301478363815328
 30
0.0
 11
23.61458980337503
 21
3.252671151375496
 31
0.0
  0
LINE
  5
3F4
330
1F
100
AcDbEntity
  8
0
100
AcDbLine
 10
23.61458980337503
 20
3.252671151375496
 30
0.0
 11
23.58038475772934
 21
3.200000000000013
 31
0.0
  0
LINE
  5
3F5
330
1F
100
AcDbEntity
  8
0
100
AcDbLine
 10
23.58038475772934
 20
3.200000000000013
 30
0.0
 11
23.55187272541444
 21
3.144041985845493
 31
0.0
  0
LINE
  5
3F6
330
1F
100
AcDbEntity
  8
0
100
AcDbLine
 10
23.55187272541444
 20
3.144041985845493
 30
0.0
 11
23.52936609022291
 21
3.085410196624981
 31
0.0
  0
LINE
  5
3F7
330
1F
100
AcDbEntity
  8
0
100
AcDbLine
 10
23.52936609022291
 20
3.085410196624981
 30
0.0
 11
23.51311143955972
 21
3.024747014490668
 31
0.0
  0
LINE
  5
3F8
330
1F
100
AcDbEntity
  8
0
100
AcDbLine
 10
23.51311143955972
 20
3.024747014490668
 30
0.0
 11
23.50328686277904
 21
2.962717077960605
 31
0.0
  0
LINE
  5
3F9
330
1F
100
AcDbEntity
  8
0
100
AcDbLine
 10
23.50328686277904
 20
2.962717077960605
 30
0.0
 11
23.5
 21
2.900000000000013
 31
0.0
  0
LINE
  5
3FA
330
1F
100
AcDbEntity
  8
0
100
AcDbLine
 10
23.5
 20
2.900000000000013
 30
0.0
 11
23.50328686277904
 21
2.837282922039421
 31
0.0
  0
LINE
  5
3FB
330
1F
100
AcDbEntity
  8
0
100
AcDbLine
 10
23.50328686277904
 20
2.837282922039421
 30
0.0
 11
23.51311143955972
 21
2.775252985509358
 31
0.0
  0
LINE
  5
3FC
330
1F
100
AcDbEntity
  8
0
100
AcDbLine
 10
23.51311143955972
 20
2.775252985509358
 30
0.0
 11
23.52936609022291
 21
2.714589803375045
 31
0.0
  0
LINE
  5
3FD
330
1F
100
AcDbEntity
  8
0
100
AcDbLine
 10
23.52936609022291
 20
2.714589803375045
 30
0.0
 11
23.55187272541444
 21
2.655958014154533
 31
0.0
  0
LINE
  5
3FE
330
1F
100
AcDbEntity
  8
0
100
AcDbLine
 10
23.55187272541444
 20
2.655958014154533
 30
0.0
 11
23.58038475772934
 21
2.600000000000013
 31
0.0
  0
LINE
  5
3FF
330
1F
100
AcDbEntity
  8
0
100
AcDbLine
 10
23.58038475772934
 20
2.600000000000013
 30
0.0
 11
23.61458980337503
 21
2.54732884862453
 31
0.0
  0
LINE
  5
400
330
1F
100
AcDbEntity
  8
0
100
AcDbLine
 10
23.61458980337503
 20
2.54732884862453
 30
0.0
 11
23.65411310471356
 21
2.498521636184698
 31
0.0
  0
LINE
  5
401
330
1F
100
AcDbEntity
  8
0
100
AcDbLine
 10
23.65411310471356
 20
2.498521636184698
 30
0.0
 11
23.69852163618469
 21
2.454113104713577
 31
0.0
  0
LINE
  5
402
330
1F
100
AcDbEntity
  8
0
100
AcDbLine
 10
23.69852163618469
 20
2.454113104713577
 30
0.0
 11
23.74732884862452
 21
2.414589803375045
 31
0.0
  0
LINE
  5
403
330
1F
100
AcDbEntity
  8
0
100
AcDbLine
 10
23.74732884862452
 20
2.414589803375045
 30
0.0
 11
23.8
 21
2.380384757729351
 31
0.0
  0
LINE
  5
404
330
1F
100
AcDbEntity
  8
0
100
AcDbLine
 10
23.8
 20
2.380384757729351
 30
0.0
 11
23.85595801415452
 21
2.351872725414453
 31
0.0
  0
LINE
  5
405
330
1F
100
AcDbEntity
  8
0
100
AcDbLine
 10
23.85595801415452
 20
2.351872725414453
 30
0.0
 11
23.91458980337503
 21
2.329366090222922
 31
0.0
  0
LINE
  5
406
330
1F
100
AcDbEntity
  8
0
100
AcDbLine
 10
23.91458980337503
 20
2.329366090222922
 30
0.0
 11
23.97525298550935
 21
2.31311143955973
 31
0.0
  0
LINE
  5
407
330
1F
100
AcDbEntity
  8
0
100
AcDbLine
 10
23.97525298550935
 20
2.31311143955973
 30
0.0
 11
24.03728292203941
 21
2.30328686277905
 31
0.0
  0
LINE
  5
408
330
1F
100
AcDbEntity
  8
0
100
AcDbLine
 10
24.03728292203941
 20
2.30328686277905
 30
0.0
 11
24.1
 21
2.300000000000014
 31
0.0
  0
LINE
  5
409
330
1F
100
AcDbEntity
  8
0
100
AcDbLine
 10
24.1
 20
2.300000000000014
 30
0.0
 11
24.16271707796059
 21
2.30328686277905
 31
0.0
  0
LINE
  5
40A
330
1F
100
AcDbEntity
  8
0
100
AcDbLine
 10
24.16271707796059
 20
2.30328686277905
 30
0.0
 11
24.22474701449066
 21
2.313111439559731
 31
0.0
  0
LINE
  5
40B
330
1F
100
AcDbEntity
  8
0
100
AcDbLine
 10
24.22474701449066
 20
2.313111439559731
 30
0.0
 11
24.28541019662497
 21
2.329366090222922
 31
0.0
  0
LINE
  5
40C
330
1F
100
AcDbEntity
  8
0
100
AcDbLine
 10
24.28541019662497
 20
2.329366090222922
 30
0.0
 11
24.34404198584548
 21
2.351872725414453
 31
0.0
  0
LINE
  5
40D
330
1F
100
AcDbEntity
  8
0
100
AcDbLine
 10
24.34404198584548
 20
2.351872725414453
 30
0.0
 11
24.4
 21
2.380384757729351
 31
0.0
  0
LINE
  5
40E
330
1F
100
AcDbEntity
  8
0
100
AcDbLine
 10
24.4
 20
2.380384757729351
 30
0.0
 11
24.45267115137549
 21
2.414589803375045
 31
0.0
  0
LINE
  5
40F
330
1F
100
AcDbEntity
  8
0
100
AcDbLine
 10
24.45267115137549
 20
2.414589803375045
 30
0.0
 11
24.50147836381532
 21
2.454113104713577
 31
0.0
  0
LINE
  5
410
330
1F
100
AcDbEntity
  8
0
100
AcDbLine
 10
24.50147836381532
 20
2.454113104713577
 30
0.0
 11
24.54588689528644
 21
2.498521636184698
 31
0.0
  0
LINE
  5
411
330
1F
100
AcDbEntity
  8
0
100
AcDbLine
 10
24.54588689528644
 20
2.498521636184698
 30
0.0
 11
24.58541019662497
 21
2.54732884862453
 31
0.0
  0
LINE
  5
412
330
1F
100
AcDbEntity
  8
0
100
AcDbLine
 10
24.58541019662497
 20
2.54732884862453
 30
0.0
 11
24.61961524227067
 21
2.600000000000013
 31
0.0
  0
LINE
  5
413
330
1F
100
AcDbEntity
  8
0
100
AcDbLine
 10
24.61961524227067
 20
2.600000000000013
 30
0.0
 11
24.64812727458556
 21
2.655958014154533
 31
0.0
  0
LINE
  5
414
330
1F
100
AcDbEntity
  8
0
100
AcDbLine
 10
24.64812727458556
 20
2.655958014154533
 30
0.0
 11
24.6706339097771
 21
2.714589803375044
 31
0.0
  0
LINE
  5
415
330
1F
100
AcDbEntity
  8
0
100
AcDbLine
 10
24.6706339097771
 20
2.714589803375044
 30
0.0
 11
24.68688856044028
 21
2.775252985509357
 31
0.0
  0
LINE
  5
416
330
1F
100
AcDbEntity
  8
0
100
AcDbLine
 10
24.68688856044028
 20
2.775252985509357
 30
0.0
 11
24.69671313722096
 21
2.83728292203942
 31
0.0
  0
LINE
  5
417
330
1F
100
AcDbEntity
  8
0
100
AcDbLine
 10
24.69671313722096
 20
2.83728292203942
 30
0.0
 11
24.7
 21
2.900000000000012
 31
0.0
  0
LINE
  5
418
330
1F
100
AcDbEntity
  8
0
100
AcDbLine
 10
19.62
 20
2.900000000000013
 30
0.0
 11
19.61671313722097
 21
2.962717077960605
 31
0.0
  0
LINE
  5
419
330
1F
100
AcDbEntity
  8
0
100
AcDbLine
 10
19.61671313722097
 20
2.962717077960605
 30
0.0
 11
19.60688856044029
 21
3.024747014490668
 31
0.0
  0
LINE
  5
41A
330
1F
100
AcDbEntity
  8
0
100
AcDbLine
 10
19.60688856044029
 20
3.024747014490668
 30
0.0
 11
19.59063390977709
 21
3.085410196624981
 31
0.0
  0
LINE
  5
41B
330
1F
100
AcDbEntity
  8
0
100
AcDbLine
 10
19.59063390977709
 20
3.085410196624981
 30
0.0
 11
19.56812727458556
 21
3.144041985845493
 31
0.0
  0
LINE
  5
41C
330
1F
100
AcDbEntity
  8
0
100
AcDbLine
 10
19.56812727458556
 20
3.144041985845493
 30
0.0
 11
19.53961524227066
 21
3.200000000000013
 31
0.0
  0
LINE
  5
41D
330
1F
100
AcDbEntity
  8
0
100
AcDbLine
 10
19.53961524227066
 20
3.200000000000013
 30
0.0
 11
19.50541019662497
 21
3.252671151375496
 31
0.0
  0
LINE
  5
41E
330
1F
100
AcDbEntity
  8
0
100
AcDbLine
 10
19.50541019662497
 20
3.252671151375496
 30
0.0
 11
19.46588689528644
 21
3.301478363815328
 31
0.0
  0
LINE
  5
41F
330
1F
100
AcDbEntity
  8
0
100
AcDbLine
 10
19.46588689528644
 20
3.301478363815328
 30
0.0
 11
19.42147836381531
 21
3.345886895286449
 31
0.0
  0
LINE
  5
420
330
1F
100
AcDbEntity
  8
0
100
AcDbLine
 10
19.42147836381531
 20
3.345886895286449
 30
0.0
 11
19.37267115137549
 21
3.385410196624981
 31
0.0
  0
LINE
  5
421
330
1F
100
AcDbEntity
  8
0
100
AcDbLine
 10
19.37267115137549
 20
3.385410196624981
 30
0.0
 11
19.32
 21
3.419615242270676
 31
0.0
  0
LINE
  5
422
330
1F
100
AcDbEntity
  8
0
100
AcDbLine
 10
19.32
 20
3.419615242270676
 30
0.0
 11
19.26404198584548
 21
3.448127274585573
 31
0.0
  0
LINE
  5
423
330
1F
100
AcDbEntity
  8
0
100
AcDbLine
 10
19.26404198584548
 20
3.448127274585573
 30
0.0
 11
19.20541019662497
 21
3.470633909777105
 31
0.0
  0
LINE
  5
424
330
1F
100
AcDbEntity
  8
0
100
AcDbLine
 10
19.20541019662497
 20
3.470633909777105
 30
0.0
 11
19.14474701449065
 21
3.486888560440296
 31
0.0
  0
LINE
  5
425
330
1F
100
AcDbEntity
  8
0
100
AcDbLine
 10
19.14474701449065
 20
3.486888560440296
 30
0.0
 11
19.08271707796059
 21
3.496713137220977
 31
0.0
  0
LINE
  5
426
330
1F
100
AcDbEntity
  8
0
100
AcDbLine
 10
19.08271707796059
 20
3.496713137220977
 30
0.0
 11
19.02
 21
3.500000000000012
 31
0.0
  0
LINE
  5
427
330
1F
100
AcDbEntity
  8
0
100
AcDbLine
 10
19.02
 20
3.500000000000012
 30
0.0
 11
18.95728292203941
 21
3.496713137220977
 31
0.0
  0
LINE
  5
428
330
1F
100
AcDbEntity
  8
0
100
AcDbLine
 10
18.95728292203941
 20
3.496713137220977
 30
0.0
 11
18.89525298550934
 21
3.486888560440296
 31
0.0
  0
LINE
  5
429
330
1F
100
AcDbEntity
  8
0
100
AcDbLine
 10
18.89525298550934
 20
3.486888560440296
 30
0.0
 11
18.83458980337503
 21
3.470633909777105
 31
0.0
  0
LINE
  5
42A
330
1F
100
AcDbEntity
  8
0
100
AcDbLine
 10
18.83458980337503
 20
3.470633909777105
 30
0.0
 11
18.77595801415452
 21
3.448127274585573
 31
0.0
  0
LINE
  5
42B
330
1F
100
AcDbEntity
  8
0
100
AcDbLine
 10
18.77595801415452
 20
3.448127274585573
 30
0.0
 11
18.72
 21
3.419615242270676
 31
0.0
  0
LINE
  5
42C
330
1F
100
AcDbEntity
  8
0
100
AcDbLine
 10
18.72
 20
3.419615242270676
 30
0.0
 11
18.66732884862451
 21
3.385410196624981
 31
0.0
  0
LINE
  5
42D
330
1F
100
AcDbEntity
  8
0
100
AcDbLine
 10
18.66732884862451
 20
3.385410196624981
 30
0.0
 11
18.61852163618468
 21
3.345886895286449
 31
0.0
  0
LINE
  5
42E
330
1F
100
AcDbEntity
  8
0
100
AcDbLine
 10
18.61852163618468
 20
3.345886895286449
 30
0.0
 11
18.57411310471356
 21
3.301478363815328
 31
0.0
  0
LINE
  5
42F
330
1F
100
AcDbEntity
  8
0
100
AcDbLine
 10
18.57411310471356
 20
3.301478363815328
 30
0.0
 11
18.53458980337503
 21
3.252671151375496
 31
0.0
  0
LINE
  5
430
330
1F
100
AcDbEntity
  8
0
100
AcDbLine
 10
18.53458980337503
 20
3.252671151375496
 30
0.0
 11
18.50038475772934
 21
3.200000000000013
 31
0.0
  0
LINE
  5
431
330
1F
100
AcDbEntity
  8
0
100
AcDbLine
 10
18.50038475772934
 20
3.200000000000013
 30
0.0
 11
18.47187272541444
 21
3.144041985845493
 31
0.0
  0
LINE
  5
432
330
1F
100
AcDbEntity
  8
0
100
AcDbLine
 10
18.47187272541444
 20
3.144041985845493
 30
0.0
 11
18.44936609022291
 21
3.085410196624981
 31
0.0
  0
LINE
  5
433
330
1F
100
AcDbEntity
  8
0
100
AcDbLine
 10
18.44936609022291
 20
3.085410196624981
 30
0.0
 11
18.43311143955972
 21
3.024747014490668
 31
0.0
  0
LINE
  5
434
330
1F
100
AcDbEntity
  8
0
100
AcDbLine
 10
18.43311143955972
 20
3.024747014490668
 30
0.0
 11
18.42328686277903
 21
2.962717077960605
 31
0.0
  0
LINE
  5
435
330
1F
100
AcDbEntity
  8
0
100
AcDbLine
 10
18.42328686277903
 20
2.962717077960605
 30
0.0
 11
18.42
 21
2.900000000000013
 31
0.0
  0
LINE
  5
436
330
1F
100
AcDbEntity
  8
0
100
AcDbLine
 10
18.42
 20
2.900000000000013
 30
0.0
 11
18.42328686277903
 21
2.837282922039421
 31
0.0
  0
LINE
  5
437
330
1F
100
AcDbEntity
  8
0
100
AcDbLine
 10
18.42328686277903
 20
2.837282922039421
 30
0.0
 11
18.43311143955972
 21
2.775252985509358
 31
0.0
  0
LINE
  5
438
330
1F
100
AcDbEntity
  8
0
100
AcDbLine
 10
18.43311143955972
 20
2.775252985509358
 30
0.0
 11
18.44936609022291
 21
2.714589803375045
 31
0.0
  0
LINE
  5
439
330
1F
100
AcDbEntity
  8
0
100
AcDbLine
 10
18.44936609022291
 20
2.714589803375045
 30
0.0
 11
18.47187272541444
 21
2.655958014154533
 31
0.0
  0
LINE
  5
43A
330
1F
100
AcDbEntity
  8
0
100
AcDbLine
 10
18.47187272541444
 20
2.655958014154533
 30
0.0
 11
18.50038475772934
 21
2.600000000000013
 31
0.0
  0
LINE
  5
43B
330
1F
100
AcDbEntity
  8
0
100
AcDbLine
 10
18.50038475772934
 20
2.600000000000013
 30
0.0
 11
18.53458980337503
 21
2.54732884862453
 31
0.0
  0
LINE
  5
43C
330
1F
100
AcDbEntity
  8
0
100
AcDbLine
 10
18.53458980337503
 20
2.54732884862453
 30
0.0
 11
18.57411310471356
 21
2.498521636184698
 31
0.0
  0
LINE
  5
43D
330
1F
100
AcDbEntity
  8
0
100
AcDbLine
 10
18.57411310471356
 20
2.498521636184698
 30
0.0
 11
18.61852163618468
 21
2.454113104713577
 31
0.0
  0
LINE
  5
43E
330
1F
100
AcDbEntity
  8
0
100
AcDbLine
 10
18.61852163618468
 20
2.454113104713577
 30
0.0
 11
18.66732884862451
 21
2.414589803375045
 31
0.0
  0
LINE
  5
43F
330
1F
100
AcDbEntity
  8
0
100
AcDbLine
 10
18.66732884862451
 20
2.414589803375045
 30
0.0
 11
18.72
 21
2.380384757729351
 31
0.0
  0
LINE
  5
440
330
1F
100
AcDbEntity
  8
0
100
AcDbLine
 10
18.72
 20
2.380384757729351
 30
0.0
 11
18.77595801415452
 21
2.351872725414453
 31
0.0
  0
LINE
  5
441
330
1F
100
AcDbEntity
  8
0
100
AcDbLine
 10
18.77595801415452
 20
2.351872725414453
 30
0.0
 11
18.83458980337503
 21
2.329366090222922
 31
0.0
  0
LINE
  5
442
330
1F
100
AcDbEntity
  8
0
100
AcDbLine
 10
18.83458980337503
 20
2.329366090222922
 30
0.0
 11
18.89525298550934
 21
2.31311143955973
 31
0.0
  0
LINE
  5
443
330
1F
100
AcDbEntity
  8
0
100
AcDbLine
 10
18.89525298550934
 20
2.31311143955973
 30
0.0
 11
18.95728292203941
 21
2.30328686277905
 31
0.0
  0
LINE
  5
444
330
1F
100
AcDbEntity
  8
0
100
AcDbLine
 10
18.95728292203941
 20
2.30328686277905
 30
0.0
 11
19.02
 21
2.300000000000014
 31
0.0
  0
LINE
  5
445
330
1F
100
AcDbEntity
  8
0
100
AcDbLine
 10
19.02
 20
2.300000000000014
 30
0.0
 11
19.08271707796059
 21
2.30328686277905
 31
0.0
  0
LINE
  5
446
330
1F
100
AcDbEntity
  8
0
100
AcDbLine
 10
19.08271707796059
 20
2.30328686277905
 30
0.0
 11
19.14474701449065
 21
2.313111439559731
 31
0.0
  0
LINE
  5
447
330
1F
100
AcDbEntity
  8
0
100
AcDbLine
 10
19.14474701449065
 20
2.313111439559731
 30
0.0
 11
19.20541019662497
 21
2.329366090222922
 31
0.0
  0
LINE
  5
448
330
1F
100
AcDbEntity
  8
0
100
AcDbLine
 10
19.20541019662497
 20
2.329366090222922
 30
0.0
 11
19.26404198584548
 21
2.351872725414453
 31
0.0
  0
LINE
  5
449
330
1F
100
AcDbEntity
  8
0
100
AcDbLine
 10
19.26404198584548
 20
2.351872725414453
 30
0.0
 11
19.32
 21
2.380384757729351
 31
0.0
  0
LINE
  5
44A
330
1F
100
AcDbEntity
  8
0
100
AcDbLine
 10
19.32
 20
2.380384757729351
 30
0.0
 11
19.37267115137549
 21
2.414589803375045
 31
0.0
  0
LINE
  5
44B
330
1F
100
AcDbEntity
  8
0
100
AcDbLine
 10
19.37267115137549
 20
2.414589803375045
 30
0.0
 11
19.42147836381531
 21
2.454113104713577
 31
0.0
  0
LINE
  5
44C
330
1F
100
AcDbEntity
  8
0
100
AcDbLine
 10
19.42147836381531
 20
2.454113104713577
 30
0.0
 11
19.46588689528643
 21
2.498521636184698
 31
0.0
  0
LINE
  5
44D
330
1F
100
AcDbEntity
  8
0
100
AcDbLine
 10
19.46588689528643
 20
2.498521636184698
 30
0.0
 11
19.50541019662497
 21
2.54732884862453
 31
0.0
  0
LINE
  5
44E
330
1F
100
AcDbEntity
  8
0
100
AcDbLine
 10
19.50541019662497
 20
2.54732884862453
 30
0.0
 11
19.53961524227066
 21
2.600000000000013
 31
0.0
  0
LINE
  5
44F
330
1F
100
AcDbEntity
  8
0
100
AcDbLine
 10
19.53961524227066
 20
2.600000000000013
 30
0.0
 11
19.56812727458556
 21
2.655958014154533
 31
0.0
  0
LINE
  5
450
330
1F
100
AcDbEntity
  8
0
100
AcDbLine
 10
19.56812727458556
 20
2.655958014154533
 30
0.0
 11
19.59063390977709
 21
2.714589803375044
 31
0.0
  0
LINE
  5
451
330
1F
100
AcDbEntity
  8
0
100
AcDbLine
 10
19.59063390977709
 20
2.714589803375044
 30
0.0
 11
19.60688856044028
 21
2.775252985509357
 31
0.0
  0
LINE
  5
452
330
1F
100
AcDbEntity
  8
0
100
AcDbLine
 10
19.60688856044028
 20
2.775252985509357
 30
0.0
 11
19.61671313722096
 21
2.83728292203942
 31
0.0
  0
LINE
  5
453
330
1F
100
AcDbEntity
  8
0
100
AcDbLine
 10
19.61671313722096
 20
2.83728292203942
 30
0.0
 11
19.62
 21
2.900000000000012
 31
0.0
  0
LINE
  5
454
330
1F
100
AcDbEntity
  8
0
100
AcDbLine
 10
14.54
 20
2.900000000000013
 30
0.0
 11
14.53671313722096
 21
2.962717077960605
 31
0.0
  0
LINE
  5
455
330
1F
100
AcDbEntity
  8
0
100
AcDbLine
 10
14.53671313722096
 20
2.962717077960605
 30
0.0
 11
14.52688856044028
 21
3.024747014490668
 31
0.0
  0
LINE
  5
456
330
1F
100
AcDbEntity
  8
0
100
AcDbLine
 10
14.52688856044028
 20
3.024747014490668
 30
0.0
 11
14.51063390977709
 21
3.085410196624981
 31
0.0
  0
LINE
  5
457
330
1F
100
AcDbEntity
  8
0
100
AcDbLine
 10
14.51063390977709
 20
3.085410196624981
 30
0.0
 11
14.48812727458556
 21
3.144041985845493
 31
0.0
  0
LINE
  5
458
330
1F
100
AcDbEntity
  8
0
100
AcDbLine
 10
14.48812727458556
 20
3.144041985845493
 30
0.0
 11
14.45961524227066
 21
3.200000000000013
 31
0.0
  0
LINE
  5
459
330
1F
100
AcDbEntity
  8
0
100
AcDbLine
 10
14.45961524227066
 20
3.200000000000013
 30
0.0
 11
14.42541019662497
 21
3.252671151375496
 31
0.0
  0
LINE
  5
45A
330
1F
100
AcDbEntity
  8
0
100
AcDbLine
 10
14.42541019662497
 20
3.252671151375496
 30
0.0
 11
14.38588689528644
 21
3.301478363815328
 31
0.0
  0
LINE
  5
45B
330
1F
100
AcDbEntity
  8
0
100
AcDbLine
 10
14.38588689528644
 20
3.301478363815328
 30
0.0
 11
14.34147836381531
 21
3.345886895286449
 31
0.0
  0
LINE
  5
45C
330
1F
100
AcDbEntity
  8
0
100
AcDbLine
 10
14.34147836381531
 20
3.345886895286449
 30
0.0
 11
14.29267115137548
 21
3.385410196624981
 31
0.0
  0
LINE
  5
45D
330
1F
100
AcDbEntity
  8
0
100
AcDbLine
 10
14.29267115137548
 20
3.385410196624981
 30
0.0
 11
14.24
 21
3.419615242270676
 31
0.0
  0
LINE
  5
45E
330
1F
100
AcDbEntity
  8
0
100
AcDbLine
 10
14.24
 20
3.419615242270676
 30
0.0
 11
14.18404198584548
 21
3.448127274585573
 31
0.0
  0
LINE
  5
45F
330
1F
100
AcDbEntity
  8
0
100
AcDbLine
 10
14.18404198584548
 20
3.448127274585573
 30
0.0
 11
14.12541019662497
 21
3.470633909777105
 31
0.0
  0
LINE
  5
460
330
1F
100
AcDbEntity
  8
0
100
AcDbLine
 10
14.12541019662497
 20
3.470633909777105
 30
0.0
 11
14.06474701449065
 21
3.486888560440296
 31
0.0
  0
LINE
  5
461
330
1F
100
AcDbEntity
  8
0
100
AcDbLine
 10
14.06474701449065
 20
3.486888560440296
 30
0.0
 11
14.00271707796059
 21
3.496713137220977
 31
0.0
  0
LINE
  5
462
330
1F
100
AcDbEntity
  8
0
100
AcDbLine
 10
14.00271707796059
 20
3.496713137220977
 30
0.0
 11
13.94
 21
3.500000000000012
 31
0.0
  0
LINE
  5
463
330
1F
100
AcDbEntity
  8
0
100
AcDbLine
 10
13.94
 20
3.500000000000012
 30
0.0
 11
13.87728292203941
 21
3.496713137220977
 31
0.0
  0
LINE
  5
464
330
1F
100
AcDbEntity
  8
0
100
AcDbLine
 10
13.87728292203941
 20
3.496713137220977
 30
0.0
 11
13.81525298550934
 21
3.486888560440296
 31
0.0
  0
LINE
  5
465
330
1F
100
AcDbEntity
  8
0
100
AcDbLine
 10
13.81525298550934
 20
3.486888560440296
 30
0.0
 11
13.75458980337503
 21
3.470633909777105
 31
0.0
  0
LINE
  5
466
330
1F
100
AcDbEntity
  8
0
100
AcDbLine
 10
13.75458980337503
 20
3.470633909777105
 30
0.0
 11
13.69595801415452
 21
3.448127274585573
 31
0.0
  0
LINE
  5
467
330
1F
100
AcDbEntity
  8
0
100
AcDbLine
 10
13.69595801415452
 20
3.448127274585573
 30
0.0
 11
13.64
 21
3.419615242270676
 31
0.0
  0
LINE
  5
468
330
1F
100
AcDbEntity
  8
0
100
AcDbLine
 10
13.64
 20
3.419615242270676
 30
0.0
 11
13.58732884862452
 21
3.385410196624981
 31
0.0
  0
LINE
  5
469
330
1F
100
AcDbEntity
  8
0
100
AcDbLine
 10
13.58732884862452
 20
3.385410196624981
 30
0.0
 11
13.53852163618468
 21
3.345886895286449
 31
0.0
  0
LINE
  5
46A
330
1F
100
AcDbEntity
  8
0
100
AcDbLine
 10
13.53852163618468
 20
3.345886895286449
 30
0.0
 11
13.49411310471356
 21
3.301478363815328
 31
0.0
  0
LINE
  5
46B
330
1F
100
AcDbEntity
  8
0
100
AcDbLine
 10
13.49411310471356
 20
3.301478363815328
 30
0.0
 11
13.45458980337503
 21
3.252671151375496
 31
0.0
  0
LINE
  5
46C
330
1F
100
AcDbEntity
  8
0
100
AcDbLine
 10
13.45458980337503
 20
3.252671151375496
 30
0.0
 11
13.42038475772934
 21
3.200000000000013
 31
0.0
  0
LINE
  5
46D
330
1F
100
AcDbEntity
  8
0
100
AcDbLine
 10
13.42038475772934
 20
3.200000000000013
 30
0.0
 11
13.39187272541444
 21
3.144041985845493
 31
0.0
  0
LINE
  5
46E
330
1F
100
AcDbEntity
  8
0
100
AcDbLine
 10
13.39187272541444
 20
3.144041985845493
 30
0.0
 11
13.36936609022291
 21
3.085410196624981
 31
0.0
  0
LINE
  5
46F
330
1F
100
AcDbEntity
  8
0
100
AcDbLine
 10
13.36936609022291
 20
3.085410196624981
 30
0.0
 11
13.35311143955972
 21
3.024747014490668
 31
0.0
  0
LINE
  5
470
330
1F
100
AcDbEntity
  8
0
100
AcDbLine
 10
13.35311143955972
 20
3.024747014490668
 30
0.0
 11
13.34328686277904
 21
2.962717077960605
 31
0.0
  0
LINE
  5
471
330
1F
100
AcDbEntity
  8
0
100
AcDbLine
 10
13.34328686277904
 20
2.962717077960605
 30
0.0
 11
13.34
 21
2.900000000000013
 31
0.0
  0
LINE
  5
472
330
1F
100
AcDbEntity
  8
0
100
AcDbLine
 10
13.34
 20
2.900000000000013
 30
0.0
 11
13.34328686277904
 21
2.837282922039421
 31
0.0
  0
LINE
  5
473
330
1F
100
AcDbEntity
  8
0
100
AcDbLine
 10
13.34328686277904
 20
2.837282922039421
 30
0.0
 11
13.35311143955972
 21
2.775252985509358
 31
0.0
  0
LINE
  5
474
330
1F
100
AcDbEntity
  8
0
100
AcDbLine
 10
13.35311143955972
 20
2.775252985509358
 30
0.0
 11
13.36936609022291
 21
2.714589803375045
 31
0.0
  0
LINE
  5
475
330
1F
100
AcDbEntity
  8
0
100
AcDbLine
 10
13.36936609022291
 20
2.714589803375045
 30
0.0
 11
13.39187272541444
 21
2.655958014154533
 31
0.0
  0
LINE
  5
476
330
1F
100
AcDbEntity
  8
0
100
AcDbLine
 10
13.39187272541444
 20
2.655958014154533
 30
0.0
 11
13.42038475772934
 21
2.600000000000013
 31
0.0
  0
LINE
  5
477
330
1F
100
AcDbEntity
  8
0
100
AcDbLine
 10
13.42038475772934
 20
2.600000000000013
 30
0.0
 11
13.45458980337503
 21
2.54732884862453
 31
0.0
  0
LINE
  5
478
330
1F
100
AcDbEntity
  8
0
100
AcDbLine
 10
13.45458980337503
 20
2.54732884862453
 30
0.0
 11
13.49411310471356
 21
2.498521636184698
 31
0.0
  0
LINE
  5
479
330
1F
100
AcDbEntity
  8
0
100
AcDbLine
 10
13.49411310471356
 20
2.498521636184698
 30
0.0
 11
13.53852163618468
 21
2.454113104713577
 31
0.0
  0
LINE
  5
47A
330
1F
100
AcDbEntity
  8
0
100
AcDbLine
 10
13.53852163618468
 20
2.454113104713577
 30
0.0
 11
13.58732884862452
 21
2.414589803375045
 31
0.0
  0
LINE
  5
47B
330
1F
100
AcDbEntity
  8
0
100
AcDbLine
 10
13.58732884862452
 20
2.414589803375045
 30
0.0
 11
13.64
 21
2.380384757729351
 31
0.0
  0
LINE
  5
47C
330
1F
100
AcDbEntity
  8
0
100
AcDbLine
 10
13.64
 20
2.380384757729351
 30
0.0
 11
13.69595801415452
 21
2.351872725414453
 31
0.0
  0
LINE
  5
47D
330
1F
100
AcDbEntity
  8
0
100
AcDbLine
 10
13.69595801415452
 20
2.351872725414453
 30
0.0
 11
13.75458980337503
 21
2.329366090222922
 31
0.0
  0
LINE
  5
47E
330
1F
100
AcDbEntity
  8
0
100
AcDbLine
 10
13.75458980337503
 20
2.329366090222922
 30
0.0
 11
13.81525298550934
 21
2.31311143955973
 31
0.0
  0
LINE
  5
47F
330
1F
100
AcDbEntity
  8
0
100
AcDbLine
 10
13.81525298550934
 20
2.31311143955973
 30
0.0
 11
13.87728292203941
 21
2.30328686277905
 31
0.0
  0
LINE
  5
480
330
1F
100
AcDbEntity
  8
0
100
AcDbLine
 10
13.87728292203941
 20
2.30328686277905
 30
0.0
 11
13.94
 21
2.300000000000014
 31
0.0
  0
LINE
  5
481
330
1F
100
AcDbEntity
  8
0
100
AcDbLine
 10
13.94
 20
2.300000000000014
 30
0.0
 11
14.00271707796059
 21
2.30328686277905
 31
0.0
  0
LINE
  5
482
330
1F
100
AcDbEntity
  8
0
100
AcDbLine
 10
14.00271707796059
 20
2.30328686277905
 30
0.0
 11
14.06474701449065
 21
2.313111439559731
 31
0.0
  0
LINE
  5
483
330
1F
100
AcDbEntity
  8
0
100
AcDbLine
 10
14.06474701449065
 20
2.313111439559731
 30
0.0
 11
14.12541019662497
 21
2.329366090222922
 31
0.0
  0
LINE
  5
484
330
1F
100
AcDbEntity
  8
0
100
AcDbLine
 10
14.12541019662497
 20
2.329366090222922
 30
0.0
 11
14.18404198584548
 21
2.351872725414453
 31
0.0
  0
LINE
  5
485
330
1F
100
AcDbEntity
  8
0
100
AcDbLine
 10
14.18404198584548
 20
2.351872725414453
 30
0.0
 11
14.24
 21
2.380384757729351
 31
0.0
  0
LINE
  5
486
330
1F
100
AcDbEntity
  8
0
100
AcDbLine
 10
14.24
 20
2.380384757729351
 30
0.0
 11
14.29267115137548
 21
2.414589803375045
 31
0.0
  0
LINE
  5
487
330
1F
100
AcDbEntity
  8
0
100
AcDbLine
 10
14.29267115137548
 20
2.414589803375045
 30
0.0
 11
14.34147836381531
 21
2.454113104713577
 31
0.0
  0
LINE
  5
488
330
1F
100
AcDbEntity
  8
0
100
AcDbLine
 10
14.34147836381531
 20
2.454113104713577
 30
0.0
 11
14.38588689528643
 21
2.498521636184698
 31
0.0
  0
LINE
  5
489
330
1F
100
AcDbEntity
  8
0
100
AcDbLine
 10
14.38588689528643
 20
2.498521636184698
 30
0.0
 11
14.42541019662497
 21
2.54732884862453
 31
0.0
  0
LINE
  5
48A
330
1F
100
AcDbEntity
  8
0
100
AcDbLine
 10
14.42541019662497
 20
2.54732884862453
 30
0.0
 11
14.45961524227066
 21
2.600000000000013
 31
0.0
  0
LINE
  5
48B
330
1F
100
AcDbEntity
  8
0
100
AcDbLine
 10
14.45961524227066
 20
2.600000000000013
 30
0.0
 11
14.48812727458556
 21
2.655958014154533
 31
0.0
  0
LINE
  5
48C
330
1F
100
AcDbEntity
  8
0
100
AcDbLine
 10
14.48812727458556
 20
2.655958014154533
 30
0.0
 11
14.51063390977709
 21
2.714589803375044
 31
0.0
  0
LINE
  5
48D
330
1F
100
AcDbEntity
  8
0
100
AcDbLine
 10
14.51063390977709
 20
2.714589803375044
 30
0.0
 11
14.52688856044028
 21
2.775252985509357
 31
0.0
  0
LINE
  5
48E
330
1F
100
AcDbEntity
  8
0
100
AcDbLine
 10
14.52688856044028
 20
2.775252985509357
 30
0.0
 11
14.53671313722096
 21
2.83728292203942
 31
0.0
  0
LINE
  5
48F
330
1F
100
AcDbEntity
  8
0
100
AcDbLine
 10
14.53671313722096
 20
2.83728292203942
 30
0.0
 11
14.54
 21
2.900000000000012
 31
0.0
  0
LINE
  5
490
330
1F
100
AcDbEntity
  8
0
100
AcDbLine
 10
9.46
 20
2.900000000000013
 30
0.0
 11
9.456713137220964
 21
2.962717077960605
 31
0.0
  0
LINE
  5
491
330
1F
100
AcDbEntity
  8
0
100
AcDbLine
 10
9.456713137220964
 20
2.962717077960605
 30
0.0
 11
9.446888560440284
 21
3.024747014490668
 31
0.0
  0
LINE
  5
492
330
1F
100
AcDbEntity
  8
0
100
AcDbLine
 10
9.446888560440284
 20
3.024747014490668
 30
0.0
 11
9.430633909777093
 21
3.085410196624981
 31
0.0
  0
LINE
  5
493
330
1F
100
AcDbEntity
  8
0
100
AcDbLine
 10
9.430633909777093
 20
3.085410196624981
 30
0.0
 11
9.408127274585562
 21
3.144041985845493
 31
0.0
  0
LINE
  5
494
330
1F
100
AcDbEntity
  8
0
100
AcDbLine
 10
9.408127274585562
 20
3.144041985845493
 30
0.0
 11
9.379615242270663
 21
3.200000000000013
 31
0.0
  0
LINE
  5
495
330
1F
100
AcDbEntity
  8
0
100
AcDbLine
 10
9.379615242270663
 20
3.200000000000013
 30
0.0
 11
9.34541019662497
 21
3.252671151375496
 31
0.0
  0
LINE
  5
496
330
1F
100
AcDbEntity
  8
0
100
AcDbLine
 10
9.34541019662497
 20
3.252671151375496
 30
0.0
 11
9.305886895286438
 21
3.301478363815328
 31
0.0
  0
LINE
  5
497
330
1F
100
AcDbEntity
  8
0
100
AcDbLine
 10
9.305886895286438
 20
3.301478363815328
 30
0.0
 11
9.261478363815316
 21
3.345886895286449
 31
0.0
  0
LINE
  5
498
330
1F
100
AcDbEntity
  8
0
100
AcDbLine
 10
9.261478363815316
 20
3.345886895286449
 30
0.0
 11
9.212671151375485
 21
3.385410196624981
 31
0.0
  0
LINE
  5
499
330
1F
100
AcDbEntity
  8
0
100
AcDbLine
 10
9.212671151375485
 20
3.385410196624981
 30
0.0
 11
9.16
 21
3.419615242270676
 31
0.0
  0
LINE
  5
49A
330
1F
100
AcDbEntity
  8
0
100
AcDbLine
 10
9.16
 20
3.419615242270676
 30
0.0
 11
9.10404198584548
 21
3.448127274585573
 31
0.0
  0
LINE
  5
49B
330
1F
100
AcDbEntity
  8
0
100
AcDbLine
 10
9.10404198584548
 20
3.448127274585573
 30
0.0
 11
9.04541019662497
 21
3.470633909777105
 31
0.0
  0
LINE
  5
49C
330
1F
100
AcDbEntity
  8
0
100
AcDbLine
 10
9.04541019662497
 20
3.470633909777105
 30
0.0
 11
8.984747014490656
 21
3.486888560440296
 31
0.0
  0
LINE
  5
49D
330
1F
100
AcDbEntity
  8
0
100
AcDbLine
 10
8.984747014490656
 20
3.486888560440296
 30
0.0
 11
8.922717077960593
 21
3.496713137220977
 31
0.0
  0
LINE
  5
49E
330
1F
100
AcDbEntity
  8
0
100
AcDbLine
 10
8.922717077960593
 20
3.496713137220977
 30
0.0
 11
8.860000000000001
 21
3.500000000000012
 31
0.0
  0
LINE
  5
49F
330
1F
100
AcDbEntity
  8
0
100
AcDbLine
 10
8.860000000000001
 20
3.500000000000012
 30
0.0
 11
8.79728292203941
 21
3.496713137220977
 31
0.0
  0
LINE
  5
4A0
330
1F
100
AcDbEntity
  8
0
100
AcDbLine
 10
8.79728292203941
 20
3.496713137220977
 30
0.0
 11
8.735252985509346
 21
3.486888560440296
 31
0.0
  0
LINE
  5
4A1
330
1F
100
AcDbEntity
  8
0
100
AcDbLine
 10
8.735252985509346
 20
3.486888560440296
 30
0.0
 11
8.674589803375033
 21
3.470633909777105
 31
0.0
  0
LINE
  5
4A2
330
1F
100
AcDbEntity
  8
0
100
AcDbLine
 10
8.674589803375033
 20
3.470633909777105
 30
0.0
 11
8.615958014154522
 21
3.448127274585573
 31
0.0
  0
LINE
  5
4A3
330
1F
100
AcDbEntity
  8
0
100
AcDbLine
 10
8.615958014154522
 20
3.448127274585573
 30
0.0
 11
8.560000000000002
 21
3.419615242270676
 31
0.0
  0
LINE
  5
4A4
330
1F
100
AcDbEntity
  8
0
100
AcDbLine
 10
8.560000000000002
 20
3.419615242270676
 30
0.0
 11
8.507328848624518
 21
3.385410196624981
 31
0.0
  0
LINE
  5
4A5
330
1F
100
AcDbEntity
  8
0
100
AcDbLine
 10
8.507328848624518
 20
3.385410196624981
 30
0.0
 11
8.458521636184686
 21
3.345886895286449
 31
0.0
  0
LINE
  5
4A6
330
1F
100
AcDbEntity
  8
0
100
AcDbLine
 10
8.458521636184686
 20
3.345886895286449
 30
0.0
 11
8.414113104713566
 21
3.301478363815328
 31
0.0
  0
LINE
  5
4A7
330
1F
100
AcDbEntity
  8
0
100
AcDbLine
 10
8.414113104713566
 20
3.301478363815328
 30
0.0
 11
8.374589803375034
 21
3.252671151375496
 31
0.0
  0
LINE
  5
4A8
330
1F
100
AcDbEntity
  8
0
100
AcDbLine
 10
8.374589803375034
 20
3.252671151375496
 30
0.0
 11
8.340384757729339
 21
3.200000000000013
 31
0.0
  0
LINE
  5
4A9
330
1F
100
AcDbEntity
  8
0
100
AcDbLine
 10
8.340384757729339
 20
3.200000000000013
 30
0.0
 11
8.311872725414442
 21
3.144041985845493
 31
0.0
  0
LINE
  5
4AA
330
1F
100
AcDbEntity
  8
0
100
AcDbLine
 10
8.311872725414442
 20
3.144041985845493
 30
0.0
 11
8.28936609022291
 21
3.085410196624981
 31
0.0
  0
LINE
  5
4AB
330
1F
100
AcDbEntity
  8
0
100
AcDbLine
 10
8.28936609022291
 20
3.085410196624981
 30
0.0
 11
8.273111439559719
 21
3.024747014490668
 31
0.0
  0
LINE
  5
4AC
330
1F
100
AcDbEntity
  8
0
100
AcDbLine
 10
8.273111439559719
 20
3.024747014490668
 30
0.0
 11
8.263286862779038
 21
2.962717077960605
 31
0.0
  0
LINE
  5
4AD
330
1F
100
AcDbEntity
  8
0
100
AcDbLine
 10
8.263286862779038
 20
2.962717077960605
 30
0.0
 11
8.260000000000002
 21
2.900000000000013
 31
0.0
  0
LINE
  5
4AE
330
1F
100
AcDbEntity
  8
0
100
AcDbLine
 10
8.260000000000002
 20
2.900000000000013
 30
0.0
 11
8.263286862779038
 21
2.837282922039421
 31
0.0
  0
LINE
  5
4AF
330
1F
100
AcDbEntity
  8
0
100
AcDbLine
 10
8.263286862779038
 20
2.837282922039421
 30
0.0
 11
8.273111439559719
 21
2.775252985509358
 31
0.0
  0
LINE
  5
4B0
330
1F
100
AcDbEntity
  8
0
100
AcDbLine
 10
8.273111439559719
 20
2.775252985509358
 30
0.0
 11
8.28936609022291
 21
2.714589803375045
 31
0.0
  0
LINE
  5
4B1
330
1F
100
AcDbEntity
  8
0
100
AcDbLine
 10
8.28936609022291
 20
2.714589803375045
 30
0.0
 11
8.311872725414442
 21
2.655958014154533
 31
0.0
  0
LINE
  5
4B2
330
1F
100
AcDbEntity
  8
0
100
AcDbLine
 10
8.311872725414442
 20
2.655958014154533
 30
0.0
 11
8.340384757729339
 21
2.600000000000013
 31
0.0
  0
LINE
  5
4B3
330
1F
100
AcDbEntity
  8
0
100
AcDbLine
 10
8.340384757729339
 20
2.600000000000013
 30
0.0
 11
8.374589803375034
 21
2.54732884862453
 31
0.0
  0
LINE
  5
4B4
330
1F
100
AcDbEntity
  8
0
100
AcDbLine
 10
8.374589803375034
 20
2.54732884862453
 30
0.0
 11
8.414113104713566
 21
2.498521636184698
 31
0.0
  0
LINE
  5
4B5
330
1F
100
AcDbEntity
  8
0
100
AcDbLine
 10
8.414113104713566
 20
2.498521636184698
 30
0.0
 11
8.458521636184686
 21
2.454113104713577
 31
0.0
  0
LINE
  5
4B6
330
1F
100
AcDbEntity
  8
0
100
AcDbLine
 10
8.458521636184686
 20
2.454113104713577
 30
0.0
 11
8.507328848624518
 21
2.414589803375045
 31
0.0
  0
LINE
  5
4B7
330
1F
100
AcDbEntity
  8
0
100
AcDbLine
 10
8.507328848624518
 20
2.414589803375045
 30
0.0
 11
8.560000000000002
 21
2.380384757729351
 31
0.0
  0
LINE
  5
4B8
330
1F
100
AcDbEntity
  8
0
100
AcDbLine
 10
8.560000000000002
 20
2.380384757729351
 30
0.0
 11
8.615958014154522
 21
2.351872725414453
 31
0.0
  0
LINE
  5
4B9
330
1F
100
AcDbEntity
  8
0
100
AcDbLine
 10
8.615958014154522
 20
2.351872725414453
 30
0.0
 11
8.674589803375033
 21
2.329366090222922
 31
0.0
  0
LINE
  5
4BA
330
1F
100
AcDbEntity
  8
0
100
AcDbLine
 10
8.674589803375033
 20
2.329366090222922
 30
0.0
 11
8.735252985509346
 21
2.31311143955973
 31
0.0
  0
LINE
  5
4BB
330
1F
100
AcDbEntity
  8
0
100
AcDbLine
 10
8.735252985509346
 20
2.31311143955973
 30
0.0
 11
8.79728292203941
 21
2.30328686277905
 31
0.0
  0
LINE
  5
4BC
330
1F
100
AcDbEntity
  8
0
100
AcDbLine
 10
8.79728292203941
 20
2.30328686277905
 30
0.0
 11
8.860000000000001
 21
2.300000000000014
 31
0.0
  0
LINE
  5
4BD
330
1F
100
AcDbEntity
  8
0
100
AcDbLine
 10
8.860000000000001
 20
2.300000000000014
 30
0.0
 11
8.922717077960593
 21
2.30328686277905
 31
0.0
  0
LINE
  5
4BE
330
1F
100
AcDbEntity
  8
0
100
AcDbLine
 10
8.922717077960593
 20
2.30328686277905
 30
0.0
 11
8.984747014490656
 21
2.313111439559731
 31
0.0
  0
LINE
  5
4BF
330
1F
100
AcDbEntity
  8
0
100
AcDbLine
 10
8.984747014490656
 20
2.313111439559731
 30
0.0
 11
9.04541019662497
 21
2.329366090222922
 31
0.0
  0
LINE
  5
4C0
330
1F
100
AcDbEntity
  8
0
100
AcDbLine
 10
9.04541019662497
 20
2.329366090222922
 30
0.0
 11
9.10404198584548
 21
2.351872725414453
 31
0.0
  0
LINE
  5
4C1
330
1F
100
AcDbEntity
  8
0
100
AcDbLine
 10
9.10404198584548
 20
2.351872725414453
 30
0.0
 11
9.16
 21
2.380384757729351
 31
0.0
  0
LINE
  5
4C2
330
1F
100
AcDbEntity
  8
0
100
AcDbLine
 10
9.16
 20
2.380384757729351
 30
0.0
 11
9.212671151375483
 21
2.414589803375045
 31
0.0
  0
LINE
  5
4C3
330
1F
100
AcDbEntity
  8
0
100
AcDbLine
 10
9.212671151375483
 20
2.414589803375045
 30
0.0
 11
9.261478363815314
 21
2.454113104713577
 31
0.0
  0
LINE
  5
4C4
330
1F
100
AcDbEntity
  8
0
100
AcDbLine
 10
9.261478363815314
 20
2.454113104713577
 30
0.0
 11
9.305886895286436
 21
2.498521636184698
 31
0.0
  0
LINE
  5
4C5
330
1F
100
AcDbEntity
  8
0
100
AcDbLine
 10
9.305886895286436
 20
2.498521636184698
 30
0.0
 11
9.345410196624968
 21
2.54732884862453
 31
0.0
  0
LINE
  5
4C6
330
1F
100
AcDbEntity
  8
0
100
AcDbLine
 10
9.345410196624968
 20
2.54732884862453
 30
0.0
 11
9.379615242270663
 21
2.600000000000013
 31
0.0
  0
LINE
  5
4C7
330
1F
100
AcDbEntity
  8
0
100
AcDbLine
 10
9.379615242270663
 20
2.600000000000013
 30
0.0
 11
9.40812727458556
 21
2.655958014154533
 31
0.0
  0
LINE
  5
4C8
330
1F
100
AcDbEntity
  8
0
100
AcDbLine
 10
9.40812727458556
 20
2.655958014154533
 30
0.0
 11
9.430633909777091
 21
2.714589803375044
 31
0.0
  0
LINE
  5
4C9
330
1F
100
AcDbEntity
  8
0
100
AcDbLine
 10
9.430633909777091
 20
2.714589803375044
 30
0.0
 11
9.446888560440282
 21
2.775252985509357
 31
0.0
  0
LINE
  5
4CA
330
1F
100
AcDbEntity
  8
0
100
AcDbLine
 10
9.446888560440282
 20
2.775252985509357
 30
0.0
 11
9.456713137220964
 21
2.83728292203942
 31
0.0
  0
LINE
  5
4CB
330
1F
100
AcDbEntity
  8
0
100
AcDbLine
 10
9.456713137220964
 20
2.83728292203942
 30
0.0
 11
9.459999999999999
 21
2.900000000000012
 31
0.0
  0
LINE
  5
4CC
330
1F
100
AcDbEntity
  8
0
100
AcDbLine
 10
4.380000000000001
 20
2.900000000000013
 30
0.0
 11
4.376713137220965
 21
2.962717077960605
 31
0.0
  0
LINE
  5
4CD
330
1F
100
AcDbEntity
  8
0
100
AcDbLine
 10
4.376713137220965
 20
2.962717077960605
 30
0.0
 11
4.366888560440284
 21
3.024747014490668
 31
0.0
  0
LINE
  5
4CE
330
1F
100
AcDbEntity
  8
0
100
AcDbLine
 10
4.366888560440284
 20
3.024747014490668
 30
0.0
 11
4.350633909777093
 21
3.085410196624981
 31
0.0
  0
LINE
  5
4CF
330
1F
100
AcDbEntity
  8
0
100
AcDbLine
 10
4.350633909777093
 20
3.085410196624981
 30
0.0
 11
4.328127274585562
 21
3.144041985845493
 31
0.0
  0
LINE
  5
4D0
330
1F
100
AcDbEntity
  8
0
100
AcDbLine
 10
4.328127274585562
 20
3.144041985845493
 30
0.0
 11
4.299615242270664
 21
3.200000000000013
 31
0.0
  0
LINE
  5
4D1
330
1F
100
AcDbEntity
  8
0
100
AcDbLine
 10
4.299615242270664
 20
3.200000000000013
 30
0.0
 11
4.26541019662497
 21
3.252671151375496
 31
0.0
  0
LINE
  5
4D2
330
1F
100
AcDbEntity
  8
0
100
AcDbLine
 10
4.26541019662497
 20
3.252671151375496
 30
0.0
 11
4.225886895286437
 21
3.301478363815328
 31
0.0
  0
LINE
  5
4D3
330
1F
100
AcDbEntity
  8
0
100
AcDbLine
 10
4.225886895286437
 20
3.301478363815328
 30
0.0
 11
4.181478363815316
 21
3.345886895286449
 31
0.0
  0
LINE
  5
4D4
330
1F
100
AcDbEntity
  8
0
100
AcDbLine
 10
4.181478363815316
 20
3.345886895286449
 30
0.0
 11
4.132671151375485
 21
3.385410196624981
 31
0.0
  0
LINE
  5
4D5
330
1F
100
AcDbEntity
  8
0
100
AcDbLine
 10
4.132671151375485
 20
3.385410196624981
 30
0.0
 11
4.080000000000001
 21
3.419615242270676
 31
0.0
  0
LINE
  5
4D6
330
1F
100
AcDbEntity
  8
0
100
AcDbLine
 10
4.080000000000001
 20
3.419615242270676
 30
0.0
 11
4.024041985845481
 21
3.448127274585573
 31
0.0
  0
LINE
  5
4D7
330
1F
100
AcDbEntity
  8
0
100
AcDbLine
 10
4.024041985845481
 20
3.448127274585573
 30
0.0
 11
3.96541019662497
 21
3.470633909777105
 31
0.0
  0
LINE
  5
4D8
330
1F
100
AcDbEntity
  8
0
100
AcDbLine
 10
3.96541019662497
 20
3.470633909777105
 30
0.0
 11
3.904747014490657
 21
3.486888560440296
 31
0.0
  0
LINE
  5
4D9
330
1F
100
AcDbEntity
  8
0
100
AcDbLine
 10
3.904747014490657
 20
3.486888560440296
 30
0.0
 11
3.842717077960593
 21
3.496713137220977
 31
0.0
  0
LINE
  5
4DA
330
1F
100
AcDbEntity
  8
0
100
AcDbLine
 10
3.842717077960593
 20
3.496713137220977
 30
0.0
 11
3.780000000000001
 21
3.500000000000012
 31
0.0
  0
LINE
  5
4DB
330
1F
100
AcDbEntity
  8
0
100
AcDbLine
 10
3.780000000000001
 20
3.500000000000012
 30
0.0
 11
3.717282922039409
 21
3.496713137220977
 31
0.0
  0
LINE
  5
4DC
330
1F
100
AcDbEntity
  8
0
100
AcDbLine
 10
3.717282922039409
 20
3.496713137220977
 30
0.0
 11
3.655252985509346
 21
3.486888560440296
 31
0.0
  0
LINE
  5
4DD
330
1F
100
AcDbEntity
  8
0
100
AcDbLine
 10
3.655252985509346
 20
3.486888560440296
 30
0.0
 11
3.594589803375033
 21
3.470633909777105
 31
0.0
  0
LINE
  5
4DE
330
1F
100
AcDbEntity
  8
0
100
AcDbLine
 10
3.594589803375033
 20
3.470633909777105
 30
0.0
 11
3.535958014154521
 21
3.448127274585573
 31
0.0
  0
LINE
  5
4DF
330
1F
100
AcDbEntity
  8
0
100
AcDbLine
 10
3.535958014154521
 20
3.448127274585573
 30
0.0
 11
3.480000000000002
 21
3.419615242270676
 31
0.0
  0
LINE
  5
4E0
330
1F
100
AcDbEntity
  8
0
100
AcDbLine
 10
3.480000000000002
 20
3.419615242270676
 30
0.0
 11
3.427328848624518
 21
3.385410196624981
 31
0.0
  0
LINE
  5
4E1
330
1F
100
AcDbEntity
  8
0
100
AcDbLine
 10
3.427328848624518
 20
3.385410196624981
 30
0.0
 11
3.378521636184687
 21
3.345886895286449
 31
0.0
  0
LINE
  5
4E2
330
1F
100
AcDbEntity
  8
0
100
AcDbLine
 10
3.378521636184687
 20
3.345886895286449
 30
0.0
 11
3.334113104713565
 21
3.301478363815328
 31
0.0
  0
LINE
  5
4E3
330
1F
100
AcDbEntity
  8
0
100
AcDbLine
 10
3.334113104713565
 20
3.301478363815328
 30
0.0
 11
3.294589803375033
 21
3.252671151375496
 31
0.0
  0
LINE
  5
4E4
330
1F
100
AcDbEntity
  8
0
100
AcDbLine
 10
3.294589803375033
 20
3.252671151375496
 30
0.0
 11
3.260384757729339
 21
3.200000000000013
 31
0.0
  0
LINE
  5
4E5
330
1F
100
AcDbEntity
  8
0
100
AcDbLine
 10
3.260384757729339
 20
3.200000000000013
 30
0.0
 11
3.231872725414441
 21
3.144041985845493
 31
0.0
  0
LINE
  5
4E6
330
1F
100
AcDbEntity
  8
0
100
AcDbLine
 10
3.231872725414441
 20
3.144041985845493
 30
0.0
 11
3.20936609022291
 21
3.085410196624981
 31
0.0
  0
LINE
  5
4E7
330
1F
100
AcDbEntity
  8
0
100
AcDbLine
 10
3.20936609022291
 20
3.085410196624981
 30
0.0
 11
3.193111439559719
 21
3.024747014490668
 31
0.0
  0
LINE
  5
4E8
330
1F
100
AcDbEntity
  8
0
100
AcDbLine
 10
3.193111439559719
 20
3.024747014490668
 30
0.0
 11
3.183286862779038
 21
2.962717077960605
 31
0.0
  0
LINE
  5
4E9
330
1F
100
AcDbEntity
  8
0
100
AcDbLine
 10
3.183286862779038
 20
2.962717077960605
 30
0.0
 11
3.180000000000002
 21
2.900000000000013
 31
0.0
  0
LINE
  5
4EA
330
1F
100
AcDbEntity
  8
0
100
AcDbLine
 10
3.180000000000002
 20
2.900000000000013
 30
0.0
 11
3.183286862779038
 21
2.837282922039421
 31
0.0
  0
LINE
  5
4EB
330
1F
100
AcDbEntity
  8
0
100
AcDbLine
 10
3.183286862779038
 20
2.837282922039421
 30
0.0
 11
3.193111439559719
 21
2.775252985509358
 31
0.0
  0
LINE
  5
4EC
330
1F
100
AcDbEntity
  8
0
100
AcDbLine
 10
3.193111439559719
 20
2.775252985509358
 30
0.0
 11
3.20936609022291
 21
2.714589803375045
 31
0.0
  0
LINE
  5
4ED
330
1F
100
AcDbEntity
  8
0
100
AcDbLine
 10
3.20936609022291
 20
2.714589803375045
 30
0.0
 11
3.231872725414441
 21
2.655958014154533
 31
0.0
  0
LINE
  5
4EE
330
1F
100
AcDbEntity
  8
0
100
AcDbLine
 10
3.231872725414441
 20
2.655958014154533
 30
0.0
 11
3.260384757729339
 21
2.600000000000013
 31
0.0
  0
LINE
  5
4EF
330
1F
100
AcDbEntity
  8
0
100
AcDbLine
 10
3.260384757729339
 20
2.600000000000013
 30
0.0
 11
3.294589803375033
 21
2.54732884862453
 31
0.0
  0
LINE
  5
4F0
330
1F
100
AcDbEntity
  8
0
100
AcDbLine
 10
3.294589803375033
 20
2.54732884862453
 30
0.0
 11
3.334113104713565
 21
2.498521636184698
 31
0.0
  0
LINE
  5
4F1
330
1F
100
AcDbEntity
  8
0
100
AcDbLine
 10
3.334113104713565
 20
2.498521636184698
 30
0.0
 11
3.378521636184687
 21
2.454113104713577
 31
0.0
  0
LINE
  5
4F2
330
1F
100
AcDbEntity
  8
0
100
AcDbLine
 10
3.378521636184687
 20
2.454113104713577
 30
0.0
 11
3.427328848624518
 21
2.414589803375045
 31
0.0
  0
LINE
  5
4F3
330
1F
100
AcDbEntity
  8
0
100
AcDbLine
 10
3.427328848624518
 20
2.414589803375045
 30
0.0
 11
3.480000000000002
 21
2.380384757729351
 31
0.0
  0
LINE
  5
4F4
330
1F
100
AcDbEntity
  8
0
100
AcDbLine
 10
3.480000000000002
 20
2.380384757729351
 30
0.0
 11
3.535958014154521
 21
2.351872725414453
 31
0.0
  0
LINE
  5
4F5
330
1F
100
AcDbEntity
  8
0
100
AcDbLine
 10
3.535958014154521
 20
2.351872725414453
 30
0.0
 11
3.594589803375033
 21
2.329366090222922
 31
0.0
  0
LINE
  5
4F6
330
1F
100
AcDbEntity
  8
0
100
AcDbLine
 10
3.594589803375033
 20
2.329366090222922
 30
0.0
 11
3.655252985509346
 21
2.31311143955973
 31
0.0
  0
LINE
  5
4F7
330
1F
100
AcDbEntity
  8
0
100
AcDbLine
 10
3.655252985509346
 20
2.31311143955973
 30
0.0
 11
3.717282922039409
 21
2.30328686277905
 31
0.0
  0
LINE
  5
4F8
330
1F
100
AcDbEntity
  8
0
100
AcDbLine
 10
3.717282922039409
 20
2.30328686277905
 30
0.0
 11
3.780000000000001
 21
2.300000000000014
 31
0.0
  0
LINE
  5
4F9
330
1F
100
AcDbEntity
  8
0
100
AcDbLine
 10
3.780000000000001
 20
2.300000000000014
 30
0.0
 11
3.842717077960593
 21
2.30328686277905
 31
0.0
  0
LINE
  5
4FA
330
1F
100
AcDbEntity
  8
0
100
AcDbLine
 10
3.842717077960593
 20
2.30328686277905
 30
0.0
 11
3.904747014490656
 21
2.313111439559731
 31
0.0
  0
LINE
  5
4FB
330
1F
100
AcDbEntity
  8
0
100
AcDbLine
 10
3.904747014490656
 20
2.313111439559731
 30
0.0
 11
3.965410196624969
 21
2.329366090222922
 31
0.0
  0
LINE
  5
4FC
330
1F
100
AcDbEntity
  8
0
100
AcDbLine
 10
3.965410196624969
 20
2.329366090222922
 30
0.0
 11
4.02404198584548
 21
2.351872725414453
 31
0.0
  0
LINE
  5
4FD
330
1F
100
AcDbEntity
  8
0
100
AcDbLine
 10
4.02404198584548
 20
2.351872725414453
 30
0.0
 11
4.08
 21
2.380384757729351
 31
0.0
  0
LINE
  5
4FE
330
1F
100
AcDbEntity
  8
0
100
AcDbLine
 10
4.08
 20
2.380384757729351
 30
0.0
 11
4.132671151375484
 21
2.414589803375045
 31
0.0
  0
LINE
  5
4FF
330
1F
100
AcDbEntity
  8
0
100
AcDbLine
 10
4.132671151375484
 20
2.414589803375045
 30
0.0
 11
4.181478363815315
 21
2.454113104713577
 31
0.0
  0
LINE
  5
500
330
1F
100
AcDbEntity
  8
0
100
AcDbLine
 10
4.181478363815315
 20
2.454113104713577
 30
0.0
 11
4.225886895286436
 21
2.498521636184698
 31
0.0
  0
LINE
  5
501
330
1F
100
AcDbEntity
  8
0
100
AcDbLine
 10
4.225886895286436
 20
2.498521636184698
 30
0.0
 11
4.265410196624968
 21
2.54732884862453
 31
0.0
  0
LINE
  5
502
330
1F
100
AcDbEntity
  8
0
100
AcDbLine
 10
4.265410196624968
 20
2.54732884862453
 30
0.0
 11
4.299615242270662
 21
2.600000000000013
 31
0.0
  0
LINE
  5
503
330
1F
100
AcDbEntity
  8
0
100
AcDbLine
 10
4.299615242270662
 20
2.600000000000013
 30
0.0
 11
4.32812727458556
 21
2.655958014154533
 31
0.0
  0
LINE
  5
504
330
1F
100
AcDbEntity
  8
0
100
AcDbLine
 10
4.32812727458556
 20
2.655958014154533
 30
0.0
 11
4.350633909777091
 21
2.714589803375044
 31
0.0
  0
LINE
  5
505
330
1F
100
AcDbEntity
  8
0
100
AcDbLine
 10
4.350633909777091
 20
2.714589803375044
 30
0.0
 11
4.366888560440283
 21
2.775252985509357
 31
0.0
  0
LINE
  5
506
330
1F
100
AcDbEntity
  8
0
100
AcDbLine
 10
4.366888560440283
 20
2.775252985509357
 30
0.0
 11
4.376713137220963
 21
2.83728292203942
 31
0.0
  0
LINE
  5
507
330
1F
100
AcDbEntity
  8
0
100
AcDbLine
 10
4.376713137220963
 20
2.83728292203942
 30
0.0
 11
4.379999999999999
 21
2.900000000000012
 31
0.0
  0
LINE
  5
508
330
1F
100
AcDbEntity
  8
0
100
AcDbLine
 10
-0.6999999999999981
 20
2.900000000000013
 30
0.0
 11
-0.7032868627790341
 21
2.962717077960605
 31
0.0
  0
LINE
  5
509
330
1F
100
AcDbEntity
  8
0
100
AcDbLine
 10
-0.7032868627790341
 20
2.962717077960605
 30
0.0
 11
-0.7131114395597147
 21
3.024747014490668
 31
0.0
  0
LINE
  5
50A
330
1F
100
AcDbEntity
  8
0
100
AcDbLine
 10
-0.7131114395597147
 20
3.024747014490668
 30
0.0
 11
-0.729366090222906
 21
3.085410196624981
 31
0.0
  0
LINE
  5
50B
330
1F
100
AcDbEntity
  8
0
100
AcDbLine
 10
-0.729366090222906
 20
3.085410196624981
 30
0.0
 11
-0.7518727254144375
 21
3.144041985845493
 31
0.0
  0
LINE
  5
50C
330
1F
100
AcDbEntity
  8
0
100
AcDbLine
 10
-0.7518727254144375
 20
3.144041985845493
 30
0.0
 11
-0.7803847577293349
 21
3.200000000000013
 31
0.0
  0
LINE
  5
50D
330
1F
100
AcDbEntity
  8
0
100
AcDbLine
 10
-0.7803847577293349
 20
3.200000000000013
 30
0.0
 11
-0.8145898033750296
 21
3.252671151375496
 31
0.0
  0
LINE
  5
50E
330
1F
100
AcDbEntity
  8
0
100
AcDbLine
 10
-0.8145898033750296
 20
3.252671151375496
 30
0.0
 11
-0.8541131047135615
 21
3.301478363815328
 31
0.0
  0
LINE
  5
50F
330
1F
100
AcDbEntity
  8
0
100
AcDbLine
 10
-0.8541131047135615
 20
3.301478363815328
 30
0.0
 11
-0.8985216361846831
 21
3.345886895286449
 31
0.0
  0
LINE
  5
510
330
1F
100
AcDbEntity
  8
0
100
AcDbLine
 10
-0.8985216361846831
 20
3.345886895286449
 30
0.0
 11
-0.9473288486245142
 21
3.385410196624981
 31
0.0
  0
LINE
  5
511
330
1F
100
AcDbEntity
  8
0
100
AcDbLine
 10
-0.9473288486245142
 20
3.385410196624981
 30
0.0
 11
-0.999999999999998
 21
3.419615242270676
 31
0.0
  0
LINE
  5
512
330
1F
100
AcDbEntity
  8
0
100
AcDbLine
 10
-0.999999999999998
 20
3.419615242270676
 30
0.0
 11
-1.055958014154518
 21
3.448127274585573
 31
0.0
  0
LINE
  5
513
330
1F
100
AcDbEntity
  8
0
100
AcDbLine
 10
-1.055958014154518
 20
3.448127274585573
 30
0.0
 11
-1.11458980337503
 21
3.470633909777105
 31
0.0
  0
LINE
  5
514
330
1F
100
AcDbEntity
  8
0
100
AcDbLine
 10
-1.11458980337503
 20
3.470633909777105
 30
0.0
 11
-1.175252985509342
 21
3.486888560440296
 31
0.0
  0
LINE
  5
515
330
1F
100
AcDbEntity
  8
0
100
AcDbLine
 10
-1.175252985509342
 20
3.486888560440296
 30
0.0
 11
-1.237282922039406
 21
3.496713137220977
 31
0.0
  0
LINE
  5
516
330
1F
100
AcDbEntity
  8
0
100
AcDbLine
 10
-1.237282922039406
 20
3.496713137220977
 30
0.0
 11
-1.299999999999998
 21
3.500000000000012
 31
0.0
  0
LINE
  5
517
330
1F
100
AcDbEntity
  8
0
100
AcDbLine
 10
-1.299999999999998
 20
3.500000000000012
 30
0.0
 11
-1.36271707796059
 21
3.496713137220977
 31
0.0
  0
LINE
  5
518
330
1F
100
AcDbEntity
  8
0
100
AcDbLine
 10
-1.36271707796059
 20
3.496713137220977
 30
0.0
 11
-1.424747014490654
 21
3.486888560440296
 31
0.0
  0
LINE
  5
519
330
1F
100
AcDbEntity
  8
0
100
AcDbLine
 10
-1.424747014490654
 20
3.486888560440296
 30
0.0
 11
-1.485410196624966
 21
3.470633909777105
 31
0.0
  0
LINE
  5
51A
330
1F
100
AcDbEntity
  8
0
100
AcDbLine
 10
-1.485410196624966
 20
3.470633909777105
 30
0.0
 11
-1.544041985845478
 21
3.448127274585573
 31
0.0
  0
LINE
  5
51B
330
1F
100
AcDbEntity
  8
0
100
AcDbLine
 10
-1.544041985845478
 20
3.448127274585573
 30
0.0
 11
-1.599999999999998
 21
3.419615242270676
 31
0.0
  0
LINE
  5
51C
330
1F
100
AcDbEntity
  8
0
100
AcDbLine
 10
-1.599999999999998
 20
3.419615242270676
 30
0.0
 11
-1.652671151375481
 21
3.385410196624981
 31
0.0
  0
LINE
  5
51D
330
1F
100
AcDbEntity
  8
0
100
AcDbLine
 10
-1.652671151375481
 20
3.385410196624981
 30
0.0
 11
-1.701478363815313
 21
3.345886895286449
 31
0.0
  0
LINE
  5
51E
330
1F
100
AcDbEntity
  8
0
100
AcDbLine
 10
-1.701478363815313
 20
3.345886895286449
 30
0.0
 11
-1.745886895286434
 21
3.301478363815328
 31
0.0
  0
LINE
  5
51F
330
1F
100
AcDbEntity
  8
0
100
AcDbLine
 10
-1.745886895286434
 20
3.301478363815328
 30
0.0
 11
-1.785410196624966
 21
3.252671151375496
 31
0.0
  0
LINE
  5
520
330
1F
100
AcDbEntity
  8
0
100
AcDbLine
 10
-1.785410196624966
 20
3.252671151375496
 30
0.0
 11
-1.819615242270661
 21
3.200000000000013
 31
0.0
  0
LINE
  5
521
330
1F
100
AcDbEntity
  8
0
100
AcDbLine
 10
-1.819615242270661
 20
3.200000000000013
 30
0.0
 11
-1.848127274585558
 21
3.144041985845493
 31
0.0
  0
LINE
  5
522
330
1F
100
AcDbEntity
  8
0
100
AcDbLine
 10
-1.848127274585558
 20
3.144041985845493
 30
0.0
 11
-1.870633909777089
 21
3.085410196624981
 31
0.0
  0
LINE
  5
523
330
1F
100
AcDbEntity
  8
0
100
AcDbLine
 10
-1.870633909777089
 20
3.085410196624981
 30
0.0
 11
-1.886888560440281
 21
3.024747014490668
 31
0.0
  0
LINE
  5
524
330
1F
100
AcDbEntity
  8
0
100
AcDbLine
 10
-1.886888560440281
 20
3.024747014490668
 30
0.0
 11
-1.896713137220961
 21
2.962717077960605
 31
0.0
  0
LINE
  5
525
330
1F
100
AcDbEntity
  8
0
100
AcDbLine
 10
-1.896713137220961
 20
2.962717077960605
 30
0.0
 11
-1.899999999999997
 21
2.900000000000013
 31
0.0
  0
LINE
  5
526
330
1F
100
AcDbEntity
  8
0
100
AcDbLine
 10
-1.899999999999997
 20
2.900000000000013
 30
0.0
 11
-1.896713137220961
 21
2.837282922039421
 31
0.0
  0
LINE
  5
527
330
1F
100
AcDbEntity
  8
0
100
AcDbLine
 10
-1.896713137220961
 20
2.837282922039421
 30
0.0
 11
-1.886888560440281
 21
2.775252985509358
 31
0.0
  0
LINE
  5
528
330
1F
100
AcDbEntity
  8
0
100
AcDbLine
 10
-1.886888560440281
 20
2.775252985509358
 30
0.0
 11
-1.870633909777089
 21
2.714589803375045
 31
0.0
  0
LINE
  5
529
330
1F
100
AcDbEntity
  8
0
100
AcDbLine
 10
-1.870633909777089
 20
2.714589803375045
 30
0.0
 11
-1.848127274585558
 21
2.655958014154533
 31
0.0
  0
LINE
  5
52A
330
1F
100
AcDbEntity
  8
0
100
AcDbLine
 10
-1.848127274585558
 20
2.655958014154533
 30
0.0
 11
-1.819615242270661
 21
2.600000000000013
 31
0.0
  0
LINE
  5
52B
330
1F
100
AcDbEntity
  8
0
100
AcDbLine
 10
-1.819615242270661
 20
2.600000000000013
 30
0.0
 11
-1.785410196624966
 21
2.54732884862453
 31
0.0
  0
LINE
  5
52C
330
1F
100
AcDbEntity
  8
0
100
AcDbLine
 10
-1.785410196624966
 20
2.54732884862453
 30
0.0
 11
-1.745886895286434
 21
2.498521636184698
 31
0.0
  0
LINE
  5
52D
330
1F
100
AcDbEntity
  8
0
100
AcDbLine
 10
-1.745886895286434
 20
2.498521636184698
 30
0.0
 11
-1.701478363815313
 21
2.454113104713577
 31
0.0
  0
LINE
  5
52E
330
1F
100
AcDbEntity
  8
0
100
AcDbLine
 10
-1.701478363815313
 20
2.454113104713577
 30
0.0
 11
-1.652671151375481
 21
2.414589803375045
 31
0.0
  0
LINE
  5
52F
330
1F
100
AcDbEntity
  8
0
100
AcDbLine
 10
-1.652671151375481
 20
2.414589803375045
 30
0.0
 11
-1.599999999999998
 21
2.380384757729351
 31
0.0
  0
LINE
  5
530
330
1F
100
AcDbEntity
  8
0
100
AcDbLine
 10
-1.599999999999998
 20
2.380384757729351
 30
0.0
 11
-1.544041985845478
 21
2.351872725414453
 31
0.0
  0
LINE
  5
531
330
1F
100
AcDbEntity
  8
0
100
AcDbLine
 10
-1.544041985845478
 20
2.351872725414453
 30
0.0
 11
-1.485410196624966
 21
2.329366090222922
 31
0.0
  0
LINE
  5
532
330
1F
100
AcDbEntity
  8
0
100
AcDbLine
 10
-1.485410196624966
 20
2.329366090222922
 30
0.0
 11
-1.424747014490654
 21
2.31311143955973
 31
0.0
  0
LINE
  5
533
330
1F
100
AcDbEntity
  8
0
100
AcDbLine
 10
-1.424747014490654
 20
2.31311143955973
 30
0.0
 11
-1.36271707796059
 21
2.30328686277905
 31
0.0
  0
LINE
  5
534
330
1F
100
AcDbEntity
  8
0
100
AcDbLine
 10
-1.36271707796059
 20
2.30328686277905
 30
0.0
 11
-1.299999999999998
 21
2.300000000000014
 31
0.0
  0
LINE
  5
535
330
1F
100
AcDbEntity
  8
0
100
AcDbLine
 10
-1.299999999999998
 20
2.300000000000014
 30
0.0
 11
-1.237282922039406
 21
2.30328686277905
 31
0.0
  0
LINE
  5
536
330
1F
100
AcDbEntity
  8
0
100
AcDbLine
 10
-1.237282922039406
 20
2.30328686277905
 30
0.0
 11
-1.175252985509343
 21
2.313111439559731
 31
0.0
  0
LINE
  5
537
330
1F
100
AcDbEntity
  8
0
100
AcDbLine
 10
-1.175252985509343
 20
2.313111439559731
 30
0.0
 11
-1.11458980337503
 21
2.329366090222922
 31
0.0
  0
LINE
  5
538
330
1F
100
AcDbEntity
  8
0
100
AcDbLine
 10
-1.11458980337503
 20
2.329366090222922
 30
0.0
 11
-1.055958014154519
 21
2.351872725414453
 31
0.0
  0
LINE
  5
539
330
1F
100
AcDbEntity
  8
0
100
AcDbLine
 10
-1.055958014154519
 20
2.351872725414453
 30
0.0
 11
-0.9999999999999989
 21
2.380384757729351
 31
0.0
  0
LINE
  5
53A
330
1F
100
AcDbEntity
  8
0
100
AcDbLine
 10
-0.9999999999999989
 20
2.380384757729351
 30
0.0
 11
-0.947328848624515
 21
2.414589803375045
 31
0.0
  0
LINE
  5
53B
330
1F
100
AcDbEntity
  8
0
100
AcDbLine
 10
-0.947328848624515
 20
2.414589803375045
 30
0.0
 11
-0.8985216361846842
 21
2.454113104713577
 31
0.0
  0
LINE
  5
53C
330
1F
100
AcDbEntity
  8
0
100
AcDbLine
 10
-0.8985216361846842
 20
2.454113104713577
 30
0.0
 11
-0.8541131047135627
 21
2.498521636184698
 31
0.0
  0
LINE
  5
53D
330
1F
100
AcDbEntity
  8
0
100
AcDbLine
 10
-0.8541131047135627
 20
2.498521636184698
 30
0.0
 11
-0.8145898033750308
 21
2.54732884862453
 31
0.0
  0
LINE
  5
53E
330
1F
100
AcDbEntity
  8
0
100
AcDbLine
 10
-0.8145898033750308
 20
2.54732884862453
 30
0.0
 11
-0.7803847577293362
 21
2.600000000000013
 31
0.0
  0
LINE
  5
53F
330
1F
100
AcDbEntity
  8
0
100
AcDbLine
 10
-0.7803847577293362
 20
2.600000000000013
 30
0.0
 11
-0.751872725414439
 21
2.655958014154533
 31
0.0
  0
LINE
  5
540
330
1F
100
AcDbEntity
  8
0
100
AcDbLine
 10
-0.751872725414439
 20
2.655958014154533
 30
0.0
 11
-0.7293660902229074
 21
2.714589803375044
 31
0.0
  0
LINE
  5
541
330
1F
100
AcDbEntity
  8
0
100
AcDbLine
 10
-0.7293660902229074
 20
2.714589803375044
 30
0.0
 11
-0.7131114395597162
 21
2.775252985509357
 31
0.0
  0
LINE
  5
542
330
1F
100
AcDbEntity
  8
0
100
AcDbLine
 10
-0.7131114395597162
 20
2.775252985509357
 30
0.0
 11
-0.7032868627790356
 21
2.83728292203942
 31
0.0
  0
LINE
  5
543
330
1F
100
AcDbEntity
  8
0
100
AcDbLine
 10
-0.7032868627790356
 20
2.83728292203942
 30
0.0
 11
-0.6999999999999996
 21
2.900000000000012
 31
0.0
  0
LINE
  5
544
330
1F
100
AcDbEntity
  8
0
100
AcDbLine
 10
-5.779999999999999
 20
2.900000000000013
 30
0.0
 11
-5.783286862779035
 21
2.962717077960605
 31
0.0
  0
LINE
  5
545
330
1F
100
AcDbEntity
  8
0
100
AcDbLine
 10
-5.783286862779035
 20
2.962717077960605
 30
0.0
 11
-5.793111439559716
 21
3.024747014490668
 31
0.0
  0
LINE
  5
546
330
1F
100
AcDbEntity
  8
0
100
AcDbLine
 10
-5.793111439559716
 20
3.024747014490668
 30
0.0
 11
-5.809366090222907
 21
3.085410196624981
 31
0.0
  0
LINE
  5
547
330
1F
100
AcDbEntity
  8
0
100
AcDbLine
 10
-5.809366090222907
 20
3.085410196624981
 30
0.0
 11
-5.831872725414438
 21
3.144041985845493
 31
0.0
  0
LINE
  5
548
330
1F
100
AcDbEntity
  8
0
100
AcDbLine
 10
-5.831872725414438
 20
3.144041985845493
 30
0.0
 11
-5.860384757729336
 21
3.200000000000013
 31
0.0
  0
LINE
  5
549
330
1F
100
AcDbEntity
  8
0
100
AcDbLine
 10
-5.860384757729336
 20
3.200000000000013
 30
0.0
 11
-5.89458980337503
 21
3.252671151375496
 31
0.0
  0
LINE
  5
54A
330
1F
100
AcDbEntity
  8
0
100
AcDbLine
 10
-5.89458980337503
 20
3.252671151375496
 30
0.0
 11
-5.934113104713563
 21
3.301478363815328
 31
0.0
  0
LINE
  5
54B
330
1F
100
AcDbEntity
  8
0
100
AcDbLine
 10
-5.934113104713563
 20
3.301478363815328
 30
0.0
 11
-5.978521636184684
 21
3.345886895286449
 31
0.0
  0
LINE
  5
54C
330
1F
100
AcDbEntity
  8
0
100
AcDbLine
 10
-5.978521636184684
 20
3.345886895286449
 30
0.0
 11
-6.027328848624515
 21
3.385410196624981
 31
0.0
  0
LINE
  5
54D
330
1F
100
AcDbEntity
  8
0
100
AcDbLine
 10
-6.027328848624515
 20
3.385410196624981
 30
0.0
 11
-6.079999999999999
 21
3.419615242270676
 31
0.0
  0
LINE
  5
54E
330
1F
100
AcDbEntity
  8
0
100
AcDbLine
 10
-6.079999999999999
 20
3.419615242270676
 30
0.0
 11
-6.135958014154519
 21
3.448127274585573
 31
0.0
  0
LINE
  5
54F
330
1F
100
AcDbEntity
  8
0
100
AcDbLine
 10
-6.135958014154519
 20
3.448127274585573
 30
0.0
 11
-6.194589803375031
 21
3.470633909777105
 31
0.0
  0
LINE
  5
550
330
1F
100
AcDbEntity
  8
0
100
AcDbLine
 10
-6.194589803375031
 20
3.470633909777105
 30
0.0
 11
-6.255252985509343
 21
3.486888560440296
 31
0.0
  0
LINE
  5
551
330
1F
100
AcDbEntity
  8
0
100
AcDbLine
 10
-6.255252985509343
 20
3.486888560440296
 30
0.0
 11
-6.317282922039407
 21
3.496713137220977
 31
0.0
  0
LINE
  5
552
330
1F
100
AcDbEntity
  8
0
100
AcDbLine
 10
-6.317282922039407
 20
3.496713137220977
 30
0.0
 11
-6.379999999999999
 21
3.500000000000012
 31
0.0
  0
LINE
  5
553
330
1F
100
AcDbEntity
  8
0
100
AcDbLine
 10
-6.379999999999999
 20
3.500000000000012
 30
0.0
 11
-6.442717077960591
 21
3.496713137220977
 31
0.0
  0
LINE
  5
554
330
1F
100
AcDbEntity
  8
0
100
AcDbLine
 10
-6.442717077960591
 20
3.496713137220977
 30
0.0
 11
-6.504747014490654
 21
3.486888560440296
 31
0.0
  0
LINE
  5
555
330
1F
100
AcDbEntity
  8
0
100
AcDbLine
 10
-6.504747014490654
 20
3.486888560440296
 30
0.0
 11
-6.565410196624967
 21
3.470633909777105
 31
0.0
  0
LINE
  5
556
330
1F
100
AcDbEntity
  8
0
100
AcDbLine
 10
-6.565410196624967
 20
3.470633909777105
 30
0.0
 11
-6.624041985845479
 21
3.448127274585573
 31
0.0
  0
LINE
  5
557
330
1F
100
AcDbEntity
  8
0
100
AcDbLine
 10
-6.624041985845479
 20
3.448127274585573
 30
0.0
 11
-6.679999999999999
 21
3.419615242270676
 31
0.0
  0
LINE
  5
558
330
1F
100
AcDbEntity
  8
0
100
AcDbLine
 10
-6.679999999999999
 20
3.419615242270676
 30
0.0
 11
-6.732671151375483
 21
3.385410196624981
 31
0.0
  0
LINE
  5
559
330
1F
100
AcDbEntity
  8
0
100
AcDbLine
 10
-6.732671151375483
 20
3.385410196624981
 30
0.0
 11
-6.781478363815313
 21
3.345886895286449
 31
0.0
  0
LINE
  5
55A
330
1F
100
AcDbEntity
  8
0
100
AcDbLine
 10
-6.781478363815313
 20
3.345886895286449
 30
0.0
 11
-6.825886895286435
 21
3.301478363815328
 31
0.0
  0
LINE
  5
55B
330
1F
100
AcDbEntity
  8
0
100
AcDbLine
 10
-6.825886895286435
 20
3.301478363815328
 30
0.0
 11
-6.865410196624967
 21
3.252671151375496
 31
0.0
  0
LINE
  5
55C
330
1F
100
AcDbEntity
  8
0
100
AcDbLine
 10
-6.865410196624967
 20
3.252671151375496
 30
0.0
 11
-6.899615242270661
 21
3.200000000000013
 31
0.0
  0
LINE
  5
55D
330
1F
100
AcDbEntity
  8
0
100
AcDbLine
 10
-6.899615242270661
 20
3.200000000000013
 30
0.0
 11
-6.928127274585559
 21
3.144041985845493
 31
0.0
  0
LINE
  5
55E
330
1F
100
AcDbEntity
  8
0
100
AcDbLine
 10
-6.928127274585559
 20
3.144041985845493
 30
0.0
 11
-6.95063390977709
 21
3.085410196624981
 31
0.0
  0
LINE
  5
55F
330
1F
100
AcDbEntity
  8
0
100
AcDbLine
 10
-6.95063390977709
 20
3.085410196624981
 30
0.0
 11
-6.966888560440282
 21
3.024747014490668
 31
0.0
  0
LINE
  5
560
330
1F
100
AcDbEntity
  8
0
100
AcDbLine
 10
-6.966888560440282
 20
3.024747014490668
 30
0.0
 11
-6.976713137220962
 21
2.962717077960605
 31
0.0
  0
LINE
  5
561
330
1F
100
AcDbEntity
  8
0
100
AcDbLine
 10
-6.976713137220962
 20
2.962717077960605
 30
0.0
 11
-6.979999999999998
 21
2.900000000000013
 31
0.0
  0
LINE
  5
562
330
1F
100
AcDbEntity
  8
0
100
AcDbLine
 10
-6.979999999999998
 20
2.900000000000013
 30
0.0
 11
-6.976713137220962
 21
2.837282922039421
 31
0.0
  0
LINE
  5
563
330
1F
100
AcDbEntity
  8
0
100
AcDbLine
 10
-6.976713137220962
 20
2.837282922039421
 30
0.0
 11
-6.966888560440282
 21
2.775252985509358
 31
0.0
  0
LINE
  5
564
330
1F
100
AcDbEntity
  8
0
100
AcDbLine
 10
-6.966888560440282
 20
2.775252985509358
 30
0.0
 11
-6.95063390977709
 21
2.714589803375045
 31
0.0
  0
LINE
  5
565
330
1F
100
AcDbEntity
  8
0
100
AcDbLine
 10
-6.95063390977709
 20
2.714589803375045
 30
0.0
 11
-6.928127274585559
 21
2.655958014154533
 31
0.0
  0
LINE
  5
566
330
1F
100
AcDbEntity
  8
0
100
AcDbLine
 10
-6.928127274585559
 20
2.655958014154533
 30
0.0
 11
-6.899615242270661
 21
2.600000000000013
 31
0.0
  0
LINE
  5
567
330
1F
100
AcDbEntity
  8
0
100
AcDbLine
 10
-6.899615242270661
 20
2.600000000000013
 30
0.0
 11
-6.865410196624967
 21
2.54732884862453
 31
0.0
  0
LINE
  5
568
330
1F
100
AcDbEntity
  8
0
100
AcDbLine
 10
-6.865410196624967
 20
2.54732884862453
 30
0.0
 11
-6.825886895286435
 21
2.498521636184698
 31
0.0
  0
LINE
  5
569
330
1F
100
AcDbEntity
  8
0
100
AcDbLine
 10
-6.825886895286435
 20
2.498521636184698
 30
0.0
 11
-6.781478363815313
 21
2.454113104713577
 31
0.0
  0
LINE
  5
56A
330
1F
100
AcDbEntity
  8
0
100
AcDbLine
 10
-6.781478363815313
 20
2.454113104713577
 30
0.0
 11
-6.732671151375483
 21
2.414589803375045
 31
0.0
  0
LINE
  5
56B
330
1F
100
AcDbEntity
  8
0
100
AcDbLine
 10
-6.732671151375483
 20
2.414589803375045
 30
0.0
 11
-6.679999999999999
 21
2.380384757729351
 31
0.0
  0
LINE
  5
56C
330
1F
100
AcDbEntity
  8
0
100
AcDbLine
 10
-6.679999999999999
 20
2.380384757729351
 30
0.0
 11
-6.624041985845479
 21
2.351872725414453
 31
0.0
  0
LINE
  5
56D
330
1F
100
AcDbEntity
  8
0
100
AcDbLine
 10
-6.624041985845479
 20
2.351872725414453
 30
0.0
 11
-6.565410196624967
 21
2.329366090222922
 31
0.0
  0
LINE
  5
56E
330
1F
100
AcDbEntity
  8
0
100
AcDbLine
 10
-6.565410196624967
 20
2.329366090222922
 30
0.0
 11
-6.504747014490654
 21
2.31311143955973
 31
0.0
  0
LINE
  5
56F
330
1F
100
AcDbEntity
  8
0
100
AcDbLine
 10
-6.504747014490654
 20
2.31311143955973
 30
0.0
 11
-6.442717077960591
 21
2.30328686277905
 31
0.0
  0
LINE
  5
570
330
1F
100
AcDbEntity
  8
0
100
AcDbLine
 10
-6.442717077960591
 20
2.30328686277905
 30
0.0
 11
-6.379999999999999
 21
2.300000000000014
 31
0.0
  0
LINE
  5
571
330
1F
100
AcDbEntity
  8
0
100
AcDbLine
 10
-6.379999999999999
 20
2.300000000000014
 30
0.0
 11
-6.317282922039407
 21
2.30328686277905
 31
0.0
  0
LINE
  5
572
330
1F
100
AcDbEntity
  8
0
100
AcDbLine
 10
-6.317282922039407
 20
2.30328686277905
 30
0.0
 11
-6.255252985509344
 21
2.313111439559731
 31
0.0
  0
LINE
  5
573
330
1F
100
AcDbEntity
  8
0
100
AcDbLine
 10
-6.255252985509344
 20
2.313111439559731
 30
0.0
 11
-6.194589803375031
 21
2.329366090222922
 31
0.0
  0
LINE
  5
574
330
1F
100
AcDbEntity
  8
0
100
AcDbLine
 10
-6.194589803375031
 20
2.329366090222922
 30
0.0
 11
-6.13595801415452
 21
2.351872725414453
 31
0.0
  0
LINE
  5
575
330
1F
100
AcDbEntity
  8
0
100
AcDbLine
 10
-6.13595801415452
 20
2.351872725414453
 30
0.0
 11
-6.08
 21
2.380384757729351
 31
0.0
  0
LINE
  5
576
330
1F
100
AcDbEntity
  8
0
100
AcDbLine
 10
-6.08
 20
2.380384757729351
 30
0.0
 11
-6.027328848624516
 21
2.414589803375045
 31
0.0
  0
LINE
  5
577
330
1F
100
AcDbEntity
  8
0
100
AcDbLine
 10
-6.027328848624516
 20
2.414589803375045
 30
0.0
 11
-5.978521636184685
 21
2.454113104713577
 31
0.0
  0
LINE
  5
578
330
1F
100
AcDbEntity
  8
0
100
AcDbLine
 10
-5.978521636184685
 20
2.454113104713577
 30
0.0
 11
-5.934113104713564
 21
2.498521636184698
 31
0.0
  0
LINE
  5
579
330
1F
100
AcDbEntity
  8
0
100
AcDbLine
 10
-5.934113104713564
 20
2.498521636184698
 30
0.0
 11
-5.894589803375032
 21
2.54732884862453
 31
0.0
  0
LINE
  5
57A
330
1F
100
AcDbEntity
  8
0
100
AcDbLine
 10
-5.894589803375032
 20
2.54732884862453
 30
0.0
 11
-5.860384757729338
 21
2.600000000000013
 31
0.0
  0
LINE
  5
57B
330
1F
100
AcDbEntity
  8
0
100
AcDbLine
 10
-5.860384757729338
 20
2.600000000000013
 30
0.0
 11
-5.83187272541444
 21
2.655958014154533
 31
0.0
  0
LINE
  5
57C
330
1F
100
AcDbEntity
  8
0
100
AcDbLine
 10
-5.83187272541444
 20
2.655958014154533
 30
0.0
 11
-5.809366090222909
 21
2.714589803375044
 31
0.0
  0
LINE
  5
57D
330
1F
100
AcDbEntity
  8
0
100
AcDbLine
 10
-5.809366090222909
 20
2.714589803375044
 30
0.0
 11
-5.793111439559717
 21
2.775252985509357
 31
0.0
  0
LINE
  5
57E
330
1F
100
AcDbEntity
  8
0
100
AcDbLine
 10
-5.793111439559717
 20
2.775252985509357
 30
0.0
 11
-5.783286862779037
 21
2.83728292203942
 31
0.0
  0
LINE
  5
57F
330
1F
100
AcDbEntity
  8
0
100
AcDbLine
 10
-5.783286862779037
 20
2.83728292203942
 30
0.0
 11
-5.780000000000001
 21
2.900000000000012
 31
0.0
  0
LINE
  5
580
330
1F
100
AcDbEntity
  8
0
100
AcDbLine
 10
-10.86
 20
2.900000000000013
 30
0.0
 11
-10.86328686277904
 21
2.962717077960605
 31
0.0
  0
LINE
  5
581
330
1F
100
AcDbEntity
  8
0
100
AcDbLine
 10
-10.86328686277904
 20
2.962717077960605
 30
0.0
 11
-10.87311143955972
 21
3.024747014490668
 31
0.0
  0
LINE
  5
582
330
1F
100
AcDbEntity
  8
0
100
AcDbLine
 10
-10.87311143955972
 20
3.024747014490668
 30
0.0
 11
-10.88936609022291
 21
3.085410196624981
 31
0.0
  0
LINE
  5
583
330
1F
100
AcDbEntity
  8
0
100
AcDbLine
 10
-10.88936609022291
 20
3.085410196624981
 30
0.0
 11
-10.91187272541444
 21
3.144041985845493
 31
0.0
  0
LINE
  5
584
330
1F
100
AcDbEntity
  8
0
100
AcDbLine
 10
-10.91187272541444
 20
3.144041985845493
 30
0.0
 11
-10.94038475772934
 21
3.200000000000013
 31
0.0
  0
LINE
  5
585
330
1F
100
AcDbEntity
  8
0
100
AcDbLine
 10
-10.94038475772934
 20
3.200000000000013
 30
0.0
 11
-10.97458980337503
 21
3.252671151375496
 31
0.0
  0
LINE
  5
586
330
1F
100
AcDbEntity
  8
0
100
AcDbLine
 10
-10.97458980337503
 20
3.252671151375496
 30
0.0
 11
-11.01411310471356
 21
3.301478363815328
 31
0.0
  0
LINE
  5
587
330
1F
100
AcDbEntity
  8
0
100
AcDbLine
 10
-11.01411310471356
 20
3.301478363815328
 30
0.0
 11
-11.05852163618469
 21
3.345886895286449
 31
0.0
  0
LINE
  5
588
330
1F
100
AcDbEntity
  8
0
100
AcDbLine
 10
-11.05852163618469
 20
3.345886895286449
 30
0.0
 11
-11.10732884862452
 21
3.385410196624981
 31
0.0
  0
LINE
  5
589
330
1F
100
AcDbEntity
  8
0
100
AcDbLine
 10
-11.10732884862452
 20
3.385410196624981
 30
0.0
 11
-11.16
 21
3.419615242270676
 31
0.0
  0
LINE
  5
58A
330
1F
100
AcDbEntity
  8
0
100
AcDbLine
 10
-11.16
 20
3.419615242270676
 30
0.0
 11
-11.21595801415452
 21
3.448127274585573
 31
0.0
  0
LINE
  5
58B
330
1F
100
AcDbEntity
  8
0
100
AcDbLine
 10
-11.21595801415452
 20
3.448127274585573
 30
0.0
 11
-11.27458980337503
 21
3.470633909777105
 31
0.0
  0
LINE
  5
58C
330
1F
100
AcDbEntity
  8
0
100
AcDbLine
 10
-11.27458980337503
 20
3.470633909777105
 30
0.0
 11
-11.33525298550935
 21
3.486888560440296
 31
0.0
  0
LINE
  5
58D
330
1F
100
AcDbEntity
  8
0
100
AcDbLine
 10
-11.33525298550935
 20
3.486888560440296
 30
0.0
 11
-11.39728292203941
 21
3.496713137220977
 31
0.0
  0
LINE
  5
58E
330
1F
100
AcDbEntity
  8
0
100
AcDbLine
 10
-11.39728292203941
 20
3.496713137220977
 30
0.0
 11
-11.46
 21
3.500000000000012
 31
0.0
  0
LINE
  5
58F
330
1F
100
AcDbEntity
  8
0
100
AcDbLine
 10
-11.46
 20
3.500000000000012
 30
0.0
 11
-11.52271707796059
 21
3.496713137220977
 31
0.0
  0
LINE
  5
590
330
1F
100
AcDbEntity
  8
0
100
AcDbLine
 10
-11.52271707796059
 20
3.496713137220977
 30
0.0
 11
-11.58474701449066
 21
3.486888560440296
 31
0.0
  0
LINE
  5
591
330
1F
100
AcDbEntity
  8
0
100
AcDbLine
 10
-11.58474701449066
 20
3.486888560440296
 30
0.0
 11
-11.64541019662497
 21
3.470633909777105
 31
0.0
  0
LINE
  5
592
330
1F
100
AcDbEntity
  8
0
100
AcDbLine
 10
-11.64541019662497
 20
3.470633909777105
 30
0.0
 11
-11.70404198584548
 21
3.448127274585573
 31
0.0
  0
LINE
  5
593
330
1F
100
AcDbEntity
  8
0
100
AcDbLine
 10
-11.70404198584548
 20
3.448127274585573
 30
0.0
 11
-11.76
 21
3.419615242270676
 31
0.0
  0
LINE
  5
594
330
1F
100
AcDbEntity
  8
0
100
AcDbLine
 10
-11.76
 20
3.419615242270676
 30
0.0
 11
-11.81267115137548
 21
3.385410196624981
 31
0.0
  0
LINE
  5
595
330
1F
100
AcDbEntity
  8
0
100
AcDbLine
 10
-11.81267115137548
 20
3.385410196624981
 30
0.0
 11
-11.86147836381532
 21
3.345886895286449
 31
0.0
  0
LINE
  5
596
330
1F
100
AcDbEntity
  8
0
100
AcDbLine
 10
-11.86147836381532
 20
3.345886895286449
 30
0.0
 11
-11.90588689528644
 21
3.301478363815328
 31
0.0
  0
LINE
  5
597
330
1F
100
AcDbEntity
  8
0
100
AcDbLine
 10
-11.90588689528644
 20
3.301478363815328
 30
0.0
 11
-11.94541019662497
 21
3.252671151375496
 31
0.0
  0
LINE
  5
598
330
1F
100
AcDbEntity
  8
0
100
AcDbLine
 10
-11.94541019662497
 20
3.252671151375496
 30
0.0
 11
-11.97961524227066
 21
3.200000000000013
 31
0.0
  0
LINE
  5
599
330
1F
100
AcDbEntity
  8
0
100
AcDbLine
 10
-11.97961524227066
 20
3.200000000000013
 30
0.0
 11
-12.00812727458556
 21
3.144041985845493
 31
0.0
  0
LINE
  5
59A
330
1F
100
AcDbEntity
  8
0
100
AcDbLine
 10
-12.00812727458556
 20
3.144041985845493
 30
0.0
 11
-12.03063390977709
 21
3.085410196624981
 31
0.0
  0
LINE
  5
59B
330
1F
100
AcDbEntity
  8
0
100
AcDbLine
 10
-12.03063390977709
 20
3.085410196624981
 30
0.0
 11
-12.04688856044028
 21
3.024747014490668
 31
0.0
  0
LINE
  5
59C
330
1F
100
AcDbEntity
  8
0
100
AcDbLine
 10
-12.04688856044028
 20
3.024747014490668
 30
0.0
 11
-12.05671313722096
 21
2.962717077960605
 31
0.0
  0
LINE
  5
59D
330
1F
100
AcDbEntity
  8
0
100
AcDbLine
 10
-12.05671313722096
 20
2.962717077960605
 30
0.0
 11
-12.06
 21
2.900000000000013
 31
0.0
  0
LINE
  5
59E
330
1F
100
AcDbEntity
  8
0
100
AcDbLine
 10
-12.06
 20
2.900000000000013
 30
0.0
 11
-12.05671313722096
 21
2.837282922039421
 31
0.0
  0
LINE
  5
59F
330
1F
100
AcDbEntity
  8
0
100
AcDbLine
 10
-12.05671313722096
 20
2.837282922039421
 30
0.0
 11
-12.04688856044028
 21
2.775252985509358
 31
0.0
  0
LINE
  5
5A0
330
1F
100
AcDbEntity
  8
0
100
AcDbLine
 10
-12.04688856044028
 20
2.775252985509358
 30
0.0
 11
-12.03063390977709
 21
2.714589803375045
 31
0.0
  0
LINE
  5
5A1
330
1F
100
AcDbEntity
  8
0
100
AcDbLine
 10
-12.03063390977709
 20
2.714589803375045
 30
0.0
 11
-12.00812727458556
 21
2.655958014154533
 31
0.0
  0
LINE
  5
5A2
330
1F
100
AcDbEntity
  8
0
100
AcDbLine
 10
-12.00812727458556
 20
2.655958014154533
 30
0.0
 11
-11.97961524227066
 21
2.600000000000013
 31
0.0
  0
LINE
  5
5A3
330
1F
100
AcDbEntity
  8
0
100
AcDbLine
 10
-11.97961524227066
 20
2.600000000000013
 30
0.0
 11
-11.94541019662497
 21
2.54732884862453
 31
0.0
  0
LINE
  5
5A4
330
1F
100
AcDbEntity
  8
0
100
AcDbLine
 10
-11.94541019662497
 20
2.54732884862453
 30
0.0
 11
-11.90588689528644
 21
2.498521636184698
 31
0.0
  0
LINE
  5
5A5
330
1F
100
AcDbEntity
  8
0
100
AcDbLine
 10
-11.90588689528644
 20
2.498521636184698
 30
0.0
 11
-11.86147836381532
 21
2.454113104713577
 31
0.0
  0
LINE
  5
5A6
330
1F
100
AcDbEntity
  8
0
100
AcDbLine
 10
-11.86147836381532
 20
2.454113104713577
 30
0.0
 11
-11.81267115137548
 21
2.414589803375045
 31
0.0
  0
LINE
  5
5A7
330
1F
100
AcDbEntity
  8
0
100
AcDbLine
 10
-11.81267115137548
 20
2.414589803375045
 30
0.0
 11
-11.76
 21
2.380384757729351
 31
0.0
  0
LINE
  5
5A8
330
1F
100
AcDbEntity
  8
0
100
AcDbLine
 10
-11.76
 20
2.380384757729351
 30
0.0
 11
-11.70404198584548
 21
2.351872725414453
 31
0.0
  0
LINE
  5
5A9
330
1F
100
AcDbEntity
  8
0
100
AcDbLine
 10
-11.70404198584548
 20
2.351872725414453
 30
0.0
 11
-11.64541019662497
 21
2.329366090222922
 31
0.0
  0
LINE
  5
5AA
330
1F
100
AcDbEntity
  8
0
100
AcDbLine
 10
-11.64541019662497
 20
2.329366090222922
 30
0.0
 11
-11.58474701449066
 21
2.31311143955973
 31
0.0
  0
LINE
  5
5AB
330
1F
100
AcDbEntity
  8
0
100
AcDbLine
 10
-11.58474701449066
 20
2.31311143955973
 30
0.0
 11
-11.52271707796059
 21
2.30328686277905
 31
0.0
  0
LINE
  5
5AC
330
1F
100
AcDbEntity
  8
0
100
AcDbLine
 10
-11.52271707796059
 20
2.30328686277905
 30
0.0
 11
-11.46
 21
2.300000000000014
 31
0.0
  0
LINE
  5
5AD
330
1F
100
AcDbEntity
  8
0
100
AcDbLine
 10
-11.46
 20
2.300000000000014
 30
0.0
 11
-11.39728292203941
 21
2.30328686277905
 31
0.0
  0
LINE
  5
5AE
330
1F
100
AcDbEntity
  8
0
100
AcDbLine
 10
-11.39728292203941
 20
2.30328686277905
 30
0.0
 11
-11.33525298550935
 21
2.313111439559731
 31
0.0
  0
LINE
  5
5AF
330
1F
100
AcDbEntity
  8
0
100
AcDbLine
 10
-11.33525298550935
 20
2.313111439559731
 30
0.0
 11
-11.27458980337503
 21
2.329366090222922
 31
0.0
  0
LINE
  5
5B0
330
1F
100
AcDbEntity
  8
0
100
AcDbLine
 10
-11.27458980337503
 20
2.329366090222922
 30
0.0
 11
-11.21595801415452
 21
2.351872725414453
 31
0.0
  0
LINE
  5
5B1
330
1F
100
AcDbEntity
  8
0
100
AcDbLine
 10
-11.21595801415452
 20
2.351872725414453
 30
0.0
 11
-11.16
 21
2.380384757729351
 31
0.0
  0
LINE
  5
5B2
330
1F
100
AcDbEntity
  8
0
100
AcDbLine
 10
-11.16
 20
2.380384757729351
 30
0.0
 11
-11.10732884862452
 21
2.414589803375045
 31
0.0
  0
LINE
  5
5B3
330
1F
100
AcDbEntity
  8
0
100
AcDbLine
 10
-11.10732884862452
 20
2.414589803375045
 30
0.0
 11
-11.05852163618469
 21
2.454113104713577
 31
0.0
  0
LINE
  5
5B4
330
1F
100
AcDbEntity
  8
0
100
AcDbLine
 10
-11.05852163618469
 20
2.454113104713577
 30
0.0
 11
-11.01411310471357
 21
2.498521636184698
 31
0.0
  0
LINE
  5
5B5
330
1F
100
AcDbEntity
  8
0
100
AcDbLine
 10
-11.01411310471357
 20
2.498521636184698
 30
0.0
 11
-10.97458980337503
 21
2.54732884862453
 31
0.0
  0
LINE
  5
5B6
330
1F
100
AcDbEntity
  8
0
100
AcDbLine
 10
-10.97458980337503
 20
2.54732884862453
 30
0.0
 11
-10.94038475772934
 21
2.600000000000013
 31
0.0
  0
LINE
  5
5B7
330
1F
100
AcDbEntity
  8
0
100
AcDbLine
 10
-10.94038475772934
 20
2.600000000000013
 30
0.0
 11
-10.91187272541444
 21
2.655958014154533
 31
0.0
  0
LINE
  5
5B8
330
1F
100
AcDbEntity
  8
0
100
AcDbLine
 10
-10.91187272541444
 20
2.655958014154533
 30
0.0
 11
-10.88936609022291
 21
2.714589803375044
 31
0.0
  0
LINE
  5
5B9
330
1F
100
AcDbEntity
  8
0
100
AcDbLine
 10
-10.88936609022291
 20
2.714589803375044
 30
0.0
 11
-10.87311143955972
 21
2.775252985509357
 31
0.0
  0
LINE
  5
5BA
330
1F
100
AcDbEntity
  8
0
100
AcDbLine
 10
-10.87311143955972
 20
2.775252985509357
 30
0.0
 11
-10.86328686277904
 21
2.83728292203942
 31
0.0
  0
LINE
  5
5BB
330
1F
100
AcDbEntity
  8
0
100
AcDbLine
 10
-10.86328686277904
 20
2.83728292203942
 30
0.0
 11
-10.86
 21
2.900000000000012
 31
0.0
  0
VIEWPORT
  5
5BD
330
1B
100
AcDbEntity
 67
     1
  8
0
100
AcDbViewport
 10
6.32
 20
3.625000000000205
 30
0.0
 40
49.76
 41
7.25000000000041
 68
     1
 69
     1
1001
ACAD
1000
MVIEW
1002
{
1070
    16
1010
0.0
1020
0.0
1030
0.0
1010
0.0
1020
0.0
1030
1.0
1040
0.0
1040
7.25000000000041
1040
6.32
1040
3.625000000000205
1040
50.0
1040
0.0
1040
0.0
1070
     0
1070
  1000
1070
     0
1070
     1
1070
     0
1070
     0
1070
     0
1070
     0
1040
0.0
1040
0.0
1040
0.0
1040
5.0
1040
5.0
1040
5.0
1040
5.0
1070
     0
1002
{
1002
}
1002
}
  0
ENDSEC
  0
SECTION
  2
OBJECTS
  0
DICTIONARY
  5
C
330
0
100
AcDbDictionary
  3
ACAD_GROUP
350
D
  3
ACAD_LAYOUT
350
1A
  3
ACAD_MATERIAL
350
43
  3
ACAD_MLEADERSTYLE
350
6B
  3
ACAD_MLINESTYLE
350
17
  3
ACAD_PLOTSETTINGS
350
19
  3
ACAD_SCALELIST
350
47
  3
ACAD_VISUALSTYLE
350
2A
  3
ACDBHEADERROUNDTRIPXREC
350
5BE
  3
ACDBVARIABLEDICTIONARY
350
5DF
  0
DICTIONARY
  5
5E6
330
8
100
AcDbDictionary
280
     1
  3
ACAD_XREC_ROUNDTRIP
360
5E7
  0
DICTIONARY
  5
1CF
330
1F
100
AcDbDictionary
280
     1
  3
ACAD_GEOGRAPHICDATA
360
1D0
  0
DICTIONARY
  5
1DC
330
1DB
100
AcDbDictionary
280
     1
  3
TC_EXTENDED_DATA
360
1DD
  0
DICTIONARY
  5
1DF
330
1DE
100
AcDbDictionary
280
     1
  3
TC_EXTENDED_DATA
360
1E0
  0
DICTIONARY
  5
1E2
330
1E1
100
AcDbDictionary
280
     1
  3
TC_EXTENDED_DATA
360
1E3
  0
DICTIONARY
  5
1E5
330
1E4
100
AcDbDictionary
280
     1
  3
TC_EXTENDED_DATA
360
1E6
  0
DICTIONARY
  5
1E8
330
1E7
100
AcDbDictionary
280
     1
  3
TC_EXTENDED_DATA
360
1E9
  0
DICTIONARY
  5
1EB
330
1EA
100
AcDbDictionary
280
     1
  3
TC_EXTENDED_DATA
360
1EC
  0
DICTIONARY
  5
1EE
330
1ED
100
AcDbDictionary
280
     1
  3
TC_EXTENDED_DATA
360
1EF
  0
DICTIONARY
  5
1F1
330
1F0
100
AcDbDictionary
280
     1
  3
TC_EXTENDED_DATA
360
1F2
  0
DICTIONARY
  5
1F4
330
1F3
100
AcDbDictionary
280
     1
  3
TC_EXTENDED_DATA
360
1F5
  0
DICTIONARY
  5
1F7
330
1F6
100
AcDbDictionary
280
     1
  3
TC_EXTENDED_DATA
360
1F8
  0
DICTIONARY
  5
1FA
330
1F9
100
AcDbDictionary
280
     1
  3
TC_EXTENDED_DATA
360
1FB
  0
DICTIONARY
  5
1FD
330
1FC
100
AcDbDictionary
280
     1
  3
TC_EXTENDED_DATA
360
1FE
  0
DICTIONARY
  5
200
330
1FF
100
AcDbDictionary
280
     1
  3
TC_EXTENDED_DATA
360
201
  0
DICTIONARY
  5
203
330
202
100
AcDbDictionary
280
     1
  3
TC_EXTENDED_DATA
360
204
  0
DICTIONARY
  5
206
330
205
100
AcDbDictionary
280
     1
  3
TC_EXTENDED_DATA
360
207
  0
DICTIONARY
  5
209
330
208
100
AcDbDictionary
280
     1
  3
TC_EXTENDED_DATA
360
20A
  0
DICTIONARY
  5
20C
330
20B
100
AcDbDictionary
280
     1
  3
TC_EXTENDED_DATA
360
20D
  0
DICTIONARY
  5
20F
330
20E
100
AcDbDictionary
280
     1
  3
TC_EXTENDED_DATA
360
210
  0
DICTIONARY
  5
212
330
211
100
AcDbDictionary
280
     1
  3
TC_EXTENDED_DATA
360
213
  0
DICTIONARY
  5
215
330
214
100
AcDbDictionary
280
     1
  3
TC_EXTENDED_DATA
360
216
  0
DICTIONARY
  5
218
330
217
100
AcDbDictionary
280
     1
  3
TC_EXTENDED_DATA
360
219
  0
DICTIONARY
  5
21B
330
21A
100
AcDbDictionary
280
     1
  3
TC_EXTENDED_DATA
360
21C
  0
DICTIONARY
  5
21E
330
21D
100
AcDbDictionary
280
     1
  3
TC_EXTENDED_DATA
360
21F
  0
DICTIONARY
  5
221
330
220
100
AcDbDictionary
280
     1
  3
TC_EXTENDED_DATA
360
222
  0
DICTIONARY
  5
224
330
223
100
AcDbDictionary
280
     1
  3
TC_EXTENDED_DATA
360
225
  0
DICTIONARY
  5
227
330
226
100
AcDbDictionary
280
     1
  3
TC_EXTENDED_DATA
360
228
  0
DICTIONARY
  5
22A
330
229
100
AcDbDictionary
280
     1
  3
TC_EXTENDED_DATA
360
22B
  0
DICTIONARY
  5
22D
330
22C
100
AcDbDictionary
280
     1
  3
TC_EXTENDED_DATA
360
22E
  0
DICTIONARY
  5
230
330
22F
100
AcDbDictionary
280
     1
  3
TC_EXTENDED_DATA
360
231
  0
DICTIONARY
  5
233
330
232
100
AcDbDictionary
280
     1
  3
TC_EXTENDED_DATA
360
234
  0
DICTIONARY
  5
236
330
235
100
AcDbDictionary
280
     1
  3
TC_EXTENDED_DATA
360
237
  0
DICTIONARY
  5
239
330
238
100
AcDbDictionary
280
     1
  3
TC_EXTENDED_DATA
360
23A
  0
DICTIONARY
  5
23C
330
23B
100
AcDbDictionary
280
     1
  3
TC_EXTENDED_DATA
360
23D
  0
DICTIONARY
  5
23F
330
23E
100
AcDbDictionary
280
     1
  3
TC_EXTENDED_DATA
360
240
  0
DICTIONARY
  5
242
330
241
100
AcDbDictionary
280
     1
  3
TC_EXTENDED_DATA
360
243
  0
DICTIONARY
  5
245
330
244
100
AcDbDictionary
280
     1
  3
TC_EXTENDED_DATA
360
246
  0
DICTIONARY
  5
248
330
247
100
AcDbDictionary
280
     1
  3
TC_EXTENDED_DATA
360
249
  0
DICTIONARY
  5
24B
330
24A
100
AcDbDictionary
280
     1
  3
TC_EXTENDED_DATA
360
24C
  0
DICTIONARY
  5
24E
330
24D
100
AcDbDictionary
280
     1
  3
TC_EXTENDED_DATA
360
24F
  0
DICTIONARY
  5
251
330
250
100
AcDbDictionary
280
     1
  3
TC_EXTENDED_DATA
360
252
  0
DICTIONARY
  5
254
330
253
100
AcDbDictionary
280
     1
  3
TC_EXTENDED_DATA
360
255
  0
DICTIONARY
  5
257
330
256
100
AcDbDictionary
280
     1
  3
TC_EXTENDED_DATA
360
258
  0
DICTIONARY
  5
25A
330
259
100
AcDbDictionary
280
     1
  3
TC_EXTENDED_DATA
360
25B
  0
DICTIONARY
  5
25D
330
25C
100
AcDbDictionary
280
     1
  3
TC_EXTENDED_DATA
360
25E
  0
DICTIONARY
  5
260
330
25F
100
AcDbDictionary
280
     1
  3
TC_EXTENDED_DATA
360
261
  0
DICTIONARY
  5
263
330
262
100
AcDbDictionary
280
     1
  3
TC_EXTENDED_DATA
360
264
  0
DICTIONARY
  5
266
330
265
100
AcDbDictionary
280
     1
  3
TC_EXTENDED_DATA
360
267
  0
DICTIONARY
  5
269
330
268
100
AcDbDictionary
280
     1
  3
TC_EXTENDED_DATA
360
26A
  0
DICTIONARY
  5
26C
330
26B
100
AcDbDictionary
280
     1
  3
TC_EXTENDED_DATA
360
26D
  0
DICTIONARY
  5
26F
330
26E
100
AcDbDictionary
280
     1
  3
TC_EXTENDED_DATA
360
270
  0
DICTIONARY
  5
272
330
271
100
AcDbDictionary
280
     1
  3
TC_EXTENDED_DATA
360
273
  0
DICTIONARY
  5
275
330
274
100
AcDbDictionary
280
     1
  3
TC_EXTENDED_DATA
360
276
  0
DICTIONARY
  5
278
330
277
100
AcDbDictionary
280
     1
  3
TC_EXTENDED_DATA
360
279
  0
DICTIONARY
  5
27B
330
27A
100
AcDbDictionary
280
     1
  3
TC_EXTENDED_DATA
360
27C
  0
DICTIONARY
  5
27E
330
27D
100
AcDbDictionary
280
     1
  3
TC_EXTENDED_DATA
360
27F
  0
DICTIONARY
  5
281
330
280
100
AcDbDictionary
280
     1
  3
TC_EXTENDED_DATA
360
282
  0
DICTIONARY
  5
284
330
283
100
AcDbDictionary
280
     1
  3
TC_EXTENDED_DATA
360
285
  0
DICTIONARY
  5
287
330
286
100
AcDbDictionary
280
     1
  3
TC_EXTENDED_DATA
360
288
  0
DICTIONARY
  5
28A
330
289
100
AcDbDictionary
280
     1
  3
TC_EXTENDED_DATA
360
28B
  0
DICTIONARY
  5
28D
330
28C
100
AcDbDictionary
280
     1
  3
TC_EXTENDED_DATA
360
28E
  0
DICTIONARY
  5
290
330
28F
100
AcDbDictionary
280
     1
  3
TC_EXTENDED_DATA
360
291
  0
DICTIONARY
  5
293
330
292
100
AcDbDictionary
280
     1
  3
TC_EXTENDED_DATA
360
294
  0
DICTIONARY
  5
296
330
295
100
AcDbDictionary
280
     1
  3
TC_EXTENDED_DATA
360
297
  0
DICTIONARY
  5
299
330
298
100
AcDbDictionary
280
     1
  3
TC_EXTENDED_DATA
360
29A
  0
DICTIONARY
  5
29C
330
29B
100
AcDbDictionary
280
     1
  3
TC_EXTENDED_DATA
360
29D
  0
DICTIONARY
  5
29F
330
29E
100
AcDbDictionary
280
     1
  3
TC_EXTENDED_DATA
360
2A0
  0
DICTIONARY
  5
2A2
330
2A1
100
AcDbDictionary
280
     1
  3
TC_EXTENDED_DATA
360
2A3
  0
DICTIONARY
  5
2A5
330
2A4
100
AcDbDictionary
280
     1
  3
TC_EXTENDED_DATA
360
2A6
  0
DICTIONARY
  5
2A8
330
2A7
100
AcDbDictionary
280
     1
  3
TC_EXTENDED_DATA
360
2A9
  0
DICTIONARY
  5
2AB
330
2AA
100
AcDbDictionary
280
     1
  3
TC_EXTENDED_DATA
360
2AC
  0
DICTIONARY
  5
2AE
330
2AD
100
AcDbDictionary
280
     1
  3
TC_EXTENDED_DATA
360
2AF
  0
DICTIONARY
  5
2B1
330
2B0
100
AcDbDictionary
280
     1
  3
TC_EXTENDED_DATA
360
2B2
  0
DICTIONARY
  5
2B4
330
2B3
100
AcDbDictionary
280
     1
  3
TC_EXTENDED_DATA
360
2B5
  0
DICTIONARY
  5
2B7
330
2B6
100
AcDbDictionary
280
     1
  3
TC_EXTENDED_DATA
360
2B8
  0
DICTIONARY
  5
2BA
330
2B9
100
AcDbDictionary
280
     1
  3
TC_EXTENDED_DATA
360
2BB
  0
DICTIONARY
  5
2BD
330
2BC
100
AcDbDictionary
280
     1
  3
TC_EXTENDED_DATA
360
2BE
  0
DICTIONARY
  5
2C0
330
2BF
100
AcDbDictionary
280
     1
  3
TC_EXTENDED_DATA
360
2C1
  0
DICTIONARY
  5
2C3
330
2C2
100
AcDbDictionary
280
     1
  3
TC_EXTENDED_DATA
360
2C4
  0
DICTIONARY
  5
2C6
330
2C5
100
AcDbDictionary
280
     1
  3
TC_EXTENDED_DATA
360
2C7
  0
DICTIONARY
  5
2C9
330
2C8
100
AcDbDictionary
280
     1
  3
TC_EXTENDED_DATA
360
2CA
  0
DICTIONARY
  5
2CC
330
2CB
100
AcDbDictionary
280
     1
  3
TC_EXTENDED_DATA
360
2CD
  0
DICTIONARY
  5
2CF
330
2CE
100
AcDbDictionary
280
     1
  3
TC_EXTENDED_DATA
360
2D0
  0
DICTIONARY
  5
2D2
330
2D1
100
AcDbDictionary
280
     1
  3
TC_EXTENDED_DATA
360
2D3
  0
DICTIONARY
  5
2D5
330
2D4
100
AcDbDictionary
280
     1
  3
TC_EXTENDED_DATA
360
2D6
  0
DICTIONARY
  5
2D8
330
2D7
100
AcDbDictionary
280
     1
  3
TC_EXTENDED_DATA
360
2D9
  0
DICTIONARY
  5
2DB
330
2DA
100
AcDbDictionary
280
     1
  3
TC_EXTENDED_DATA
360
2DC
  0
DICTIONARY
  5
2DE
330
2DD
100
AcDbDictionary
280
     1
  3
TC_EXTENDED_DATA
360
2DF
  0
DICTIONARY
  5
2E1
330
2E0
100
AcDbDictionary
280
     1
  3
TC_EXTENDED_DATA
360
2E2
  0
DICTIONARY
  5
2E4
330
2E3
100
AcDbDictionary
280
     1
  3
TC_EXTENDED_DATA
360
2E5
  0
DICTIONARY
  5
2E7
330
2E6
100
AcDbDictionary
280
     1
  3
TC_EXTENDED_DATA
360
2E8
  0
DICTIONARY
  5
2EA
330
2E9
100
AcDbDictionary
280
     1
  3
TC_EXTENDED_DATA
360
2EB
  0
DICTIONARY
  5
2ED
330
2EC
100
AcDbDictionary
280
     1
  3
TC_EXTENDED_DATA
360
2EE
  0
DICTIONARY
  5
2F0
330
2EF
100
AcDbDictionary
280
     1
  3
TC_EXTENDED_DATA
360
2F1
  0
DICTIONARY
  5
2F3
330
2F2
100
AcDbDictionary
280
     1
  3
TC_EXTENDED_DATA
360
2F4
  0
DICTIONARY
  5
2F6
330
2F5
100
AcDbDictionary
280
     1
  3
TC_EXTENDED_DATA
360
2F7
  0
DICTIONARY
  5
2F9
330
2F8
100
AcDbDictionary
280
     1
  3
TC_EXTENDED_DATA
360
2FA
  0
DICTIONARY
  5
2FC
330
2FB
100
AcDbDictionary
280
     1
  3
TC_EXTENDED_DATA
360
2FD
  0
DICTIONARY
  5
2FF
330
2FE
100
AcDbDictionary
280
     1
  3
TC_EXTENDED_DATA
360
300
  0
DICTIONARY
  5
302
330
301
100
AcDbDictionary
280
     1
  3
TC_EXTENDED_DATA
360
303
  0
DICTIONARY
  5
305
330
304
100
AcDbDictionary
280
     1
  3
TC_EXTENDED_DATA
360
306
  0
DICTIONARY
  5
308
330
307
100
AcDbDictionary
280
     1
  3
TC_EXTENDED_DATA
360
309
  0
DICTIONARY
  5
30B
330
30A
100
AcDbDictionary
280
     1
  3
TC_EXTENDED_DATA
360
30C
  0
DICTIONARY
  5
30E
330
30D
100
AcDbDictionary
280
     1
  3
TC_EXTENDED_DATA
360
30F
  0
DICTIONARY
  5
311
330
310
100
AcDbDictionary
280
     1
  3
TC_EXTENDED_DATA
360
312
  0
DICTIONARY
  5
314
330
313
100
AcDbDictionary
280
     1
  3
TC_EXTENDED_DATA
360
315
  0
DICTIONARY
  5
317
330
316
100
AcDbDictionary
280
     1
  3
TC_EXTENDED_DATA
360
318
  0
DICTIONARY
  5
31A
330
319
100
AcDbDictionary
280
     1
  3
TC_EXTENDED_DATA
360
31B
  0
DICTIONARY
  5
31D
330
31C
100
AcDbDictionary
280
     1
  3
TC_EXTENDED_DATA
360
31E
  0
DICTIONARY
  5
320
330
31F
100
AcDbDictionary
280
     1
  3
TC_EXTENDED_DATA
360
321
  0
DICTIONARY
  5
323
330
322
100
AcDbDictionary
280
     1
  3
TC_EXTENDED_DATA
360
324
  0
DICTIONARY
  5
326
330
325
100
AcDbDictionary
280
     1
  3
TC_EXTENDED_DATA
360
327
  0
DICTIONARY
  5
329
330
328
100
AcDbDictionary
280
     1
  3
TC_EXTENDED_DATA
360
32A
  0
DICTIONARY
  5
32C
330
32B
100
AcDbDictionary
280
     1
  3
TC_EXTENDED_DATA
360
32D
  0
DICTIONARY
  5
32F
330
32E
100
AcDbDictionary
280
     1
  3
TC_EXTENDED_DATA
360
330
  0
DICTIONARY
  5
332
330
331
100
AcDbDictionary
280
     1
  3
TC_EXTENDED_DATA
360
333
  0
DICTIONARY
  5
335
330
334
100
AcDbDictionary
280
     1
  3
TC_EXTENDED_DATA
360
336
  0
DICTIONARY
  5
338
330
337
100
AcDbDictionary
280
     1
  3
TC_EXTENDED_DATA
360
339
  0
DICTIONARY
  5
33B
330
33A
100
AcDbDictionary
280
     1
  3
TC_EXTENDED_DATA
360
33C
  0
DICTIONARY
  5
33E
330
33D
100
AcDbDictionary
280
     1
  3
TC_EXTENDED_DATA
360
33F
  0
DICTIONARY
  5
341
330
340
100
AcDbDictionary
280
     1
  3
TC_EXTENDED_DATA
360
342
  0
DICTIONARY
  5
344
330
343
100
AcDbDictionary
280
     1
  3
TC_EXTENDED_DATA
360
345
  0
DICTIONARY
  5
347
330
346
100
AcDbDictionary
280
     1
  3
TC_EXTENDED_DATA
360
348
  0
DICTIONARY
  5
34A
330
349
100
AcDbDictionary
280
     1
  3
TC_EXTENDED_DATA
360
34B
  0
DICTIONARY
  5
34D
330
34C
100
AcDbDictionary
280
     1
  3
TC_EXTENDED_DATA
360
34E
  0
DICTIONARY
  5
350
330
34F
100
AcDbDictionary
280
     1
  3
TC_EXTENDED_DATA
360
351
  0
DICTIONARY
  5
353
330
352
100
AcDbDictionary
280
     1
  3
TC_EXTENDED_DATA
360
354
  0
DICTIONARY
  5
356
330
355
100
AcDbDictionary
280
     1
  3
TC_EXTENDED_DATA
360
357
  0
DICTIONARY
  5
359
330
358
100
AcDbDictionary
280
     1
  3
TC_EXTENDED_DATA
360
35A
  0
DICTIONARY
  5
35C
330
35B
100
AcDbDictionary
280
     1
  3
TC_EXTENDED_DATA
360
35D
  0
DICTIONARY
  5
35F
330
35E
100
AcDbDictionary
280
     1
  3
TC_EXTENDED_DATA
360
360
  0
DICTIONARY
  5
362
330
361
100
AcDbDictionary
280
     1
  3
TC_EXTENDED_DATA
360
363
  0
DICTIONARY
  5
D
102
{ACAD_REACTORS
330
C
102
}
330
C
100
AcDbDictionary
  0
DICTIONARY
  5
1A
102
{ACAD_REACTORS
330
C
102
}
330
C
100
AcDbDictionary
  0
DICTIONARY
  5
43
102
{ACAD_REACTORS
330
C
102
}
330
C
100
AcDbDictionary
  3
BYBLOCK
350
45
  3
BYLAYER
350
44
  3
GLOBAL
350
46
  0
DICTIONARY
  5
6B
102
{ACAD_REACTORS
330
C
102
}
330
C
100
AcDbDictionary
  3
STANDARD
350
6C
  0
DICTIONARY
  5
17
102
{ACAD_REACTORS
330
C
102
}
330
C
100
AcDbDictionary
  3
STANDARD
350
18
  0
DICTIONARY
  5
19
102
{ACAD_REACTORS
330
C
102
}
330
C
100
AcDbDictionary
  0
DICTIONARY
  5
47
102
{ACAD_REACTORS
330
C
102
}
330
C
100
AcDbDictionary
  3
A0
350
48
  3
A1
350
49
  3
A2
350
4A
  3
A3
350
4B
  3
A4
350
4C
  3
A5
350
4D
  3
A6
350
4E
  3
A7
350
4F
  3
A8
350
50
  3
A9
350
51
  3
B0
350
52
  3
B1
350
53
  3
B2
350
54
  3
B3
350
55
  3
B4
350
56
  3
B5
350
57
  3
B6
350
58
  3
B7
350
59
  3
B8
350
5A
  3
B9
350
5B
  3
C0
350
5C
  3
C1
350
5D
  3
C2
350
5E
  3
C3
350
5F
  3
C4
350
60
  3
C5
350
61
  3
C6
350
62
  3
C7
350
63
  3
C8
350
64
  3
C9
350
65
  3
D0
350
66
  3
D1
350
67
  3
D2
350
68
  0
DICTIONARY
  5
2A
102
{ACAD_REACTORS
330
C
102
}
330
C
100
AcDbDictionary
  3
2DWIREFRAME
350
2F
  3
BASIC
350
32
  3
BRIGHTEN
350
36
  3
COLORCHANGE
350
3A
  3
CONCEPTUAL
350
34
  3
DIM
350
35
  3
EDGECOLOROFF
350
3D
  3
FACEPATTERN
350
39
  3
FLAT
350
2B
  3
FLATWITHEDGES
350
2C
  3
GOURAUD
350
2D
  3
GOURAUDWITHEDGES
350
2E
  3
HIDDEN
350
31
  3
JITTEROFF
350
3B
  3
LINEPATTERN
350
38
  3
OVERHANGOFF
350
3C
  3
REALISTIC
350
33
  3
SHADED
350
42
  3
SHADED_WITH_EDGES
350
41
  3
SHADES_OF_GRAY
350
3E
  3
SKETCHY
350
3F
  3
THICKEN
350
37
  3
WIREFRAME
350
30
  3
X-RAY
350
40
  0
DICTIONARY
  5
5BE
102
{ACAD_REACTORS
330
C
102
}
330
C
100
AcDbDictionary
  3
CEPSNID
350
5C8
  3
CEPSNTYPE
350
5C7
  3
DIMSTYLEDATA
350
5DE
  3
FINGERPRINTGUID
350
5C9
  3
HYPERLINKBASE
350
5C1
  3
INSUNITS
350
5C6
  3
LAYOUTDICT
350
5C3
  3
LWETCUNION
350
5C5
  3
PLOTSETDICT
350
5C4
  3
PSVPSCALE
350
5CB
  3
PUCSBASE
350
5CE
  3
PUCSORGBACK
350
5D4
  3
PUCSORGBOTTOM
350
5D0
  3
PUCSORGFRONT
350
5D3
  3
PUCSORGLEFT
350
5D1
  3
PUCSORGRIGHT
350
5D2
  3
PUCSORGTOP
350
5CF
  3
PUCSORTHOREF
350
5CC
  3
PUCSORTHOVIEW
350
5CD
  3
STYLESHEET
350
5C2
  3
TSTACKALIGN
350
5BF
  3
TSTACKSIZE
350
5C0
  3
UCSBASE
350
5D7
  3
UCSORGBACK
350
5DD
  3
UCSORGBOTTOM
350
5D9
  3
UCSORGFRONT
350
5DC
  3
UCSORGLEFT
350
5DA
  3
UCSORGRIGHT
350
5DB
  3
UCSORGTOP
350
5D8
  3
UCSORTHOREF
350
5D5
  3
UCSORTHOVIEW
350
5D6
  3
VERSIONGUID
350
5CA
  0
DICTIONARY
  5
5DF
102
{ACAD_REACTORS
330
C
102
}
330
C
100
AcDbDictionary
  3
CANNOSCALE
350
5E8
  3
CMLEADERSTYLE
350
5E1
  3
CTABLESTYLE
350
5E0
  3
DIMASSOC
350
5E4
  3
HIDETEXT
350
5E5
  3
MSLTSCALE
350
5E9
  0
XRECORD
  5
5E7
102
{ACAD_REACTORS
330
5E6
102
}
330
5E6
100
AcDbXrecord
102
VTR_0.000_0.000_1.000_1.000_GRIDDISPLAY
 70
     3
102
VTR_0.000_0.000_1.000_1.000_GRIDMAJOR
 70
     5
102
VTR_0.000_0.000_1.000_1.000_DEFAULTLIGHTING
280
     1
102
VTR_0.000_0.000_1.000_1.000_DEFAULTLIGHTINGTYPE
 70
     1
102
VTR_0.000_0.000_1.000_1.000_BRIGHTNESS
141
0.0
102
VTR_0.000_0.000_1.000_1.000_CONTRAST
142
0.0
  0
GEODATA
  5
1D0
102
{ACAD_REACTORS
330
1CF
102
}
330
1CF
100
AcDbGeoData
 90
        1
 70
     1
330
1F
 40
-122.394
 41
37.795
 42
0.0
 91
        6
 10
0.0
 20
0.0
 30
0.0
 11
0.0
 21
0.0
 31
0.0
210
0.0
220
0.0
230
1.0
 52
0.0
 43
1.0
 44
1.0
 45
1.0
301

302
<georss:point>37.7950 -122.3940</georss:point>
 46
1.0
303

304

305

306

307

 93
        0
 96
        0
  3
CIVIL3D_DATA_BEGIN
292
     0
 14
37.795
 24
-122.394
 15
37.795
 25
-122.394
 93
        0
 94
        0
293
     0
 16
0.0
 26
0.0
 17
0.0
 27
0.0
 54
0.0
140
0.0
 95
        3
141
1.0
294
     0
142
0.0
143
0.0
  4
CIVIL3D_DATA_END
  0
TCOPTIONALDATA
  5
1DD
102
{ACAD_REACTORS
330
1DC
102
}
330
1DC
100
TcOptionalData
 70
     2
 70
    32
 40
3.0
  0
TCOPTIONALDATA
  5
1E0
102
{ACAD_REACTORS
330
1DF
102
}
330
1DF
100
TcOptionalData
 70
     2
 70
    32
 40
3.0
  0
TCOPTIONALDATA
  5
1E3
102
{ACAD_REACTORS
330
1E2
102
}
330
1E2
100
TcOptionalData
 70
     2
 70
    32
 40
3.0
  0
TCOPTIONALDATA
  5
1E6
102
{ACAD_REACTORS
330
1E5
102
}
330
1E5
100
TcOptionalData
 70
     2
 70
    32
 40
3.0
  0
TCOPTIONALDATA
  5
1E9
102
{ACAD_REACTORS
330
1E8
102
}
330
1E8
100
TcOptionalData
 70
     2
 70
    32
 40
3.0
  0
TCOPTIONALDATA
  5
1EC
102
{ACAD_REACTORS
330
1EB
102
}
330
1EB
100
TcOptionalData
 70
     2
 70
    32
 40
3.0
  0
TCOPTIONALDATA
  5
1EF
102
{ACAD_REACTORS
330
1EE
102
}
330
1EE
100
TcOptionalData
 70
     2
 70
    32
 40
3.0
  0
TCOPTIONALDATA
  5
1F2
102
{ACAD_REACTORS
330
1F1
102
}
330
1F1
100
TcOptionalData
 70
     2
 70
    32
 40
3.0
  0
TCOPTIONALDATA
  5
1F5
102
{ACAD_REACTORS
330
1F4
102
}
330
1F4
100
TcOptionalData
 70
     2
 70
    32
 40
3.0
  0
TCOPTIONALDATA
  5
1F8
102
{ACAD_REACTORS
330
1F7
102
}
330
1F7
100
TcOptionalData
 70
     2
 70
    32
 40
3.0
  0
TCOPTIONALDATA
  5
1FB
102
{ACAD_REACTORS
330
1FA
102
}
330
1FA
100
TcOptionalData
 70
     2
 70
    32
 40
3.0
  0
TCOPTIONALDATA
  5
1FE
102
{ACAD_REACTORS
330
1FD
102
}
330
1FD
100
TcOptionalData
 70
     2
 70
    32
 40
3.0
  0
TCOPTIONALDATA
  5
201
102
{ACAD_REACTORS
330
200
102
}
330
200
100
TcOptionalData
 70
     2
 70
    32
 40
3.0
  0
TCOPTIONALDATA
  5
204
102
{ACAD_REACTORS
330
203
102
}
330
203
100
TcOptionalData
 70
     2
 70
    32
 40
3.0
  0
TCOPTIONALDATA
  5
207
102
{ACAD_REACTORS
330
206
102
}
330
206
100
TcOptionalData
 70
     2
 70
    32
 40
3.0
  0
TCOPTIONALDATA
  5
20A
102
{ACAD_REACTORS
330
209
102
}
330
209
100
TcOptionalData
 70
     2
 70
    32
 40
3.0
  0
TCOPTIONALDATA
  5
20D
102
{ACAD_REACTORS
330
20C
102
}
330
20C
100
TcOptionalData
 70
     2
 70
    32
 40
3.0
  0
TCOPTIONALDATA
  5
210
102
{ACAD_REACTORS
330
20F
102
}
330
20F
100
TcOptionalData
 70
     2
 70
    32
 40
3.0
  0
TCOPTIONALDATA
  5
213
102
{ACAD_REACTORS
330
212
102
}
330
212
100
TcOptionalData
 70
     2
 70
    32
 40
3.0
  0
TCOPTIONALDATA
  5
216
102
{ACAD_REACTORS
330
215
102
}
330
215
100
TcOptionalData
 70
     2
 70
    32
 40
3.0
  0
TCOPTIONALDATA
  5
219
102
{ACAD_REACTORS
330
218
102
}
330
218
100
TcOptionalData
 70
     2
 70
    32
 40
3.0
  0
TCOPTIONALDATA
  5
21C
102
{ACAD_REACTORS
330
21B
102
}
330
21B
100
TcOptionalData
 70
     2
 70
    32
 40
3.0
  0
TCOPTIONALDATA
  5
21F
102
{ACAD_REACTORS
330
21E
102
}
330
21E
100
TcOptionalData
 70
     2
 70
    32
 40
3.0
  0
TCOPTIONALDATA
  5
222
102
{ACAD_REACTORS
330
221
102
}
330
221
100
TcOptionalData
 70
     2
 70
    32
 40
3.0
  0
TCOPTIONALDATA
  5
225
102
{ACAD_REACTORS
330
224
102
}
330
224
100
TcOptionalData
 70
     2
 70
    32
 40
3.0
  0
TCOPTIONALDATA
  5
228
102
{ACAD_REACTORS
330
227
102
}
330
227
100
TcOptionalData
 70
     2
 70
    32
 40
3.0
  0
TCOPTIONALDATA
  5
22B
102
{ACAD_REACTORS
330
22A
102
}
330
22A
100
TcOptionalData
 70
     2
 70
    32
 40
3.0
  0
TCOPTIONALDATA
  5
22E
102
{ACAD_REACTORS
330
22D
102
}
330
22D
100
TcOptionalData
 70
     2
 70
    32
 40
3.0
  0
TCOPTIONALDATA
  5
231
102
{ACAD_REACTORS
330
230
102
}
330
230
100
TcOptionalData
 70
     2
 70
    32
 40
3.0
  0
TCOPTIONALDATA
  5
234
102
{ACAD_REACTORS
330
233
102
}
330
233
100
TcOptionalData
 70
     2
 70
    32
 40
3.0
  0
TCOPTIONALDATA
  5
237
102
{ACAD_REACTORS
330
236
102
}
330
236
100
TcOptionalData
 70
     2
 70
    32
 40
3.0
  0
TCOPTIONALDATA
  5
23A
102
{ACAD_REACTORS
330
239
102
}
330
239
100
TcOptionalData
 70
     2
 70
    32
 40
3.0
  0
TCOPTIONALDATA
  5
23D
102
{ACAD_REACTORS
330
23C
102
}
330
23C
100
TcOptionalData
 70
     2
 70
    32
 40
3.0
  0
TCOPTIONALDATA
  5
240
102
{ACAD_REACTORS
330
23F
102
}
330
23F
100
TcOptionalData
 70
     2
 70
    32
 40
3.0
  0
TCOPTIONALDATA
  5
243
102
{ACAD_REACTORS
330
242
102
}
330
242
100
TcOptionalData
 70
     2
 70
    32
 40
3.0
  0
TCOPTIONALDATA
  5
246
102
{ACAD_REACTORS
330
245
102
}
330
245
100
TcOptionalData
 70
     2
 70
    32
 40
3.0
  0
TCOPTIONALDATA
  5
249
102
{ACAD_REACTORS
330
248
102
}
330
248
100
TcOptionalData
 70
     2
 70
    32
 40
3.0
  0
TCOPTIONALDATA
  5
24C
102
{ACAD_REACTORS
330
24B
102
}
330
24B
100
TcOptionalData
 70
     2
 70
    32
 40
3.0
  0
TCOPTIONALDATA
  5
24F
102
{ACAD_REACTORS
330
24E
102
}
330
24E
100
TcOptionalData
 70
     2
 70
    32
 40
3.0
  0
TCOPTIONALDATA
  5
252
102
{ACAD_REACTORS
330
251
102
}
330
251
100
TcOptionalData
 70
     2
 70
    32
 40
3.0
  0
TCOPTIONALDATA
  5
255
102
{ACAD_REACTORS
330
254
102
}
330
254
100
TcOptionalData
 70
     2
 70
    32
 40
3.0
  0
TCOPTIONALDATA
  5
258
102
{ACAD_REACTORS
330
257
102
}
330
257
100
TcOptionalData
 70
     2
 70
    32
 40
3.0
  0
TCOPTIONALDATA
  5
25B
102
{ACAD_REACTORS
330
25A
102
}
330
25A
100
TcOptionalData
 70
     2
 70
    32
 40
3.0
  0
TCOPTIONALDATA
  5
25E
102
{ACAD_REACTORS
330
25D
102
}
330
25D
100
TcOptionalData
 70
     2
 70
    32
 40
3.0
  0
TCOPTIONALDATA
  5
261
102
{ACAD_REACTORS
330
260
102
}
330
260
100
TcOptionalData
 70
     2
 70
    32
 40
3.0
  0
TCOPTIONALDATA
  5
264
102
{ACAD_REACTORS
330
263
102
}
330
263
100
TcOptionalData
 70
     2
 70
    32
 40
3.0
  0
TCOPTIONALDATA
  5
267
102
{ACAD_REACTORS
330
266
102
}
330
266
100
TcOptionalData
 70
     2
 70
    32
 40
3.0
  0
TCOPTIONALDATA
  5
26A
102
{ACAD_REACTORS
330
269
102
}
330
269
100
TcOptionalData
 70
     2
 70
    32
 40
3.0
  0
TCOPTIONALDATA
  5
26D
102
{ACAD_REACTORS
330
26C
102
}
330
26C
100
TcOptionalData
 70
     2
 70
    32
 40
3.0
  0
TCOPTIONALDATA
  5
270
102
{ACAD_REACTORS
330
26F
102
}
330
26F
100
TcOptionalData
 70
     2
 70
    32
 40
3.0
  0
TCOPTIONALDATA
  5
273
102
{ACAD_REACTORS
330
272
102
}
330
272
100
TcOptionalData
 70
     2
 70
    32
 40
3.0
  0
TCOPTIONALDATA
  5
276
102
{ACAD_REACTORS
330
275
102
}
330
275
100
TcOptionalData
 70
     2
 70
    32
 40
3.0
  0
TCOPTIONALDATA
  5
279
102
{ACAD_REACTORS
330
278
102
}
330
278
100
TcOptionalData
 70
     2
 70
    32
 40
3.0
  0
TCOPTIONALDATA
  5
27C
102
{ACAD_REACTORS
330
27B
102
}
330
27B
100
TcOptionalData
 70
     2
 70
    32
 40
3.0
  0
TCOPTIONALDATA
  5
27F
102
{ACAD_REACTORS
330
27E
102
}
330
27E
100
TcOptionalData
 70
     2
 70
    32
 40
3.0
  0
TCOPTIONALDATA
  5
282
102
{ACAD_REACTORS
330
281
102
}
330
281
100
TcOptionalData
 70
     2
 70
    32
 40
3.0
  0
TCOPTIONALDATA
  5
285
102
{ACAD_REACTORS
330
284
102
}
330
284
100
TcOptionalData
 70
     2
 70
    32
 40
3.0
  0
TCOPTIONALDATA
  5
288
102
{ACAD_REACTORS
330
287
102
}
330
287
100
TcOptionalData
 70
     2
 70
    32
 40
3.0
  0
TCOPTIONALDATA
  5
28B
102
{ACAD_REACTORS
330
28A
102
}
330
28A
100
TcOptionalData
 70
     2
 70
    32
 40
3.0
  0
TCOPTIONALDATA
  5
28E
102
{ACAD_REACTORS
330
28D
102
}
330
28D
100
TcOptionalData
 70
     2
 70
    32
 40
3.0
  0
TCOPTIONALDATA
  5
291
102
{ACAD_REACTORS
330
290
102
}
330
290
100
TcOptionalData
 70
     2
 70
    32
 40
3.0
  0
TCOPTIONALDATA
  5
294
102
{ACAD_REACTORS
330
293
102
}
330
293
100
TcOptionalData
 70
     2
 70
    32
 40
3.0
  0
TCOPTIONALDATA
  5
297
102
{ACAD_REACTORS
330
296
102
}
330
296
100
TcOptionalData
 70
     2
 70
    32
 40
3.0
  0
TCOPTIONALDATA
  5
29A
102
{ACAD_REACTORS
330
299
102
}
330
299
100
TcOptionalData
 70
     2
 70
    32
 40
3.0
  0
TCOPTIONALDATA
  5
29D
102
{ACAD_REACTORS
330
29C
102
}
330
29C
100
TcOptionalData
 70
     2
 70
    32
 40
3.0
  0
TCOPTIONALDATA
  5
2A0
102
{ACAD_REACTORS
330
29F
102
}
330
29F
100
TcOptionalData
 70
     2
 70
    32
 40
3.0
  0
TCOPTIONALDATA
  5
2A3
102
{ACAD_REACTORS
330
2A2
102
}
330
2A2
100
TcOptionalData
 70
     2
 70
    32
 40
3.0
  0
TCOPTIONALDATA
  5
2A6
102
{ACAD_REACTORS
330
2A5
102
}
330
2A5
100
TcOptionalData
 70
     2
 70
    32
 40
3.0
  0
TCOPTIONALDATA
  5
2A9
102
{ACAD_REACTORS
330
2A8
102
}
330
2A8
100
TcOptionalData
 70
     2
 70
    32
 40
3.0
  0
TCOPTIONALDATA
  5
2AC
102
{ACAD_REACTORS
330
2AB
102
}
330
2AB
100
TcOptionalData
 70
     2
 70
    32
 40
3.0
  0
TCOPTIONALDATA
  5
2AF
102
{ACAD_REACTORS
330
2AE
102
}
330
2AE
100
TcOptionalData
 70
     2
 70
    32
 40
3.0
  0
TCOPTIONALDATA
  5
2B2
102
{ACAD_REACTORS
330
2B1
102
}
330
2B1
100
TcOptionalData
 70
     2
 70
    32
 40
3.0
  0
TCOPTIONALDATA
  5
2B5
102
{ACAD_REACTORS
330
2B4
102
}
330
2B4
100
TcOptionalData
 70
     2
 70
    32
 40
3.0
  0
TCOPTIONALDATA
  5
2B8
102
{ACAD_REACTORS
330
2B7
102
}
330
2B7
100
TcOptionalData
 70
     2
 70
    32
 40
3.0
  0
TCOPTIONALDATA
  5
2BB
102
{ACAD_REACTORS
330
2BA
102
}
330
2BA
100
TcOptionalData
 70
     2
 70
    32
 40
3.0
  0
TCOPTIONALDATA
  5
2BE
102
{ACAD_REACTORS
330
2BD
102
}
330
2BD
100
TcOptionalData
 70
     2
 70
    32
 40
3.0
  0
TCOPTIONALDATA
  5
2C1
102
{ACAD_REACTORS
330
2C0
102
}
330
2C0
100
TcOptionalData
 70
     2
 70
    32
 40
3.0
  0
TCOPTIONALDATA
  5
2C4
102
{ACAD_REACTORS
330
2C3
102
}
330
2C3
100
TcOptionalData
 70
     2
 70
    32
 40
3.0
  0
TCOPTIONALDATA
  5
2C7
102
{ACAD_REACTORS
330
2C6
102
}
330
2C6
100
TcOptionalData
 70
     2
 70
    32
 40
3.0
  0
TCOPTIONALDATA
  5
2CA
102
{ACAD_REACTORS
330
2C9
102
}
330
2C9
100
TcOptionalData
 70
     2
 70
    32
 40
3.0
  0
TCOPTIONALDATA
  5
2CD
102
{ACAD_REACTORS
330
2CC
102
}
330
2CC
100
TcOptionalData
 70
     2
 70
    32
 40
3.0
  0
TCOPTIONALDATA
  5
2D0
102
{ACAD_REACTORS
330
2CF
102
}
330
2CF
100
TcOptionalData
 70
     2
 70
    32
 40
3.0
  0
TCOPTIONALDATA
  5
2D3
102
{ACAD_REACTORS
330
2D2
102
}
330
2D2
100
TcOptionalData
 70
     2
 70
    32
 40
3.0
  0
TCOPTIONALDATA
  5
2D6
102
{ACAD_REACTORS
330
2D5
102
}
330
2D5
100
TcOptionalData
 70
     2
 70
    32
 40
3.0
  0
TCOPTIONALDATA
  5
2D9
102
{ACAD_REACTORS
330
2D8
102
}
330
2D8
100
TcOptionalData
 70
     2
 70
    32
 40
3.0
  0
TCOPTIONALDATA
  5
2DC
102
{ACAD_REACTORS
330
2DB
102
}
330
2DB
100
TcOptionalData
 70
     2
 70
    32
 40
3.0
  0
TCOPTIONALDATA
  5
2DF
102
{ACAD_REACTORS
330
2DE
102
}
330
2DE
100
TcOptionalData
 70
     2
 70
    32
 40
3.0
  0
TCOPTIONALDATA
  5
2E2
102
{ACAD_REACTORS
330
2E1
102
}
330
2E1
100
TcOptionalData
 70
     2
 70
    32
 40
3.0
  0
TCOPTIONALDATA
  5
2E5
102
{ACAD_REACTORS
330
2E4
102
}
330
2E4
100
TcOptionalData
 70
     2
 70
    32
 40
3.0
  0
TCOPTIONALDATA
  5
2E8
102
{ACAD_REACTORS
330
2E7
102
}
330
2E7
100
TcOptionalData
 70
     2
 70
    32
 40
3.0
  0
TCOPTIONALDATA
  5
2EB
102
{ACAD_REACTORS
330
2EA
102
}
330
2EA
100
TcOptionalData
 70
     2
 70
    32
 40
3.0
  0
TCOPTIONALDATA
  5
2EE
102
{ACAD_REACTORS
330
2ED
102
}
330
2ED
100
TcOptionalData
 70
     2
 70
    32
 40
3.0
  0
TCOPTIONALDATA
  5
2F1
102
{ACAD_REACTORS
330
2F0
102
}
330
2F0
100
TcOptionalData
 70
     2
 70
    32
 40
3.0
  0
TCOPTIONALDATA
  5
2F4
102
{ACAD_REACTORS
330
2F3
102
}
330
2F3
100
TcOptionalData
 70
     2
 70
    32
 40
3.0
  0
TCOPTIONALDATA
  5
2F7
102
{ACAD_REACTORS
330
2F6
102
}
330
2F6
100
TcOptionalData
 70
     2
 70
    32
 40
3.0
  0
TCOPTIONALDATA
  5
2FA
102
{ACAD_REACTORS
330
2F9
102
}
330
2F9
100
TcOptionalData
 70
     2
 70
    32
 40
3.0
  0
TCOPTIONALDATA
  5
2FD
102
{ACAD_REACTORS
330
2FC
102
}
330
2FC
100
TcOptionalData
 70
     2
 70
    32
 40
3.0
  0
TCOPTIONALDATA
  5
300
102
{ACAD_REACTORS
330
2FF
102
}
330
2FF
100
TcOptionalData
 70
     2
 70
    32
 40
3.0
  0
TCOPTIONALDATA
  5
303
102
{ACAD_REACTORS
330
302
102
}
330
302
100
TcOptionalData
 70
     2
 70
    32
 40
3.0
  0
TCOPTIONALDATA
  5
306
102
{ACAD_REACTORS
330
305
102
}
330
305
100
TcOptionalData
 70
     2
 70
    32
 40
3.0
  0
TCOPTIONALDATA
  5
309
102
{ACAD_REACTORS
330
308
102
}
330
308
100
TcOptionalData
 70
     2
 70
    32
 40
3.0
  0
TCOPTIONALDATA
  5
30C
102
{ACAD_REACTORS
330
30B
102
}
330
30B
100
TcOptionalData
 70
     2
 70
    32
 40
3.0
  0
TCOPTIONALDATA
  5
30F
102
{ACAD_REACTORS
330
30E
102
}
330
30E
100
TcOptionalData
 70
     2
 70
    32
 40
3.0
  0
TCOPTIONALDATA
  5
312
102
{ACAD_REACTORS
330
311
102
}
330
311
100
TcOptionalData
 70
     2
 70
    32
 40
3.0
  0
TCOPTIONALDATA
  5
315
102
{ACAD_REACTORS
330
314
102
}
330
314
100
TcOptionalData
 70
     2
 70
    32
 40
3.0
  0
TCOPTIONALDATA
  5
318
102
{ACAD_REACTORS
330
317
102
}
330
317
100
TcOptionalData
 70
     2
 70
    32
 40
3.0
  0
TCOPTIONALDATA
  5
31B
102
{ACAD_REACTORS
330
31A
102
}
330
31A
100
TcOptionalData
 70
     2
 70
    32
 40
3.0
  0
TCOPTIONALDATA
  5
31E
102
{ACAD_REACTORS
330
31D
102
}
330
31D
100
TcOptionalData
 70
     2
 70
    32
 40
3.0
  0
TCOPTIONALDATA
  5
321
102
{ACAD_REACTORS
330
320
102
}
330
320
100
TcOptionalData
 70
     2
 70
    32
 40
3.0
  0
TCOPTIONALDATA
  5
324
102
{ACAD_REACTORS
330
323
102
}
330
323
100
TcOptionalData
 70
     2
 70
    32
 40
3.0
  0
TCOPTIONALDATA
  5
327
102
{ACAD_REACTORS
330
326
102
}
330
326
100
TcOptionalData
 70
     2
 70
    32
 40
3.0
  0
TCOPTIONALDATA
  5
32A
102
{ACAD_REACTORS
330
329
102
}
330
329
100
TcOptionalData
 70
     2
 70
    32
 40
3.0
  0
TCOPTIONALDATA
  5
32D
102
{ACAD_REACTORS
330
32C
102
}
330
32C
100
TcOptionalData
 70
     2
 70
    32
 40
3.0
  0
TCOPTIONALDATA
  5
330
102
{ACAD_REACTORS
330
32F
102
}
330
32F
100
TcOptionalData
 70
     2
 70
    32
 40
3.0
  0
TCOPTIONALDATA
  5
333
102
{ACAD_REACTORS
330
332
102
}
330
332
100
TcOptionalData
 70
     2
 70
    32
 40
3.0
  0
TCOPTIONALDATA
  5
336
102
{ACAD_REACTORS
330
335
102
}
330
335
100
TcOptionalData
 70
     2
 70
    32
 40
3.0
  0
TCOPTIONALDATA
  5
339
102
{ACAD_REACTORS
330
338
102
}
330
338
100
TcOptionalData
 70
     2
 70
    32
 40
3.0
  0
TCOPTIONALDATA
  5
33C
102
{ACAD_REACTORS
330
33B
102
}
330
33B
100
TcOptionalData
 70
     2
 70
    32
 40
3.0
  0
TCOPTIONALDATA
  5
33F
102
{ACAD_REACTORS
330
33E
102
}
330
33E
100
TcOptionalData
 70
     2
 70
    32
 40
3.0
  0
TCOPTIONALDATA
  5
342
102
{ACAD_REACTORS
330
341
102
}
330
341
100
TcOptionalData
 70
     2
 70
    32
 40
3.0
  0
TCOPTIONALDATA
  5
345
102
{ACAD_REACTORS
330
344
102
}
330
344
100
TcOptionalData
 70
     2
 70
    32
 40
3.0
  0
TCOPTIONALDATA
  5
348
102
{ACAD_REACTORS
330
347
102
}
330
347
100
TcOptionalData
 70
     2
 70
    32
 40
3.0
  0
TCOPTIONALDATA
  5
34B
102
{ACAD_REACTORS
330
34A
102
}
330
34A
100
TcOptionalData
 70
     2
 70
    32
 40
3.0
  0
TCOPTIONALDATA
  5
34E
102
{ACAD_REACTORS
330
34D
102
}
330
34D
100
TcOptionalData
 70
     2
 70
    32
 40
3.0
  0
TCOPTIONALDATA
  5
351
102
{ACAD_REACTORS
330
350
102
}
330
350
100
TcOptionalData
 70
     2
 70
    32
 40
3.0
  0
TCOPTIONALDATA
  5
354
102
{ACAD_REACTORS
330
353
102
}
330
353
100
TcOptionalData
 70
     2
 70
    32
 40
3.0
  0
TCOPTIONALDATA
  5
357
102
{ACAD_REACTORS
330
356
102
}
330
356
100
TcOptionalData
 70
     2
 70
    32
 40
3.0
  0
TCOPTIONALDATA
  5
35A
102
{ACAD_REACTORS
330
359
102
}
330
359
100
TcOptionalData
 70
     2
 70
    32
 40
3.0
  0
TCOPTIONALDATA
  5
35D
102
{ACAD_REACTORS
330
35C
102
}
330
35C
100
TcOptionalData
 70
     2
 70
    32
 40
3.0
  0
TCOPTIONALDATA
  5
360
102
{ACAD_REACTORS
330
35F
102
}
330
35F
100
TcOptionalData
 70
     2
 70
    32
 40
3.0
  0
TCOPTIONALDATA
  5
363
102
{ACAD_REACTORS
330
362
102
}
330
362
100
TcOptionalData
 70
     2
 70
    32
 40
3.0
  0
MATERIAL
  5
45
102
{ACAD_REACTORS
330
43
102
}
102
{ACAD_XDICTIONARY
360
5EC
102
}
330
43
100
AcDbMaterial
  1
BYBLOCK
  0
MATERIAL
  5
44
102
{ACAD_REACTORS
330
43
102
}
102
{ACAD_XDICTIONARY
360
5EA
102
}
330
43
100
AcDbMaterial
  1
BYLAYER
  0
MATERIAL
  5
46
102
{ACAD_REACTORS
330
43
102
}
102
{ACAD_XDICTIONARY
360
5EE
102
}
330
43
100
AcDbMaterial
  1
GLOBAL
  0
ACAD_PROXY_OBJECT
  5
6C
102
{ACAD_REACTORS
330
6B
102
}
330
6B
100
AcDbProxyObject
 90
      499
 91
      505
 93
      610
310
40901902A4063FBFFFFFE056BD1B81E855B9FC0AD7A3703D0AD73F4214DD185B99185C9900AD7A3703D0AC73F90141901A02B5E8DC0F42B1CFC02B5E8DC0F42B1CFE5764000000000000300FC0
340
14
340
0
340
11
340
0
 94
        0
1001
ACAD_MLEADERVER
1070
     2
  0
MLINESTYLE
  5
18
102
{ACAD_REACTORS
330
17
102
}
330
17
100
AcDbMlineStyle
  2
Standard
 70
     0
  3

 62
     0
 51
90.0
 52
90.0
 71
     2
 49
0.5
 62
   256
  6
BYLAYER
 49
-0.5
 62
   256
  6
BYLAYER
  0
ACAD_PROXY_OBJECT
  5
48
102
{ACAD_REACTORS
330
47
102
}
330
47
100
AcDbProxyObject
 90
      499
 91
      503
 93
       41
310
903313A31580
  0
ACAD_PROXY_OBJECT
  5
49
102
{ACAD_REACTORS
330
47
102
}
330
47
100
AcDbProxyObject
 90
      499
 91
      503
 93
      105
310
903313A324000000000000004000
  0
ACAD_PROXY_OBJECT
  5
4A
102
{ACAD_REACTORS
330
47
102
}
330
47
100
AcDbProxyObject
 90
      499
 91
      503
 93
      105
310
903313A344000000000000104000
  0
ACAD_PROXY_OBJECT
  5
4B
102
{ACAD_REACTORS
330
47
102
}
330
47
100
AcDbProxyObject
 90
      499
 91
      503
 93
      105
310
903313A354000000000000144000
  0
ACAD_PROXY_OBJECT
  5
4C
102
{ACAD_REACTORS
330
47
102
}
330
47
100
AcDbProxyObject
 90
      499
 91
      503
 93
      105
310
903313A384000000000000204000
  0
ACAD_PROXY_OBJECT
  5
4D
102
{ACAD_REACTORS
330
47
102
}
330
47
100
AcDbProxyObject
 90
      499
 91
      503
 93
      113
310
904313A31304000000000000244000
  0
ACAD_PROXY_OBJECT
  5
4E
102
{ACAD_REACTORS
330
47
102
}
330
47
100
AcDbProxyObject
 90
      499
 91
      503
 93
      113
310
904313A31364000000000000304000
  0
ACAD_PROXY_OBJECT
  5
4F
102
{ACAD_REACTORS
330
47
102
}
330
47
100
AcDbProxyObject
 90
      499
 91
      503
 93
      113
310
904313A32304000000000000344000
  0
ACAD_PROXY_OBJECT
  5
50
102
{ACAD_REACTORS
330
47
102
}
330
47
100
AcDbProxyObject
 90
      499
 91
      503
 93
      113
310
904313A333040000000000003E4000
  0
ACAD_PROXY_OBJECT
  5
51
102
{ACAD_REACTORS
330
47
102
}
330
47
100
AcDbProxyObject
 90
      499
 91
      503
 93
      113
310
904313A34304000000000000444000
  0
ACAD_PROXY_OBJECT
  5
52
102
{ACAD_REACTORS
330
47
102
}
330
47
100
AcDbProxyObject
 90
      499
 91
      503
 93
      113
310
904313A35304000000000000494000
  0
ACAD_PROXY_OBJECT
  5
53
102
{ACAD_REACTORS
330
47
102
}
330
47
100
AcDbProxyObject
 90
      499
 91
      503
 93
      121
310
905313A3130304000000000000594000
  0
ACAD_PROXY_OBJECT
  5
54
102
{ACAD_REACTORS
330
47
102
}
330
47
100
AcDbProxyObject
 90
      499
 91
      503
 93
      105
310
903323A310000000000000010100
  0
ACAD_PROXY_OBJECT
  5
55
102
{ACAD_REACTORS
330
47
102
}
330
47
100
AcDbProxyObject
 90
      499
 91
      503
 93
      105
310
903343A310000000000000410100
  0
ACAD_PROXY_OBJECT
  5
56
102
{ACAD_REACTORS
330
47
102
}
330
47
100
AcDbProxyObject
 90
      499
 91
      503
 93
      105
310
903383A310000000000000810100
  0
ACAD_PROXY_OBJECT
  5
57
102
{ACAD_REACTORS
330
47
102
}
330
47
100
AcDbProxyObject
 90
      499
 91
      503
 93
      113
310
90431303A310000000000000910100
  0
ACAD_PROXY_OBJECT
  5
58
102
{ACAD_REACTORS
330
47
102
}
330
47
100
AcDbProxyObject
 90
      499
 91
      503
 93
      121
310
9053130303A310000000000001650100
  0
ACAD_PROXY_OBJECT
  5
59
102
{ACAD_REACTORS
330
47
102
}
330
47
100
AcDbProxyObject
 90
      499
 91
      503
 93
      257
310
90E312F31323822203D2031272D3022000000000000200FC000000000000284000
  0
ACAD_PROXY_OBJECT
  5
5A
102
{ACAD_REACTORS
330
47
102
}
330
47
100
AcDbProxyObject
 90
      499
 91
      503
 93
      249
310
90D312F363422203D2031272D3022000000000000240FC000000000000284000
  0
ACAD_PROXY_OBJECT
  5
5B
102
{ACAD_REACTORS
330
47
102
}
330
47
100
AcDbProxyObject
 90
      499
 91
      503
 93
      249
310
90D312F333222203D2031272D3022000000000000280FC000000000000284000
  0
ACAD_PROXY_OBJECT
  5
5C
102
{ACAD_REACTORS
330
47
102
}
330
47
100
AcDbProxyObject
 90
      499
 91
      503
 93
      249
310
90D312F313622203D2031272D30220000000000002C0FC000000000000284000
  0
ACAD_PROXY_OBJECT
  5
5D
102
{ACAD_REACTORS
330
47
102
}
330
47
100
AcDbProxyObject
 90
      499
 91
      503
 93
      249
310
90D332F333222203D2031272D30220000000000002E0FC000000000000284000
  0
ACAD_PROXY_OBJECT
  5
5E
102
{ACAD_REACTORS
330
47
102
}
330
47
100
AcDbProxyObject
 90
      499
 91
      503
 93
      241
310
90C312F3822203D2031272D3022000000000000300FC000000000000284000
  0
ACAD_PROXY_OBJECT
  5
5F
102
{ACAD_REACTORS
330
47
102
}
330
47
100
AcDbProxyObject
 90
      499
 91
      503
 93
      249
310
90D332F313622203D2031272D3022000000000000320FC000000000000284000
  0
ACAD_PROXY_OBJECT
  5
60
102
{ACAD_REACTORS
330
47
102
}
330
47
100
AcDbProxyObject
 90
      499
 91
      503
 93
      241
310
90C312F3422203D2031272D3022000000000000340FC000000000000284000
  0
ACAD_PROXY_OBJECT
  5
61
102
{ACAD_REACTORS
330
47
102
}
330
47
100
AcDbProxyObject
 90
      499
 91
      503
 93
      241
310
90C332F3822203D2031272D3022000000000000360FC000000000000284000
  0
ACAD_PROXY_OBJECT
  5
62
102
{ACAD_REACTORS
330
47
102
}
330
47
100
AcDbProxyObject
 90
      499
 91
      503
 93
      241
310
90C312F3222203D2031272D3022000000000000380FC000000000000284000
  0
ACAD_PROXY_OBJECT
  5
63
102
{ACAD_REACTORS
330
47
102
}
330
47
100
AcDbProxyObject
 90
      499
 91
      503
 93
      241
310
90C332F3422203D2031272D30220000000000003A0FC000000000000284000
  0
ACAD_PROXY_OBJECT
  5
64
102
{ACAD_REACTORS
330
47
102
}
330
47
100
AcDbProxyObject
 90
      499
 91
      503
 93
      161
310
90A3122203D2031272D30224000000000000284000
  0
ACAD_PROXY_OBJECT
  5
65
102
{ACAD_REACTORS
330
47
102
}
330
47
100
AcDbProxyObject
 90
      499
 91
      503
 93
      257
310
90E312D312F3222203D2031272D30220000000000003E0FC000000000000284000
  0
ACAD_PROXY_OBJECT
  5
66
102
{ACAD_REACTORS
330
47
102
}
330
47
100
AcDbProxyObject
 90
      499
 91
      503
 93
      225
310
90A3322203D2031272D302200000000000002100000000000000284000
  0
ACAD_PROXY_OBJECT
  5
67
102
{ACAD_REACTORS
330
47
102
}
330
47
100
AcDbProxyObject
 90
      499
 91
      503
 93
      225
310
90A3622203D2031272D302200000000000006100000000000000284000
  0
ACAD_PROXY_OBJECT
  5
68
102
{ACAD_REACTORS
330
47
102
}
330
47
100
AcDbProxyObject
 90
      499
 91
      503
 93
      249
310
90D31272D3022203D2031272D30220000000000000A100000000000000284000
  0
ACAD_PROXY_OBJECT
  5
2F
102
{ACAD_REACTORS
330
2A
102
}
330
2A
100
AcDbProxyObject
 90
      499
 91
      501
 93
      436
310
42CC9915DA5C99599C985B595049028333333333333E33F0000000000000F90107901411070040501600405405064090741402480A0340
1001
ACAD
1000
AcDbSavedByObjectVersion
1070
     0
  0
ACAD_PROXY_OBJECT
  5
32
102
{ACAD_REACTORS
330
2A
102
}
330
2A
100
AcDbProxyObject
 90
      499
 91
      501
 93
      388
310
4150985CDA58D07406404333333333333E33F0000000000000F90107A41107004050150841D405064090741402480A0350
1001
ACAD
1000
AcDbSavedByObjectVersion
1070
     0
  0
ACAD_PROXY_OBJECT
  5
36
102
{ACAD_REACTORS
330
2A
102
}
330
2A
100
AcDbProxyObject
 90
      499
 91
      501
 93
      428
310
42109C9A59DA1D195B90C409028333333333333E33F0000000000000F9010790141107004050150841D405064090741402480A029950
1001
ACAD
1000
AcDbSavedByObjectVersion
1070
     0
  0
ACAD_PROXY_OBJECT
  5
3A
102
{ACAD_REACTORS
330
2A
102
}
330
2A
100
AcDbProxyObject
 90
      499
 91
      501
 93
      452
310
42D0DBDB1BDC90DA185B99D95104090240C333333333333E33F0000000000000F90108901411070040501508421405064090741402480A0350
1001
ACAD
1000
AcDbSavedByObjectVersion
1070
     0
  0
ACAD_PROXY_OBJECT
  5
34
102
{ACAD_REACTORS
330
2A
102
}
330
2A
100
AcDbProxyObject
 90
      499
 91
      501
 93
      500
310
4290DBDB98D95C1D1D585B10940D028333333333333E33F0000000000000F90107902409070040501000000000018199010841D405064090740C02480A0340
1001
ACAD
1000
AcDbSavedByObjectVersion
1070
     0
  0
ACAD_PROXY_OBJECT
  5
35
102
{ACAD_REACTORS
330
2A
102
}
330
2A
100
AcDbProxyObject
 90
      499
 91
      501
 93
      412
310
40D11A5B50B409028333333333333E33F0000000000000F9010790141107004050150841D405064090741402480A02677FFFFFD0
1001
ACAD
1000
AcDbSavedByObjectVersion
1070
     0
  0
ACAD_PROXY_OBJECT
  5
3D
102
{ACAD_REACTORS
330
2A
102
}
330
2A
100
AcDbProxyObject
 90
      499
 91
      501
 93
      452
310
43115919D950DBDB1BDC93D999916409028333333333333E33F0000000000000F9010790141107004050150841D405064090741402480A0350
1001
ACAD
1000
AcDbSavedByObjectVersion
1070
     0
  0
ACAD_PROXY_OBJECT
  5
39
102
{ACAD_REACTORS
330
2A
102
}
330
2A
100
AcDbProxyObject
 90
      499
 91
      501
 93
      444
310
42D19858D95C185D1D195C9B90F409028333333333333E33F0000000000000F9010790141107004050150841D405064090741402480A0350
1001
ACAD
1000
AcDbSavedByObjectVersion
1070
     0
  0
ACAD_PROXY_OBJECT
  5
2B
102
{ACAD_REACTORS
330
2A
102
}
330
2A
100
AcDbProxyObject
 90
      499
 91
      501
 93
      380
310
41119B185D240901404333333333333E33F0000000000000F9010740A907004050150841D405064090741402480A1B50
1001
ACAD
1000
AcDbSavedByObjectVersion
1070
     0
  0
ACAD_PROXY_OBJECT
  5
2C
102
{ACAD_REACTORS
330
2A
102
}
330
2A
100
AcDbProxyObject
 90
      499
 91
      501
 93
      468
310
43519B185D15DA5D1A115919D95CD0140901404333333333333E33F0000000000000F90107409019070040501600405405064090741402480A1B50
1001
ACAD
1000
AcDbSavedByObjectVersion
1070
     0
  0
ACAD_PROXY_OBJECT
  5
2D
102
{ACAD_REACTORS
330
2A
102
}
330
2A
100
AcDbProxyObject
 90
      499
 91
      501
 93
      404
310
41D1DBDD5C985D5910240902404333333333333E33F0000000000000F9010740A9070040501641D405064090741402480A1B50
1001
ACAD
1000
AcDbSavedByObjectVersion
1070
     0
  0
ACAD_PROXY_OBJECT
  5
2E
102
{ACAD_REACTORS
330
2A
102
}
330
2A
100
AcDbProxyObject
 90
      499
 91
      501
 93
      492
310
4411DBDD5C985D5915DA5D1A115919D95CD0340902404333333333333E33F0000000000000F90107409019070040501600405405064090741402480A1B50
1001
ACAD
1000
AcDbSavedByObjectVersion
1070
     0
  0
ACAD_PROXY_OBJECT
  5
31
102
{ACAD_REACTORS
330
2A
102
}
330
2A
100
AcDbProxyObject
 90
      499
 91
      501
 93
      476
310
41921A5919195B90640502408333333333333E33F0000000000000F901079024090700405020000000000001110200405405064090740C02480A0340
1001
ACAD
1000
AcDbSavedByObjectVersion
1070
     0
  0
ACAD_PROXY_OBJECT
  5
3B
102
{ACAD_REACTORS
330
2A
102
}
330
2A
100
AcDbProxyObject
 90
      499
 91
      501
 93
      428
310
42529A5D1D195C93D999914409028333333333333E33F0000000000000F9010790141107004050150A41D405064090741402480A0350
1001
ACAD
1000
AcDbSavedByObjectVersion
1070
     0
  0
ACAD_PROXY_OBJECT
  5
38
102
{ACAD_REACTORS
330
2A
102
}
330
2A
100
AcDbProxyObject
 90
      499
 91
      501
 93
      444
310
42D31A5B995C185D1D195C9B90E409028333333333333E33F0000000000000F9010790141107004050750841D405064090741402483A0350
1001
ACAD
1000
AcDbSavedByObjectVersion
1070
     0
  0
ACAD_PROXY_OBJECT
  5
3C
102
{ACAD_REACTORS
330
2A
102
}
330
2A
100
AcDbProxyObject
 90
      499
 91
      501
 93
      444
310
42D3DD995C9A185B99D3D999915409028333333333333E33F0000000000000F9010790141107004050150941D405064090741402480A0350
1001
ACAD
1000
AcDbSavedByObjectVersion
1070
     0
  0
ACAD_PROXY_OBJECT
  5
33
102
{ACAD_REACTORS
330
2A
102
}
330
2A
100
AcDbProxyObject
 90
      499
 91
      501
 93
      428
310
425499585B1A5CDD1A58D08409038333333333333E33F0000000000000F9010740A907004050150800405405064090740C02480A1B40
1001
ACAD
1000
AcDbSavedByObjectVersion
1070
     0
  0
ACAD_PROXY_OBJECT
  5
42
102
{ACAD_REACTORS
330
2A
102
}
330
2A
100
AcDbProxyObject
 90
      499
 91
      501
 93
      420
310
4194DA1859195911B40902404333333333333E33F0000000000000F9010740A41107004050150800405405064090840C02480A0B40
1001
ACAD
1000
AcDbSavedByObjectVersion
1070
     0
  0
ACAD_PROXY_OBJECT
  5
41
102
{ACAD_REACTORS
330
2A
102
}
330
2A
100
AcDbProxyObject
 90
      499
 91
      501
 93
      516
310
4454DA18591959081DDA5D1A08195919D95CD1A40902404333333333333E33F0000000000000F901074090142907004050250800405405064090740C02480A0B40
1001
ACAD
1000
AcDbSavedByObjectVersion
1070
     0
  0
ACAD_PROXY_OBJECT
  5
3E
102
{ACAD_REACTORS
330
2A
102
}
330
2A
100
AcDbProxyObject
 90
      499
 91
      501
 93
      532
310
4394DA1859195CC81BD98811DC985E5174090240C333333333333E33F0000000000000F901079024090741D01000000000000111010841D405064090740C02480A0340
1001
ACAD
1000
AcDbSavedByObjectVersion
1070
     0
  0
ACAD_PROXY_OBJECT
  5
3F
102
{ACAD_REACTORS
330
2A
102
}
330
2A
100
AcDbProxyObject
 90
      499
 91
      501
 93
      476
310
41D4DAD95D18DA1E51840502408333333333333E33F0000000000000F901079024090741D01000000000000111010B41D405064090741802480A0340
1001
ACAD
1000
AcDbSavedByObjectVersion
1070
     0
  0
ACAD_PROXY_OBJECT
  5
37
102
{ACAD_REACTORS
330
2A
102
}
330
2A
100
AcDbProxyObject
 90
      499
 91
      501
 93
      412
310
41D51A1A58DAD95B90D409028333333333333E33F0000000000000F9010790141107004050150C41D405064090741402480A0350
1001
ACAD
1000
AcDbSavedByObjectVersion
1070
     0
  0
ACAD_PROXY_OBJECT
  5
30
102
{ACAD_REACTORS
330
2A
102
}
330
2A
100
AcDbProxyObject
 90
      499
 91
      501
 93
      420
310
4255DA5C99599C985B595059028333333333333E33F0000000000000F90107901411070040501600405405064090740C02480A0340
1001
ACAD
1000
AcDbSavedByObjectVersion
1070
     0
  0
ACAD_PROXY_OBJECT
  5
40
102
{ACAD_REACTORS
330
2A
102
}
330
2A
100
AcDbProxyObject
 90
      499
 91
      501
 93
      404
310
41560B54985E51940902404000000000000E03F0000000000000F9010740501907004050150841D405064090740C02480A1B40
1001
ACAD
1000
AcDbSavedByObjectVersion
1070
     0
  0
XRECORD
  5
5C8
102
{ACAD_REACTORS
330
5BE
102
}
330
5BE
100
AcDbXrecord
340
0
  0
XRECORD
  5
5C7
102
{ACAD_REACTORS
330
5BE
102
}
330
5BE
100
AcDbXrecord
 90
        0
  0
XRECORD
  5
5DE
102
{ACAD_REACTORS
330
5BE
102
}
330
5BE
100
AcDbXrecord
1000
DSTYLE
1002
{
1070
   171
 70
     2
1070
   143
 40
25.4
1070
   274
 70
     2
1070
     4
  1
^B2147483648l^B
1070
    41
 40
0.18
1070
   141
 40
0.09
1070
   271
 70
     4
1070
    43
 40
0.38
1070
   278
 70
    46
1070
    44
 40
0.18
1070
    42
 40
0.0625
1070
   147
 40
0.09
1070
    77
 70
     0
1070
   272
 70
     4
1070
    73
 70
     1
1070
   172
 70
     0
1070
    74
 70
     1
1070
   283
 70
     1
1070
   340
340
11
1070
   140
 40
0.18
1070
   284
 70
     0
1070
    78
 70
     0
1070
   345
340
14
1070
   346
340
14
1070
   347
340
14
1002
}
  0
XRECORD
  5
5C9
102
{ACAD_REACTORS
330
5BE
102
}
330
5BE
100
AcDbXrecord
  1
{CD5A6EC0-58DB-487C-9912-FC7668066B00}
  0
XRECORD
  5
5C1
102
{ACAD_REACTORS
330
5BE
102
}
330
5BE
100
AcDbXrecord
  1

  0
XRECORD
  5
5C6
102
{ACAD_REACTORS
330
5BE
102
}
330
5BE
100
AcDbXrecord
 90
        4
  0
XRECORD
  5
5C3
102
{ACAD_REACTORS
330
5BE
102
}
330
5BE
100
AcDbXrecord
340
1A
  0
XRECORD
  5
5C5
102
{ACAD_REACTORS
330
5BE
102
}
330
5BE
100
AcDbXrecord
 90
    10781
  0
XRECORD
  5
5C4
102
{ACAD_REACTORS
330
5BE
102
}
330
5BE
100
AcDbXrecord
340
19
  0
XRECORD
  5
5CB
102
{ACAD_REACTORS
330
5BE
102
}
330
5BE
100
AcDbXrecord
 40
0.0
  0
XRECORD
  5
5CE
102
{ACAD_REACTORS
330
5BE
102
}
330
5BE
100
AcDbXrecord
340
0
  0
XRECORD
  5
5D4
102
{ACAD_REACTORS
330
5BE
102
}
330
5BE
100
AcDbXrecord
 10
0.0
 20
0.0
 30
0.0
  0
XRECORD
  5
5D0
102
{ACAD_REACTORS
330
5BE
102
}
330
5BE
100
AcDbXrecord
 10
0.0
 20
0.0
 30
0.0
  0
XRECORD
  5
5D3
102
{ACAD_REACTORS
330
5BE
102
}
330
5BE
100
AcDbXrecord
 10
0.0
 20
0.0
 30
0.0
  0
XRECORD
  5
5D1
102
{ACAD_REACTORS
330
5BE
102
}
330
5BE
100
AcDbXrecord
 10
0.0
 20
0.0
 30
0.0
  0
XRECORD
  5
5D2
102
{ACAD_REACTORS
330
5BE
102
}
330
5BE
100
AcDbXrecord
 10
0.0
 20
0.0
 30
0.0
  0
XRECORD
  5
5CF
102
{ACAD_REACTORS
330
5BE
102
}
330
5BE
100
AcDbXrecord
 10
0.0
 20
0.0
 30
0.0
  0
XRECORD
  5
5CC
102
{ACAD_REACTORS
330
5BE
102
}
330
5BE
100
AcDbXrecord
340
0
  0
XRECORD
  5
5CD
102
{ACAD_REACTORS
330
5BE
102
}
330
5BE
100
AcDbXrecord
 70
     0
  0
XRECORD
  5
5C2
102
{ACAD_REACTORS
330
5BE
102
}
330
5BE
100
AcDbXrecord
  1

  0
XRECORD
  5
5BF
102
{ACAD_REACTORS
330
5BE
102
}
330
5BE
100
AcDbXrecord
 90
        1
  0
XRECORD
  5
5C0
102
{ACAD_REACTORS
330
5BE
102
}
330
5BE
100
AcDbXrecord
 90
       70
  0
XRECORD
  5
5D7
102
{ACAD_REACTORS
330
5BE
102
}
330
5BE
100
AcDbXrecord
340
0
  0
XRECORD
  5
5DD
102
{ACAD_REACTORS
330
5BE
102
}
330
5BE
100
AcDbXrecord
 10
0.0
 20
0.0
 30
0.0
  0
XRECORD
  5
5D9
102
{ACAD_REACTORS
330
5BE
102
}
330
5BE
100
AcDbXrecord
 10
0.0
 20
0.0
 30
0.0
  0
XRECORD
  5
5DC
102
{ACAD_REACTORS
330
5BE
102
}
330
5BE
100
AcDbXrecord
 10
0.0
 20
0.0
 30
0.0
  0
XRECORD
  5
5DA
102
{ACAD_REACTORS
330
5BE
102
}
330
5BE
100
AcDbXrecord
 10
0.0
 20
0.0
 30
0.0
  0
XRECORD
  5
5DB
102
{ACAD_REACTORS
330
5BE
102
}
330
5BE
100
AcDbXrecord
 10
0.0
 20
0.0
 30
0.0
  0
XRECORD
  5
5D8
102
{ACAD_REACTORS
330
5BE
102
}
330
5BE
100
AcDbXrecord
 10
0.0
 20
0.0
 30
0.0
  0
XRECORD
  5
5D5
102
{ACAD_REACTORS
330
5BE
102
}
330
5BE
100
AcDbXrecord
340
0
  0
XRECORD
  5
5D6
102
{ACAD_REACTORS
330
5BE
102
}
330
5BE
100
AcDbXrecord
 70
     0
  0
XRECORD
  5
5CA
102
{ACAD_REACTORS
330
5BE
102
}
330
5BE
100
AcDbXrecord
  1
{FAEB1C32-E019-11D5-929B-00C0DF256EC4}
  0
DICTIONARYVAR
  5
5E8
102
{ACAD_REACTORS
330
5DF
102
}
330
5DF
100
DictionaryVariables
280
     0
  1
1:1
  0
DICTIONARYVAR
  5
5E1
102
{ACAD_REACTORS
330
5DF
102
}
330
5DF
100
DictionaryVariables
280
     0
  1
Standard
  0
DICTIONARYVAR
  5
5E0
102
{ACAD_REACTORS
330
5DF
102
}
330
5DF
100
DictionaryVariables
280
     0
  1
Standard
  0
DICTIONARYVAR
  5
5E4
102
{ACAD_REACTORS
330
5DF
102
}
330
5DF
100
DictionaryVariables
280
     0
  1
2
  0
DICTIONARYVAR
  5
5E5
102
{ACAD_REACTORS
330
5DF
102
}
330
5DF
100
DictionaryVariables
280
     0
  1
1
  0
DICTIONARYVAR
  5
5E9
102
{ACAD_REACTORS
330
5DF
102
}
330
5DF
100
DictionaryVariables
280
     0
  1
1
  0
DICTIONARY
  5
5EC
330
45
100
AcDbDictionary
280
     1
  3
ACAD_XREC_ROUNDTRIP
360
5ED
  0
DICTIONARY
  5
5EA
330
44
100
AcDbDictionary
280
     1
  3
ACAD_XREC_ROUNDTRIP
360
5EB
  0
DICTIONARY
  5
5EE
330
46
100
AcDbDictionary
280
     1
  3
ACAD_XREC_ROUNDTRIP
360
5EF
  0
XRECORD
  5
5ED
102
{ACAD_REACTORS
330
5EC
102
}
330
5EC
100
AcDbXrecord
102
MATERIAL
148
0.0
149
0.0
149
0.0
 93
        0
 94
      127
282
     0
 72
     1
 77
     1
171
     1
175
     1
179
     1
273
     0
  0
XRECORD
  5
5EB
102
{ACAD_REACTORS
330
5EA
102
}
330
5EA
100
AcDbXrecord
102
MATERIAL
148
0.0
149
0.0
149
0.0
 93
        0
 94
      127
282
     0
 72
     1
 77
     1
171
     1
175
     1
179
     1
273
     0
  0
XRECORD
  5
5EF
102
{ACAD_REACTORS
330
5EE
102
}
330
5EE
100
AcDbXrecord
102
MATERIAL
148
0.0
149
0.0
149
0.0
 93
        0
 94
      127
282
     0
 72
     1
 77
     1
171
     1
175
     1
179
     1
273
     0
  0
ENDSEC
  0
EOF
