  0
SECTION
  2
HEADER
  9
$ACADVER
  1
AC1014
  9
$ACADMAINTVER
 70
     9
  9
$DWGCODEPAGE
  3
ANSI_1252
  9
$INSBASE
 10
0.0
 20
0.0
 30
0.0
  9
$EXTMIN
 10
1.000000000000000E+20
 20
1.000000000000000E+20
 30
1.000000000000000E+20
  9
$EXTMAX
 10
-1.000000000000000E+20
 20
-1.000000000000000E+20
 30
-1.000000000000000E+20
  9
$LIMMIN
 10
-105.0
 20
-148.5
  9
$LIMMAX
 10
105.0
 20
148.5
  9
$ORTHOMODE
 70
     0
  9
$REGENMODE
 70
     1
  9
$FILLMODE
 70
     1
  9
$QTEXTMODE
 70
     0
  9
$MIRRTEXT
 70
     0
  9
$DRAGMODE
 70
     2
  9
$LTSCALE
 40
1.0
  9
$OSMODE
 70
    37
  9
$ATTMODE
 70
     1
  9
$TEXTSIZE
 40
5.0
  9
$TRACEWID
 40
1.0
  9
$TEXTSTYLE
  7
STANDARD
  9
$CLAYER
  8
0
  9
$CELTYPE
  6
BYLAYER
  9
$CECOLOR
 62
     7
  9
$CELTSCALE
 40
1.0
  9
$DELOBJ
 70
     1
  9
$DISPSILH
 70
     0
  9
$DIMSCALE
 40
1.0
  9
$DIMASZ
 40
3.0
  9
$DIMEXO
 40
1.0
  9
$DIMDLI
 40
7.5
  9
$DIMRND
 40
0.2
  9
$DIMDLE
 40
0.0
  9
$DIMEXE
 40
2.0
  9
$DIMTP
 40
0.0
  9
$DIMTM
 40
0.0
  9
$DIMTXT
 40
2.954545454545455
  9
$DIMCEN
 40
0.0
  9
$DIMTSZ
 40
0.0
  9
$DIMTOL
 70
     0
  9
$DIMLIM
 70
     0
  9
$DIMTIH
 70
     1
  9
$DIMTOH
 70
     0
  9
$DIMSE1
 70
     0
  9
$DIMSE2
 70
     0
  9
$DIMTAD
 70
     1
  9
$DIMZIN
 70
     1
  9
$DIMBLK
  1

  9
$DIMASO
 70
     1
  9
$DIMSHO
 70
     1
  9
$DIMPOST
  1
 mm
  9
$DIMAPOST
  1
 mm
  9
$DIMALT
 70
     0
  9
$DIMALTD
 70
     2
  9
$DIMALTF
 40
1.0
  9
$DIMLFAC
 40
1.0
  9
$DIMTOFL
 70
     1
  9
$DIMTVP
 40
0.0
  9
$DIMTIX
 70
     0
  9
$DIMSOXD
 70
     0
  9
$DIMSAH
 70
     0
  9
$DIMBLK1
  1

  9
$DIMBLK2
  1

  9
$DIMSTYLE
  2
STANDARD
  9
$DIMCLRD
 70
     7
  9
$DIMCLRE
 70
     7
  9
$DIMCLRT
 70
     7
  9
$DIMTFAC
 40
1.0
  9
$DIMGAP
 40
2.0
  9
$DIMJUST
 70
     0
  9
$DIMSD1
 70
     0
  9
$DIMSD2
 70
     0
  9
$DIMTOLJ
 70
     1
  9
$DIMTZIN
 70
     0
  9
$DIMALTZ
 70
     0
  9
$DIMALTTZ
 70
     0
  9
$DIMFIT
 70
     3
  9
$DIMUPT
 70
     0
  9
$DIMUNIT
 70
     2
  9
$DIMDEC
 70
     2
  9
$DIMTDEC
 70
     3
  9
$DIMALTU
 70
     2
  9
$DIMALTTD
 70
     2
  9
$DIMTXSTY
  7
STANDARD
  9
$DIMAUNIT
 70
     0
  9
$LUNITS
 70
     2
  9
$LUPREC
 70
     2
  9
$SKETCHINC
 40
1.0
  9
$FILLETRAD
 40
3.0
  9
$AUNITS
 70
     0
  9
$AUPREC
 70
     2
  9
$MENU
  1
.
  9
$ELEVATION
 40
0.0
  9
$PELEVATION
 40
0.0
  9
$THICKNESS
 40
0.0
  9
$LIMCHECK
 70
     0
  9
$CHAMFERA
 40
0.5
  9
$CHAMFERB
 40
0.5
  9
$CHAMFERC
 40
1.0
  9
$CHAMFERD
 40
0.0
  9
$SKPOLY
 70
     0
  9
$TDCREATE
 40
2455591.975841817
  9
$TDUPDATE
 40
2455591.975841829
  9
$TDINDWG
 40
0.0
  9
$TDUSRTIMER
 40
0.0
  9
$USRTIMER
 70
     1
  9
$ANGBASE
 50
0.0
  9
$ANGDIR
 70
     0
  9
$PDMODE
 70
     0
  9
$PDSIZE
 40
0.0
  9
$PLINEWID
 40
0.0
  9
$COORDS
 70
     1
  9
$SPLFRAME
 70
     0
  9
$SPLINETYPE
 70
     5
  9
$SPLINESEGS
 70
    20
  9
$ATTDIA
 70
     0
  9
$ATTREQ
 70
     1
  9
$HANDLING
 70
     1
  9
$HANDSEED
  5
1F9
  9
$SURFTAB1
 70
     6
  9
$SURFTAB2
 70
     6
  9
$SURFTYPE
 70
     6
  9
$SURFU
 70
     6
  9
$SURFV
 70
     6
  9
$UCSNAME
  2

  9
$UCSORG
 10
0.0
 20
0.0
 30
0.0
  9
$UCSXDIR
 10
1.0
 20
0.0
 30
0.0
  9
$UCSYDIR
 10
0.0
 20
1.0
 30
0.0
  9
$PUCSNAME
  2

  9
$PUCSORG
 10
0.0
 20
0.0
 30
0.0
  9
$PUCSXDIR
 10
1.0
 20
0.0
 30
0.0
  9
$PUCSYDIR
 10
0.0
 20
1.0
 30
0.0
  9
$USERI1
 70
     0
  9
$USERI2
 70
     0
  9
$USERI3
 70
     0
  9
$USERI4
 70
     0
  9
$USERI5
 70
     0
  9
$USERR1
 40
0.0
  9
$USERR2
 40
0.0
  9
$USERR3
 40
0.0
  9
$USERR4
 40
0.0
  9
$USERR5
 40
0.0
  9
$WORLDVIEW
 70
     1
  9
$SHADEDGE
 70
     3
  9
$SHADEDIF
 70
    70
  9
$TILEMODE
 70
     0
  9
$MAXACTVP
 70
    64
  9
$PINSBASE
 10
0.0
 20
0.0
 30
0.0
  9
$PLIMCHECK
 70
     0
  9
$PEXTMIN
 10
0.0
 20
0.0
 30
0.0
  9
$PEXTMAX
 10
594.0
 20
420.0
 30
0.0
  9
$PLIMMIN
 10
0.0
 20
0.0
  9
$PLIMMAX
 10
594.0
 20
420.0
  9
$UNITMODE
 70
     0
  9
$VISRETAIN
 70
     1
  9
$PLINEGEN
 70
     0
  9
$PSLTSCALE
 70
     1
  9
$TREEDEPTH
 70
  3020
  9
$PICKSTYLE
 70
     1
  9
$CMLSTYLE
  2
STANDARD
  9
$CMLJUST
 70
     0
  9
$CMLSCALE
 40
1.0
  9
$PROXYGRAPHICS
 70
     1
  9
$MEASUREMENT
 70
     1
  0
ENDSEC
  0
SECTION
  2
CLASSES
  0
CLASS
  1
ACDBDICTIONARYWDFLT
  2
AcDbDictionaryWithDefault
  3
ObjectDBX Classes
 90
        0
280
     0
281
     0
  0
CLASS
  1
VISUALSTYLE
  2
AcDbVisualStyle
  3
ObjectDBX Classes
 90
     4095
280
     0
281
     0
  0
CLASS
  1
TABLESTYLE
  2
AcDbTableStyle
  3
ObjectDBX Classes
 90
     4095
280
     0
281
     0
  0
CLASS
  1
TCOPTIONALDATA
  2
TcOptionalData
  3
ExTcadCustObjs|Description: TurboCAD extension data object
 90
        0
280
     0
281
     0
  0
CLASS
  1
XRECORD
  2
AcDbXrecord
  3
AutoCAD 2000
 90
        0
280
     0
281
     0
  0
CLASS
  1
LWPOLYLINE
  2
AcDbPolyline
  3
AutoCAD 2000
 90
        0
280
     0
281
     1
  0
CLASS
  1
HATCH
  2
AcDbHatch
  3
AutoCAD 2000
 90
        0
280
     0
281
     1
  0
CLASS
  1
ACDBPLACEHOLDER
  2
AcDbPlaceHolder
  3
ObjectDBX Classes
 90
        0
280
     0
281
     0
  0
CLASS
  1
LAYOUT
  2
AcDbLayout
  3
ObjectDBX Classes
 90
        0
280
     0
281
     0
  0
ENDSEC
  0
SECTION
  2
TABLES
  0
TABLE
  2
VPORT
  5
8
330
0
100
AcDbSymbolTable
 70
     1
  0
VPORT
  5
29
330
8
100
AcDbSymbolTableRecord
100
AcDbViewportTableRecord
  2
*ACTIVE
 70
     0
 10
0.0
 20
0.0
 11
1.0
 21
1.0
 12
0.0
 22
0.0
 13
0.0
 23
0.0
 14
5.0
 24
5.0
 15
5.0
 25
5.0
 16
0.0
 26
0.0
 36
1.0
 17
-527.9098260454257
 27
205.2092344931543
 37
0.0
 40
1369.265077167183
 41
2.083979328165375
 42
50.0
 43
0.0
 44
0.0
 50
0.0
 51
0.0
 71
     0
 72
   100
 73
     1
 74
     3
 75
     0
 76
     0
 77
     0
 78
     0
  0
ENDTAB
  0
TABLE
  2
LTYPE
  5
5
330
0
100
AcDbSymbolTable
 70
    13
  0
LTYPE
  5
14
330
5
100
AcDbSymbolTableRecord
100
AcDbLinetypeTableRecord
  2
BYBLOCK
 70
     0
  3

 72
    65
 73
     0
 40
0.0
  0
LTYPE
  5
15
330
5
100
AcDbSymbolTableRecord
100
AcDbLinetypeTableRecord
  2
BYLAYER
 70
     0
  3

 72
    65
 73
     0
 40
0.0
  0
LTYPE
  5
16
330
5
100
AcDbSymbolTableRecord
100
AcDbLinetypeTableRecord
  2
CONTINUOUS
 70
     0
  3
Solid line
 72
    65
 73
     0
 40
0.0
  0
LTYPE
  5
3C
330
5
100
AcDbSymbolTableRecord
100
AcDbLinetypeTableRecord
  2
DURCHGEHEND
 70
     0
  3
Durchgehend
 72
    65
 73
     0
 40
0.0
  0
LTYPE
  5
3D
330
5
100
AcDbSymbolTableRecord
100
AcDbLinetypeTableRecord
  2
RAND
 70
     0
  3
Rand
 72
    65
 73
     6
 40
1.75
 49
0.5
 74
     0
 49
-0.25
 74
     0
 49
0.5
 74
     0
 49
-0.25
 74
     0
 49
0.0
 74
     0
 49
-0.25
 74
     0
  0
LTYPE
  5
3E
330
5
100
AcDbSymbolTableRecord
100
AcDbLinetypeTableRecord
  2
MITTE
 70
     0
  3
Mitte
 72
    65
 73
     4
 40
2.0
 49
1.25
 74
     0
 49
-0.25
 74
     0
 49
0.25
 74
     0
 49
-0.25
 74
     0
  0
LTYPE
  5
3F
330
5
100
AcDbSymbolTableRecord
100
AcDbLinetypeTableRecord
  2
STRICHPUNKT
 70
     0
  3
Strichpunkt
 72
    65
 73
     4
 40
1.0
 49
0.5
 74
     0
 49
-0.25
 74
     0
 49
0.0
 74
     0
 49
-0.25
 74
     0
  0
LTYPE
  5
40
330
5
100
AcDbSymbolTableRecord
100
AcDbLinetypeTableRecord
  2
GESTRICHELT
 70
     0
  3
Gestrichelt
 72
    65
 73
     2
 40
0.75
 49
0.5
 74
     0
 49
-0.25
 74
     0
  0
LTYPE
  5
41
330
5
100
AcDbSymbolTableRecord
100
AcDbLinetypeTableRecord
  2
GETEILT
 70
     0
  3
Geteilt
 72
    65
 73
     6
 40
1.25
 49
0.5
 74
     0
 49
-0.25
 74
     0
 49
0.0
 74
     0
 49
-0.25
 74
     0
 49
0.0
 74
     0
 49
-0.25
 74
     0
  0
LTYPE
  5
42
330
5
100
AcDbSymbolTableRecord
100
AcDbLinetypeTableRecord
  2
PUNKT
 70
     0
  3
Punkt
 72
    65
 73
     2
 40
0.25
 49
0.0
 74
     0
 49
-0.25
 74
     0
  0
LTYPE
  5
43
330
5
100
AcDbSymbolTableRecord
100
AcDbLinetypeTableRecord
  2
VERDECKT
 70
     0
  3
Verdeckt
 72
    65
 73
     2
 40
0.375
 49
0.25
 74
     0
 49
-0.125
 74
     0
  0
LTYPE
  5
44
330
5
100
AcDbSymbolTableRecord
100
AcDbLinetypeTableRecord
  2
$INVISIBLE
 70
     0
  3
$INVISIBLE
 72
    65
 73
     2
 40
200.0
 49
-100.0
 74
     0
 49
-100.0
 74
     0
  0
LTYPE
  5
45
330
5
100
AcDbSymbolTableRecord
100
AcDbLinetypeTableRecord
  2
$SNAPEXT
 70
     0
  3
$SNAPEXT
 72
    65
 73
     2
 40
0.04
 49
0.02
 74
     0
 49
-0.02
 74
     0
  0
LTYPE
  5
46
330
5
100
AcDbSymbolTableRecord
100
AcDbLinetypeTableRecord
  2
$AUXILIARY
 70
     0
  3
$AUXILIARY
 72
    65
 73
     2
 40
0.1
 49
0.05
 74
     0
 49
-0.05
 74
     0
  0
LTYPE
  5
47
330
5
100
AcDbSymbolTableRecord
100
AcDbLinetypeTableRecord
  2
$CONSTRUCTION
 70
     0
  3
$CONSTRUCTION
 72
    65
 73
     4
 40
0.3
 49
0.2
 74
     0
 49
-0.05
 74
     0
 49
0.0
 74
     0
 49
-0.05
 74
     0
  0
ENDTAB
  0
TABLE
  2
LAYER
  5
2
330
0
100
AcDbSymbolTable
 70
     7
  0
LAYER
  5
10
330
2
100
AcDbSymbolTableRecord
100
AcDbLayerTableRecord
  2
0
 70
     0
 62
     7
  6
DURCHGEHEND
  0
LAYER
  5
48
330
2
100
AcDbSymbolTableRecord
100
AcDbLayerTableRecord
  2
BOHRUNGEN
 70
     0
 62
     1
  6
DURCHGEHEND
  0
LAYER
  5
49
330
2
100
AcDbSymbolTableRecord
100
AcDbLayerTableRecord
  2
KONTUREN_FRAESEN
 70
     0
 62
     5
  6
DURCHGEHEND
  0
LAYER
  5
4A
330
2
100
AcDbSymbolTableRecord
100
AcDbLayerTableRecord
  2
AUSFRAESEN_RAND
 70
     0
 62
    69
  6
DURCHGEHEND
  0
LAYER
  5
4B
330
2
100
AcDbSymbolTableRecord
100
AcDbLayerTableRecord
  2
SCHRIFT
 70
     0
 62
   190
  6
DURCHGEHEND
  0
LAYER
  5
4C
330
2
100
AcDbSymbolTableRecord
100
AcDbLayerTableRecord
  2
$CONSTRUCTION
 70
     0
 62
    -9
  6
$CONSTRUCTION
  0
LAYER
  5
4D
330
2
100
AcDbSymbolTableRecord
100
AcDbLayerTableRecord
  2
BEFESTIGUNGSBOHRUNG
 70
     0
 62
    -7
  6
DURCHGEHEND
  0
ENDTAB
  0
TABLE
  2
STYLE
  5
3
330
0
100
AcDbSymbolTable
 70
     1
  0
STYLE
  5
11
330
3
100
AcDbSymbolTableRecord
100
AcDbTextStyleTableRecord
  2
STANDARD
 70
     0
 40
0.0
 41
1.0
 50
0.0
 71
     0
 42
5.0
  3

  4

1001
ACAD
1000
Times New Roman
1071
      290
  0
ENDTAB
  0
TABLE
  2
VIEW
  5
6
330
0
100
AcDbSymbolTable
 70
     1
  0
VIEW
  5
4E
330
6
100
AcDbSymbolTableRecord
100
AcDbViewTableRecord
  2
ANSICHT_0
 70
     0
 40
210.0
 10
148.5
 20
105.0
 41
297.0
 11
0.0
 21
0.0
 31
1.0
 12
0.0
 22
0.0
 32
0.0
 42
50.0
 43
0.0
 44
0.0
 50
0.0
 71
     0
  0
ENDTAB
  0
TABLE
  2
UCS
  5
7
330
0
100
AcDbSymbolTable
 70
     0
  0
ENDTAB
  0
TABLE
  2
APPID
  5
9
330
0
100
AcDbSymbolTable
 70
     2
  0
APPID
  5
12
330
9
100
AcDbSymbolTableRecord
100
AcDbRegAppTableRecord
  2
ACAD
 70
     0
  0
APPID
  5
3B
330
9
100
AcDbSymbolTableRecord
100
AcDbRegAppTableRecord
  2
TCAD
 70
     0
  0
ENDTAB
  0
TABLE
  2
DIMSTYLE
  5
A
330
0
100
AcDbSymbolTable
 70
     1
  0
DIMSTYLE
105
27
330
A
100
AcDbSymbolTableRecord
100
AcDbDimStyleTableRecord
  2
STANDARD
 70
     0
  3
 mm
  4
 mm
  5

  6

  7

 40
1.0
 41
3.0
 42
1.0
 43
7.5
 44
2.0
 45
0.2
 46
0.0
 47
0.0
 48
0.0
140
2.954545454545455
141
0.0
142
0.0
143
1.0
144
1.0
145
0.0
146
1.0
147
2.0
 71
     0
 72
     0
 73
     1
 74
     0
 75
     0
 76
     0
 77
     1
 78
     1
170
     0
171
     2
172
     1
173
     0
174
     0
175
     0
176
     7
177
     7
178
     7
270
     2
271
     2
272
     3
273
     2
274
     2
340
11
275
     0
280
     0
281
     0
282
     0
283
     1
284
     0
285
     0
286
     0
287
     3
288
     0
  0
ENDTAB
  0
TABLE
  2
BLOCK_RECORD
  5
1
330
0
100
AcDbSymbolTable
 70
     1
  0
BLOCK_RECORD
  5
1F
330
1
100
AcDbSymbolTableRecord
100
AcDbBlockTableRecord
  2
*MODEL_SPACE
  0
BLOCK_RECORD
  5
1B
330
1
100
AcDbSymbolTableRecord
100
AcDbBlockTableRecord
  2
*PAPER_SPACE
  0
ENDTAB
  0
ENDSEC
  0
SECTION
  2
BLOCKS
  0
BLOCK
  5
20
330
1F
100
AcDbEntity
  8
0
100
AcDbBlockBegin
  2
*MODEL_SPACE
 70
     0
 10
0.0
 20
0.0
 30
0.0
  3
*MODEL_SPACE
  1

  0
ENDBLK
  5
21
330
1F
100
AcDbEntity
  8
0
100
AcDbBlockEnd
  0
BLOCK
  5
1C
330
1B
100
AcDbEntity
 67
     1
  8
0
100
AcDbBlockBegin
  2
*PAPER_SPACE
 70
     0
 10
0.0
 20
0.0
 30
0.0
  3
*PAPER_SPACE
  1

  0
ENDBLK
  5
1D
330
1B
100
AcDbEntity
 67
     1
  8
0
100
AcDbBlockEnd
  0
ENDSEC
  0
SECTION
  2
ENTITIES
  0
VIEWPORT
  5
51
330
1B
100
AcDbEntity
 67
     1
  8
0
100
AcDbViewport
 10
205.8751042134008
 20
131.0963477895066
 30
0.0
 40
555.5087120044193
 41
266.5615270250593
 68
     1
 69
     1
1001
ACAD
1000
MVIEW
1002
{
1070
    16
1010
0.0
1020
0.0
1030
0.0
1010
0.0
1020
0.0
1030
1.0
1040
0.0
1040
266.5615270250593
1040
205.8751042134008
1040
131.0963477895066
1040
50.0
1040
0.0
1040
0.0
1070
     0
1070
  1000
1070
     0
1070
     1
1070
     0
1070
     1
1070
     0
1070
     0
1040
0.0
1040
0.0
1040
0.0
1040
1.0
1040
1.0
1040
1.0
1040
1.0
1070
     0
1002
{
1002
}
1002
}
  0
CIRCLE
  5
54
102
{ACAD_XDICTIONARY
360
52
102
}
330
1B
100
AcDbEntity
 67
     1
  8
BEFESTIGUNGSBOHRUNG
  6
DURCHGEHEND
100
AcDbCircle
 10
343.0
 20
131.7914342252375
 30
0.0
 40
1.75
  0
CIRCLE
  5
57
102
{ACAD_XDICTIONARY
360
55
102
}
330
1B
100
AcDbEntity
 67
     1
  8
BEFESTIGUNGSBOHRUNG
  6
DURCHGEHEND
100
AcDbCircle
 10
415.0
 20
119.7914342252375
 30
0.0
 40
1.75
  0
CIRCLE
  5
5A
102
{ACAD_XDICTIONARY
360
58
102
}
330
1B
100
AcDbEntity
 67
     1
  8
BEFESTIGUNGSBOHRUNG
  6
DURCHGEHEND
100
AcDbCircle
 10
343.0
 20
69.79143422523751
 30
0.0
 40
1.75
  0
CIRCLE
  5
5D
102
{ACAD_XDICTIONARY
360
5B
102
}
330
1B
100
AcDbEntity
 67
     1
  8
BEFESTIGUNGSBOHRUNG
  6
DURCHGEHEND
100
AcDbCircle
 10
415.0
 20
79.79143422523751
 30
0.0
 40
1.75
  0
CIRCLE
  5
60
102
{ACAD_XDICTIONARY
360
5E
102
}
330
1B
100
AcDbEntity
 67
     1
  8
BEFESTIGUNGSBOHRUNG
  6
DURCHGEHEND
100
AcDbCircle
 10
495.0
 20
120.0
 30
0.0
 40
1.75
  0
CIRCLE
  5
63
102
{ACAD_XDICTIONARY
360
61
102
}
330
1B
100
AcDbEntity
 67
     1
  8
BEFESTIGUNGSBOHRUNG
  6
DURCHGEHEND
100
AcDbCircle
 10
567.0
 20
134.0
 30
0.0
 40
1.75
  0
CIRCLE
  5
66
102
{ACAD_XDICTIONARY
360
64
102
}
330
1B
100
AcDbEntity
 67
     1
  8
BEFESTIGUNGSBOHRUNG
  6
DURCHGEHEND
100
AcDbCircle
 10
495.0
 20
79.0
 30
0.0
 40
1.75
  0
CIRCLE
  5
69
102
{ACAD_XDICTIONARY
360
67
102
}
330
1B
100
AcDbEntity
 67
     1
  8
BEFESTIGUNGSBOHRUNG
  6
DURCHGEHEND
100
AcDbCircle
 10
567.0
 20
64.0
 30
0.0
 40
1.75
  0
LWPOLYLINE
  5
6A
330
1B
100
AcDbEntity
 67
     1
  8
0
  6
DURCHGEHEND
 62
     7
100
AcDbPolyline
 90
       43
 70
   129
 43
0.0
 10
203.7935510199246
 20
97.14583779922299
 10
203.7935510199246
 20
97.14583779922299
 10
203.7935510199246
 20
96.97083779922298
 10
203.7685510199246
 20
96.79583779922297
 10
203.7185510199246
 20
96.64583779922299
 10
203.6435510199246
 20
96.49583779922295
 10
203.5435510199246
 20
96.37083779922295
 10
203.4435510199246
 20
96.24583779922295
 10
203.2935510199246
 20
96.14583779922299
 10
203.1435510199246
 20
96.07083779922297
 10
202.9935510199246
 20
96.02083779922299
 10
202.8185510199246
 20
95.99583779922295
 10
202.6685510199246
 20
95.99583779922295
 10
202.4935510199246
 20
96.02083779922299
 10
202.3435510199246
 20
96.07083779922297
 10
202.1935510199246
 20
96.14583779922299
 10
202.0435510199246
 20
96.24583779922295
 10
201.9185510199246
 20
96.37083779922295
 10
201.8935510199246
 20
96.39583779922299
 10
199.7685510199246
 20
96.39583779922299
 10
199.3685510199246
 20
95.99583779922295
 10
198.4935510199246
 20
95.99583779922295
 10
197.8685510199246
 20
96.62083779922295
 10
197.8685510199246
 20
97.49583779922295
 10
198.4935510199246
 20
98.12083779922298
 10
199.3685510199246
 20
98.12083779922298
 10
199.7685510199246
 20
97.69583779922297
 10
201.8935510199246
 20
97.69583779922297
 10
201.9185510199246
 20
97.74583779922298
 10
202.0435510199246
 20
97.87083779922298
 10
202.1935510199246
 20
97.97083779922298
 10
202.3435510199246
 20
98.04583779922297
 10
202.4935510199246
 20
98.09583779922298
 10
202.6685510199246
 20
98.12083779922298
 10
202.8185510199246
 20
98.12083779922298
 10
202.9935510199246
 20
98.09583779922298
 10
203.1435510199246
 20
98.04583779922297
 10
203.2935510199246
 20
97.97083779922298
 10
203.4435510199246
 20
97.87083779922298
 10
203.5435510199246
 20
97.74583779922298
 10
203.6435510199246
 20
97.59583779922298
 10
203.7185510199246
 20
97.47083779922298
 10
203.7685510199246
 20
97.29583779922297
  0
LWPOLYLINE
  5
6B
330
1B
100
AcDbEntity
 67
     1
  8
0
  6
DURCHGEHEND
 62
     7
100
AcDbPolyline
 90
       43
 70
   129
 43
0.0
 10
203.7935510199246
 20
104.745837799223
 10
203.7935510199246
 20
104.745837799223
 10
203.7935510199246
 20
104.595837799223
 10
203.7685510199246
 20
104.420837799223
 10
203.7185510199246
 20
104.270837799223
 10
203.6435510199246
 20
104.120837799223
 10
203.5435510199246
 20
103.970837799223
 10
203.4435510199246
 20
103.870837799223
 10
203.2935510199246
 20
103.770837799223
 10
203.1435510199246
 20
103.695837799223
 10
202.9935510199246
 20
103.645837799223
 10
202.8185510199246
 20
103.595837799223
 10
202.6685510199246
 20
103.595837799223
 10
202.4935510199246
 20
103.645837799223
 10
202.3435510199246
 20
103.695837799223
 10
202.1935510199246
 20
103.770837799223
 10
202.0435510199246
 20
103.870837799223
 10
201.9185510199246
 20
103.970837799223
 10
201.8935510199246
 20
104.020837799223
 10
199.7685510199246
 20
104.020837799223
 10
199.3685510199246
 20
103.595837799223
 10
198.4935510199246
 20
103.595837799223
 10
197.8685510199246
 20
104.220837799223
 10
197.8685510199246
 20
105.120837799223
 10
198.4935510199246
 20
105.745837799223
 10
199.3685510199246
 20
105.745837799223
 10
199.7685510199246
 20
105.320837799223
 10
201.8935510199246
 20
105.320837799223
 10
201.9185510199246
 20
105.370837799223
 10
202.0435510199246
 20
105.470837799223
 10
202.1935510199246
 20
105.570837799223
 10
202.3435510199246
 20
105.645837799223
 10
202.4935510199246
 20
105.695837799223
 10
202.6685510199246
 20
105.745837799223
 10
202.8185510199246
 20
105.745837799223
 10
202.9935510199246
 20
105.695837799223
 10
203.1435510199246
 20
105.645837799223
 10
203.2935510199246
 20
105.570837799223
 10
203.4435510199246
 20
105.470837799223
 10
203.5435510199246
 20
105.370837799223
 10
203.6435510199246
 20
105.220837799223
 10
203.7185510199246
 20
105.070837799223
 10
203.7685510199246
 20
104.920837799223
  0
LWPOLYLINE
  5
6C
330
1B
100
AcDbEntity
 67
     1
  8
0
  6
DURCHGEHEND
 62
     7
100
AcDbPolyline
 90
       43
 70
   129
 43
0.0
 10
203.7935510199246
 20
109.845837799223
 10
203.7935510199246
 20
109.845837799223
 10
203.7935510199246
 20
109.670837799223
 10
203.7685510199246
 20
109.495837799223
 10
203.7185510199246
 20
109.345837799223
 10
203.6435510199246
 20
109.195837799223
 10
203.5435510199246
 20
109.070837799223
 10
203.4435510199246
 20
108.945837799223
 10
203.2935510199246
 20
108.845837799223
 10
203.1435510199246
 20
108.770837799223
 10
202.9935510199246
 20
108.720837799223
 10
202.8185510199246
 20
108.695837799223
 10
202.6685510199246
 20
108.695837799223
 10
202.4935510199246
 20
108.720837799223
 10
202.3435510199246
 20
108.770837799223
 10
202.1935510199246
 20
108.845837799223
 10
202.0435510199246
 20
108.945837799223
 10
201.9185510199246
 20
109.070837799223
 10
201.8935510199246
 20
109.095837799223
 10
199.7685510199246
 20
109.095837799223
 10
199.3685510199246
 20
108.695837799223
 10
198.4935510199246
 20
108.695837799223
 10
197.8685510199246
 20
109.320837799223
 10
197.8685510199246
 20
110.195837799223
 10
198.4935510199246
 20
110.820837799223
 10
199.3685510199246
 20
110.820837799223
 10
199.7685510199246
 20
110.395837799223
 10
201.8935510199246
 20
110.395837799223
 10
201.9185510199246
 20
110.445837799223
 10
202.0435510199246
 20
110.570837799223
 10
202.1935510199246
 20
110.670837799223
 10
202.3435510199246
 20
110.745837799223
 10
202.4935510199246
 20
110.795837799223
 10
202.6685510199246
 20
110.820837799223
 10
202.8185510199246
 20
110.820837799223
 10
202.9935510199246
 20
110.795837799223
 10
203.1435510199246
 20
110.745837799223
 10
203.2935510199246
 20
110.670837799223
 10
203.4435510199246
 20
110.570837799223
 10
203.5435510199246
 20
110.445837799223
 10
203.6435510199246
 20
110.295837799223
 10
203.7185510199246
 20
110.170837799223
 10
203.7685510199246
 20
109.995837799223
  0
LWPOLYLINE
  5
6D
330
1B
100
AcDbEntity
 67
     1
  8
0
  6
DURCHGEHEND
 62
     7
100
AcDbPolyline
 90
       73
 70
   129
 43
0.0
 10
219.0435510199246
 20
109.845837799223
 10
219.0435510199246
 20
109.845837799223
 10
219.0435510199246
 20
109.670837799223
 10
219.0185510199246
 20
109.495837799223
 10
218.9685510199246
 20
109.345837799223
 10
218.8935510199246
 20
109.195837799223
 10
218.7935510199246
 20
109.070837799223
 10
218.6685510199246
 20
108.945837799223
 10
218.5435510199246
 20
108.845837799223
 10
218.3935510199246
 20
108.770837799223
 10
218.2185510199246
 20
108.720837799223
 10
218.0685510199246
 20
108.695837799223
 10
217.8935510199246
 20
108.695837799223
 10
217.7435510199246
 20
108.720837799223
 10
217.5685510199246
 20
108.770837799223
 10
217.4185510199246
 20
108.845837799223
 10
217.2935510199246
 20
108.945837799223
 10
217.1685510199246
 20
109.070837799223
 10
217.1435510199246
 20
109.095837799223
 10
211.0185510199246
 20
109.095837799223
 10
211.0185510199246
 20
92.62083779922295
 10
225.5435510199246
 20
92.62083779922295
 10
225.6685510199246
 20
92.62083779922295
 10
225.7935510199246
 20
92.59583779922298
 10
225.9185510199246
 20
92.54583779922297
 10
226.0185510199246
 20
92.47083779922298
 10
226.1185510199246
 20
92.39583779922299
 10
226.1935510199246
 20
92.27083779922299
 10
226.2435510199246
 20
92.17083779922297
 10
226.2685510199246
 20
92.04583779922297
 10
226.2685510199246
 20
78.84583779922298
 10
226.6685510199246
 20
78.44583779922297
 10
226.6685510199246
 20
77.57083779922297
 10
226.0435510199246
 20
76.94583779922297
 10
225.1685510199246
 20
76.94583779922297
 10
224.5435510199246
 20
77.57083779922297
 10
224.5435510199246
 20
78.44583779922297
 10
224.9435510199246
 20
78.84583779922298
 10
224.9435510199246
 20
91.32083779922297
 10
210.2935510199246
 20
91.32083779922297
 10
210.1685510199246
 20
91.34583779922298
 10
210.0435510199246
 20
91.39583779922299
 10
209.9435510199246
 20
91.47083779922298
 10
209.8435510199246
 20
91.54583779922297
 10
209.7685510199246
 20
91.67083779922297
 10
209.7185510199246
 20
91.77083779922299
 10
209.6935510199246
 20
91.89583779922299
 10
209.6935510199246
 20
92.04583779922297
 10
209.6935510199246
 20
109.820837799223
 10
209.7185510199246
 20
109.945837799223
 10
209.7685510199246
 20
110.070837799223
 10
209.8435510199246
 20
110.170837799223
 10
209.9435510199246
 20
110.270837799223
 10
210.0435510199246
 20
110.320837799223
 10
210.1685510199246
 20
110.370837799223
 10
210.2935510199246
 20
110.395837799223
 10
210.4185510199246
 20
110.395837799223
 10
217.1435510199246
 20
110.395837799223
 10
217.1685510199246
 20
110.445837799223
 10
217.2935510199246
 20
110.570837799223
 10
217.4185510199246
 20
110.670837799223
 10
217.5685510199246
 20
110.745837799223
 10
217.7435510199246
 20
110.795837799223
 10
217.8935510199246
 20
110.820837799223
 10
218.0685510199246
 20
110.820837799223
 10
218.2185510199246
 20
110.795837799223
 10
218.3935510199246
 20
110.745837799223
 10
218.5435510199246
 20
110.670837799223
 10
218.6685510199246
 20
110.570837799223
 10
218.7935510199246
 20
110.445837799223
 10
218.8935510199246
 20
110.295837799223
 10
218.9685510199246
 20
110.170837799223
 10
219.0185510199246
 20
109.995837799223
  0
LWPOLYLINE
  5
6E
330
1B
100
AcDbEntity
 67
     1
  8
0
  6
DURCHGEHEND
 62
     7
100
AcDbPolyline
 90
      169
 70
   129
 43
0.0
 10
218.7935510199246
 20
86.19583779922297
 10
218.7935510199246
 20
86.19583779922297
 10
218.6685510199246
 20
86.07083779922297
 10
218.5435510199246
 20
85.97083779922298
 10
218.3935510199246
 20
85.89583779922299
 10
218.2185510199246
 20
85.84583779922298
 10
218.0685510199246
 20
85.82083779922297
 10
217.8935510199246
 20
85.82083779922297
 10
217.7435510199246
 20
85.84583779922298
 10
217.5685510199246
 20
85.89583779922299
 10
217.4185510199246
 20
85.97083779922298
 10
217.2935510199246
 20
86.07083779922297
 10
217.1685510199246
 20
86.19583779922297
 10
217.0685510199246
 20
86.34583779922298
 10
216.9935510199246
 20
86.47083779922298
 10
216.9435510199246
 20
86.64583779922299
 10
216.9185510199246
 20
86.79583779922297
 10
216.9185510199246
 20
86.97083779922298
 10
216.9435510199246
 20
87.14583779922299
 10
216.9935510199246
 20
87.29583779922297
 10
217.0685510199246
 20
87.44583779922297
 10
217.1685510199246
 20
87.57083779922297
 10
217.2935510199246
 20
87.69583779922297
 10
217.4185510199246
 20
87.79583779922297
 10
217.5685510199246
 20
87.87083779922295
 10
217.7435510199246
 20
87.92083779922297
 10
217.8935510199246
 20
87.94583779922297
 10
218.0685510199246
 20
87.94583779922297
 10
218.2185510199246
 20
87.92083779922297
 10
218.3935510199246
 20
87.87083779922295
 10
218.5435510199246
 20
87.79583779922297
 10
218.6685510199246
 20
87.69583779922297
 10
218.7935510199246
 20
87.57083779922297
 10
218.8185510199246
 20
87.54583779922297
 10
220.5935510199246
 20
87.54583779922297
 10
220.7185510199246
 20
87.52083779922299
 10
220.8435510199246
 20
87.47083779922298
 10
220.9435510199246
 20
87.39583779922299
 10
221.0185510199246
 20
87.32083779922297
 10
221.0935510199246
 20
87.19583779922297
 10
221.1435510199246
 20
87.07083779922297
 10
221.1685510199246
 20
86.94583779922297
 10
221.1685510199246
 20
86.82083779922297
 10
221.1685510199246
 20
73.57083779922297
 10
235.0935510199246
 20
73.57083779922297
 10
235.0935510199246
 20
117.095837799223
 10
231.6685510199246
 20
120.520837799223
 10
216.2935510199246
 20
120.520837799223
 10
215.8685510199246
 20
120.120837799223
 10
214.9935510199246
 20
120.120837799223
 10
214.5935510199246
 20
120.520837799223
 10
213.7435510199246
 20
120.520837799223
 10
213.3435510199246
 20
120.120837799223
 10
212.4685510199246
 20
120.120837799223
 10
212.0435510199246
 20
120.520837799223
 10
211.2185510199246
 20
120.520837799223
 10
210.7935510199246
 20
120.120837799223
 10
209.9185510199246
 20
120.120837799223
 10
209.5185510199246
 20
120.520837799223
 10
208.6685510199246
 20
120.520837799223
 10
208.2685510199246
 20
120.120837799223
 10
207.3685510199246
 20
120.120837799223
 10
206.9685510199246
 20
120.520837799223
 10
206.1185510199246
 20
120.520837799223
 10
205.7185510199246
 20
120.120837799223
 10
204.8435510199246
 20
120.120837799223
 10
204.4435510199246
 20
120.520837799223
 10
200.4685510199246
 20
120.520837799223
 10
197.0435510199246
 20
117.095837799223
 10
197.0435510199246
 20
110.595837799223
 10
197.4435510199246
 20
110.195837799223
 10
197.4435510199246
 20
109.320837799223
 10
197.0435510199246
 20
108.895837799223
 10
197.0435510199246
 20
108.045837799223
 10
197.4435510199246
 20
107.645837799223
 10
197.4435510199246
 20
106.770837799223
 10
197.0435510199246
 20
106.370837799223
 10
197.0435510199246
 20
105.520837799223
 10
197.4435510199246
 20
105.120837799223
 10
197.4435510199246
 20
104.220837799223
 10
197.0435510199246
 20
103.820837799223
 10
197.0435510199246
 20
102.970837799223
 10
197.4435510199246
 20
102.570837799223
 10
197.4435510199246
 20
101.695837799223
 10
197.0435510199246
 20
101.295837799223
 10
197.0435510199246
 20
97.89583779922299
 10
197.4435510199246
 20
97.49583779922295
 10
197.4435510199246
 20
96.62083779922295
 10
196.8185510199246
 20
95.99583779922295
 10
195.9435510199246
 20
95.99583779922295
 10
195.3185510199246
 20
96.62083779922295
 10
195.3185510199246
 20
97.49583779922295
 10
195.7435510199246
 20
97.89583779922299
 10
195.7435510199246
 20
101.295837799223
 10
195.3185510199246
 20
101.695837799223
 10
195.3185510199246
 20
102.570837799223
 10
195.7435510199246
 20
102.970837799223
 10
195.7435510199246
 20
103.820837799223
 10
195.3185510199246
 20
104.220837799223
 10
195.3185510199246
 20
105.120837799223
 10
195.7435510199246
 20
105.520837799223
 10
195.7435510199246
 20
106.370837799223
 10
195.3185510199246
 20
106.770837799223
 10
195.3185510199246
 20
107.645837799223
 10
195.7435510199246
 20
108.045837799223
 10
195.7435510199246
 20
108.895837799223
 10
195.3185510199246
 20
109.320837799223
 10
195.3185510199246
 20
110.195837799223
 10
195.7435510199246
 20
110.595837799223
 10
195.7435510199246
 20
117.445837799223
 10
195.7685510199246
 20
117.570837799223
 10
195.8185510199246
 20
117.670837799223
 10
195.8685510199246
 20
117.795837799223
 10
195.9685510199246
 20
117.870837799223
 10
199.6935510199246
 20
121.595837799223
 10
199.7935510199246
 20
121.695837799223
 10
199.8935510199246
 20
121.770837799223
 10
200.0185510199246
 20
121.820837799223
 10
200.1435510199246
 20
121.845837799223
 10
204.4435510199246
 20
121.845837799223
 10
204.8435510199246
 20
122.245837799223
 10
205.7185510199246
 20
122.245837799223
 10
206.1185510199246
 20
121.845837799223
 10
206.9685510199246
 20
121.845837799223
 10
207.3685510199246
 20
122.245837799223
 10
208.2685510199246
 20
122.245837799223
 10
208.6685510199246
 20
121.845837799223
 10
209.5185510199246
 20
121.845837799223
 10
209.9185510199246
 20
122.245837799223
 10
210.7935510199246
 20
122.245837799223
 10
211.2185510199246
 20
121.845837799223
 10
212.0435510199246
 20
121.845837799223
 10
212.4685510199246
 20
122.245837799223
 10
213.3435510199246
 20
122.245837799223
 10
213.7435510199246
 20
121.845837799223
 10
214.5935510199246
 20
121.845837799223
 10
214.9935510199246
 20
122.245837799223
 10
215.8685510199246
 20
122.245837799223
 10
216.2935510199246
 20
121.845837799223
 10
231.8935510199246
 20
121.845837799223
 10
232.0185510199246
 20
121.845837799223
 10
232.1435510199246
 20
121.820837799223
 10
232.2685510199246
 20
121.770837799223
 10
232.3685510199246
 20
121.695837799223
 10
236.1685510199246
 20
117.870837799223
 10
236.2685510199246
 20
117.795837799223
 10
236.3435510199246
 20
117.670837799223
 10
236.3935510199246
 20
117.570837799223
 10
236.4185510199246
 20
117.445837799223
 10
236.4185510199246
 20
72.99583779922298
 10
236.4185510199246
 20
72.84583779922298
 10
236.3935510199246
 20
72.72083779922298
 10
236.3435510199246
 20
72.62083779922298
 10
236.2685510199246
 20
72.49583779922298
 10
236.1685510199246
 20
72.42083779922297
 10
236.0685510199246
 20
72.34583779922298
 10
235.9435510199246
 20
72.29583779922297
 10
235.8185510199246
 20
72.27083779922297
 10
220.5935510199246
 20
72.27083779922297
 10
220.4435510199246
 20
72.27083779922297
 10
220.3185510199246
 20
72.29583779922297
 10
220.2185510199246
 20
72.34583779922298
 10
220.0935510199246
 20
72.42083779922297
 10
220.0185510199246
 20
72.49583779922298
 10
219.9435510199246
 20
72.62083779922298
 10
219.8935510199246
 20
72.72083779922298
 10
219.8685510199246
 20
72.84583779922298
 10
219.8685510199246
 20
86.24583779922295
 10
218.8185510199246
 20
86.24583779922295
  0
LWPOLYLINE
  5
6F
330
1B
100
AcDbEntity
 67
     1
  8
0
  6
DURCHGEHEND
 62
     7
100
AcDbPolyline
 90
       43
 70
   129
 43
0.0
 10
212.6935510199246
 20
84.44583779922297
 10
212.6935510199246
 20
84.44583779922297
 10
212.6935510199246
 20
84.27083779922299
 10
212.6685510199246
 20
84.09583779922298
 10
212.6185510199246
 20
83.94583779922297
 10
212.5435510199246
 20
83.79583779922297
 10
212.4435510199246
 20
83.67083779922297
 10
212.3185510199246
 20
83.54583779922297
 10
212.2935510199246
 20
83.52083779922299
 10
212.2935510199246
 20
78.84583779922298
 10
212.6935510199246
 20
78.44583779922297
 10
212.6935510199246
 20
77.57083779922297
 10
212.0685510199246
 20
76.94583779922297
 10
211.1935510199246
 20
76.94583779922297
 10
210.5685510199246
 20
77.57083779922297
 10
210.5685510199246
 20
78.44583779922297
 10
210.9685510199246
 20
78.84583779922298
 10
210.9685510199246
 20
83.52083779922299
 10
210.9435510199246
 20
83.54583779922297
 10
210.8185510199246
 20
83.67083779922297
 10
210.7185510199246
 20
83.79583779922297
 10
210.6435510199246
 20
83.94583779922297
 10
210.5935510199246
 20
84.09583779922298
 10
210.5685510199246
 20
84.27083779922299
 10
210.5685510199246
 20
84.44583779922297
 10
210.5935510199246
 20
84.59583779922298
 10
210.6435510199246
 20
84.77083779922299
 10
210.7185510199246
 20
84.89583779922299
 10
210.8185510199246
 20
85.04583779922297
 10
210.9435510199246
 20
85.17083779922297
 10
211.0685510199246
 20
85.27083779922299
 10
211.2185510199246
 20
85.34583779922298
 10
211.3935510199246
 20
85.39583779922299
 10
211.5435510199246
 20
85.42083779922297
 10
211.7185510199246
 20
85.42083779922297
 10
211.8685510199246
 20
85.39583779922299
 10
212.0435510199246
 20
85.34583779922298
 10
212.1935510199246
 20
85.27083779922299
 10
212.3185510199246
 20
85.17083779922297
 10
212.4435510199246
 20
85.04583779922297
 10
212.5435510199246
 20
84.89583779922299
 10
212.6185510199246
 20
84.77083779922299
 10
212.6685510199246
 20
84.59583779922298
  0
LWPOLYLINE
  5
70
330
1B
100
AcDbEntity
 67
     1
  8
0
  6
DURCHGEHEND
 62
     7
100
AcDbPolyline
 90
       43
 70
   129
 43
0.0
 10
210.1435510199246
 20
84.44583779922297
 10
210.1435510199246
 20
84.44583779922297
 10
210.1435510199246
 20
84.27083779922299
 10
210.1185510199246
 20
84.09583779922298
 10
210.0685510199246
 20
83.94583779922297
 10
209.9935510199246
 20
83.79583779922297
 10
209.8935510199246
 20
83.67083779922297
 10
209.7935510199246
 20
83.54583779922297
 10
209.7435510199246
 20
83.52083779922299
 10
209.7435510199246
 20
78.84583779922298
 10
210.1435510199246
 20
78.44583779922297
 10
210.1435510199246
 20
77.57083779922297
 10
209.5185510199246
 20
76.94583779922297
 10
208.6435510199246
 20
76.94583779922297
 10
208.0185510199246
 20
77.57083779922297
 10
208.0185510199246
 20
78.44583779922297
 10
208.4435510199246
 20
78.84583779922298
 10
208.4435510199246
 20
83.52083779922299
 10
208.3935510199246
 20
83.54583779922297
 10
208.2685510199246
 20
83.67083779922297
 10
208.1935510199246
 20
83.79583779922297
 10
208.0935510199246
 20
83.94583779922297
 10
208.0435510199246
 20
84.09583779922298
 10
208.0185510199246
 20
84.27083779922299
 10
208.0185510199246
 20
84.44583779922297
 10
208.0435510199246
 20
84.59583779922298
 10
208.0935510199246
 20
84.77083779922299
 10
208.1935510199246
 20
84.89583779922299
 10
208.2685510199246
 20
85.04583779922297
 10
208.3935510199246
 20
85.17083779922297
 10
208.5435510199246
 20
85.27083779922299
 10
208.6935510199246
 20
85.34583779922298
 10
208.8435510199246
 20
85.39583779922299
 10
209.0185510199246
 20
85.42083779922297
 10
209.1685510199246
 20
85.42083779922297
 10
209.3435510199246
 20
85.39583779922299
 10
209.4935510199246
 20
85.34583779922298
 10
209.6435510199246
 20
85.27083779922299
 10
209.7935510199246
 20
85.17083779922297
 10
209.8935510199246
 20
85.04583779922297
 10
209.9935510199246
 20
84.89583779922299
 10
210.0685510199246
 20
84.77083779922299
 10
210.1185510199246
 20
84.59583779922298
  0
LWPOLYLINE
  5
71
330
1B
100
AcDbEntity
 67
     1
  8
0
  6
DURCHGEHEND
 62
     7
100
AcDbPolyline
 90
       43
 70
   129
 43
0.0
 10
205.0685510199246
 20
84.44583779922297
 10
205.0685510199246
 20
84.44583779922297
 10
205.0685510199246
 20
84.27083779922299
 10
205.0435510199246
 20
84.09583779922298
 10
204.9935510199246
 20
83.94583779922297
 10
204.9185510199246
 20
83.79583779922297
 10
204.8185510199246
 20
83.67083779922297
 10
204.6935510199246
 20
83.54583779922297
 10
204.6685510199246
 20
83.52083779922299
 10
204.6685510199246
 20
78.84583779922298
 10
205.0685510199246
 20
78.44583779922297
 10
205.0685510199246
 20
77.57083779922297
 10
204.4435510199246
 20
76.94583779922297
 10
203.5685510199246
 20
76.94583779922297
 10
202.9435510199246
 20
77.57083779922297
 10
202.9435510199246
 20
78.44583779922297
 10
203.3435510199246
 20
78.84583779922298
 10
203.3435510199246
 20
83.52083779922299
 10
203.3185510199246
 20
83.54583779922297
 10
203.1935510199246
 20
83.67083779922297
 10
203.0935510199246
 20
83.79583779922297
 10
203.0185510199246
 20
83.94583779922297
 10
202.9685510199246
 20
84.09583779922298
 10
202.9435510199246
 20
84.27083779922299
 10
202.9435510199246
 20
84.44583779922297
 10
202.9685510199246
 20
84.59583779922298
 10
203.0185510199246
 20
84.77083779922299
 10
203.0935510199246
 20
84.89583779922299
 10
203.1935510199246
 20
85.04583779922297
 10
203.3185510199246
 20
85.17083779922297
 10
203.4435510199246
 20
85.27083779922299
 10
203.5935510199246
 20
85.34583779922298
 10
203.7685510199246
 20
85.39583779922299
 10
203.9185510199246
 20
85.42083779922297
 10
204.0935510199246
 20
85.42083779922297
 10
204.2685510199246
 20
85.39583779922299
 10
204.4185510199246
 20
85.34583779922298
 10
204.5685510199246
 20
85.27083779922299
 10
204.6935510199246
 20
85.17083779922297
 10
204.8185510199246
 20
85.04583779922297
 10
204.9185510199246
 20
84.89583779922299
 10
204.9935510199246
 20
84.77083779922299
 10
205.0435510199246
 20
84.59583779922298
  0
LWPOLYLINE
  5
72
330
1B
100
AcDbEntity
 67
     1
  8
0
  6
DURCHGEHEND
 62
     7
100
AcDbPolyline
 90
      172
 70
   129
 43
0.0
 10
234.2935510199246
 20
78.44583779922297
 10
234.2935510199246
 20
78.44583779922297
 10
234.2935510199246
 20
77.57083779922297
 10
233.8685510199246
 20
77.14583779922297
 10
233.8685510199246
 20
75.52083779922297
 10
233.8685510199246
 20
75.39583779922297
 10
233.8435510199246
 20
75.27083779922297
 10
233.7935510199246
 20
75.14583779922297
 10
233.7185510199246
 20
75.04583779922297
 10
233.6435510199246
 20
74.94583779922297
 10
233.5435510199246
 20
74.87083779922298
 10
233.4185510199246
 20
74.82083779922297
 10
233.2935510199246
 20
74.79583779922297
 10
223.1185510199246
 20
74.79583779922297
 10
222.9935510199246
 20
74.79583779922297
 10
222.8685510199246
 20
74.82083779922297
 10
222.7435510199246
 20
74.87083779922298
 10
222.6435510199246
 20
74.94583779922297
 10
222.5435510199246
 20
75.04583779922297
 10
222.4685510199246
 20
75.14583779922297
 10
222.4185510199246
 20
75.27083779922297
 10
222.3935510199246
 20
75.39583779922297
 10
222.3935510199246
 20
88.77083779922299
 10
218.8185510199246
 20
88.77083779922299
 10
218.7935510199246
 20
88.74583779922295
 10
218.6685510199246
 20
88.62083779922295
 10
218.5435510199246
 20
88.52083779922299
 10
218.3935510199246
 20
88.44583779922297
 10
218.2185510199246
 20
88.39583779922299
 10
218.0685510199246
 20
88.37083779922295
 10
217.8935510199246
 20
88.37083779922295
 10
217.7435510199246
 20
88.39583779922299
 10
217.5685510199246
 20
88.44583779922297
 10
217.4185510199246
 20
88.52083779922299
 10
217.2935510199246
 20
88.62083779922295
 10
217.1685510199246
 20
88.74583779922295
 10
217.1435510199246
 20
88.77083779922299
 10
197.5935510199246
 20
88.77083779922299
 10
197.4685510199246
 20
88.79583779922297
 10
197.3435510199246
 20
88.84583779922298
 10
197.2435510199246
 20
88.92083779922297
 10
197.1435510199246
 20
89.02083779922299
 10
193.3435510199246
 20
92.82083779922297
 10
193.2685510199246
 20
92.92083779922297
 10
193.2185510199246
 20
93.04583779922297
 10
193.1935510199246
 20
93.17083779922297
 10
193.1935510199246
 20
93.29583779922297
 10
193.1935510199246
 20
96.19583779922297
 10
192.7935510199246
 20
96.62083779922295
 10
192.7935510199246
 20
97.49583779922295
 10
193.1935510199246
 20
97.89583779922299
 10
193.1935510199246
 20
101.295837799223
 10
192.7935510199246
 20
101.695837799223
 10
192.7935510199246
 20
102.570837799223
 10
193.1935510199246
 20
102.970837799223
 10
193.1935510199246
 20
103.820837799223
 10
192.7935510199246
 20
104.220837799223
 10
192.7935510199246
 20
105.120837799223
 10
193.1935510199246
 20
105.520837799223
 10
193.1935510199246
 20
106.370837799223
 10
192.7935510199246
 20
106.770837799223
 10
192.7935510199246
 20
107.645837799223
 10
193.1935510199246
 20
108.045837799223
 10
193.1935510199246
 20
108.895837799223
 10
192.7935510199246
 20
109.320837799223
 10
192.7935510199246
 20
110.195837799223
 10
193.1935510199246
 20
110.595837799223
 10
193.1935510199246
 20
118.695837799223
 10
193.2185510199246
 20
118.820837799223
 10
193.2685510199246
 20
118.945837799223
 10
193.3435510199246
 20
119.070837799223
 10
193.4435510199246
 20
119.145837799223
 10
198.5185510199246
 20
124.220837799223
 10
198.6185510199246
 20
124.295837799223
 10
198.7435510199246
 20
124.345837799223
 10
198.8685510199246
 20
124.370837799223
 10
198.9935510199246
 20
124.370837799223
 10
204.4435510199246
 20
124.370837799223
 10
204.8435510199246
 20
124.795837799223
 10
205.7185510199246
 20
124.795837799223
 10
206.1185510199246
 20
124.370837799223
 10
206.9685510199246
 20
124.370837799223
 10
207.3685510199246
 20
124.795837799223
 10
208.2685510199246
 20
124.795837799223
 10
208.6685510199246
 20
124.370837799223
 10
209.5185510199246
 20
124.370837799223
 10
209.9185510199246
 20
124.795837799223
 10
210.7935510199246
 20
124.795837799223
 10
211.2185510199246
 20
124.370837799223
 10
212.0435510199246
 20
124.370837799223
 10
212.4685510199246
 20
124.795837799223
 10
213.3435510199246
 20
124.795837799223
 10
213.7435510199246
 20
124.370837799223
 10
214.5935510199246
 20
124.370837799223
 10
214.9935510199246
 20
124.795837799223
 10
215.8685510199246
 20
124.795837799223
 10
216.4935510199246
 20
124.170837799223
 10
216.4935510199246
 20
123.270837799223
 10
215.8685510199246
 20
122.645837799223
 10
214.9935510199246
 20
122.645837799223
 10
214.5935510199246
 20
123.070837799223
 10
213.7435510199246
 20
123.070837799223
 10
213.3435510199246
 20
122.645837799223
 10
212.4685510199246
 20
122.645837799223
 10
212.0435510199246
 20
123.070837799223
 10
211.2185510199246
 20
123.070837799223
 10
210.7935510199246
 20
122.645837799223
 10
209.9185510199246
 20
122.645837799223
 10
209.5185510199246
 20
123.070837799223
 10
208.6685510199246
 20
123.070837799223
 10
208.2685510199246
 20
122.645837799223
 10
207.3685510199246
 20
122.645837799223
 10
206.9685510199246
 20
123.070837799223
 10
206.1185510199246
 20
123.070837799223
 10
205.7185510199246
 20
122.645837799223
 10
204.8435510199246
 20
122.645837799223
 10
204.4435510199246
 20
123.070837799223
 10
199.1935510199246
 20
123.070837799223
 10
194.5185510199246
 20
118.370837799223
 10
194.5185510199246
 20
110.595837799223
 10
194.9185510199246
 20
110.195837799223
 10
194.9185510199246
 20
109.320837799223
 10
194.5185510199246
 20
108.895837799223
 10
194.5185510199246
 20
108.045837799223
 10
194.9185510199246
 20
107.645837799223
 10
194.9185510199246
 20
106.770837799223
 10
194.5185510199246
 20
106.370837799223
 10
194.5185510199246
 20
105.520837799223
 10
194.9185510199246
 20
105.120837799223
 10
194.9185510199246
 20
104.220837799223
 10
194.5185510199246
 20
103.820837799223
 10
194.5185510199246
 20
102.970837799223
 10
194.9185510199246
 20
102.570837799223
 10
194.9185510199246
 20
101.695837799223
 10
194.5185510199246
 20
101.295837799223
 10
194.5185510199246
 20
97.89583779922299
 10
194.9185510199246
 20
97.49583779922295
 10
194.9185510199246
 20
96.62083779922295
 10
194.5185510199246
 20
96.19583779922297
 10
194.5185510199246
 20
93.52083779922299
 10
197.9435510199246
 20
90.09583779922298
 10
217.1435510199246
 20
90.09583779922298
 10
217.1685510199246
 20
90.12083779922295
 10
217.2935510199246
 20
90.24583779922295
 10
217.4185510199246
 20
90.34583779922298
 10
217.5685510199246
 20
90.42083779922297
 10
217.7435510199246
 20
90.47083779922298
 10
217.8935510199246
 20
90.49583779922295
 10
218.0685510199246
 20
90.49583779922295
 10
218.2185510199246
 20
90.47083779922298
 10
218.3935510199246
 20
90.42083779922297
 10
218.5435510199246
 20
90.34583779922298
 10
218.6685510199246
 20
90.24583779922295
 10
218.7935510199246
 20
90.12083779922295
 10
218.8185510199246
 20
90.09583779922298
 10
222.9935510199246
 20
90.09583779922298
 10
222.9935510199246
 20
90.09583779922298
 10
223.1185510199246
 20
90.09583779922298
 10
223.2435510199246
 20
90.07083779922297
 10
223.3685510199246
 20
90.02083779922299
 10
223.4685510199246
 20
89.94583779922297
 10
223.5685510199246
 20
89.84583779922298
 10
223.6435510199246
 20
89.74583779922295
 10
223.6935510199246
 20
89.62083779922295
 10
223.7185510199246
 20
89.49583779922295
 10
223.7185510199246
 20
76.12083779922298
 10
232.5685510199246
 20
76.12083779922298
 10
232.5685510199246
 20
77.14583779922297
 10
232.1685510199246
 20
77.57083779922297
 10
232.1685510199246
 20
78.44583779922297
 10
232.7685510199246
 20
79.07083779922297
 10
233.6685510199246
 20
79.07083779922297
  0
LWPOLYLINE
  5
73
330
1B
100
AcDbEntity
 67
     1
  8
0
  6
DURCHGEHEND
 62
     7
100
AcDbPolyline
 90
       53
 70
   129
 43
0.0
 10
231.7435510199246
 20
78.44583779922297
 10
231.7435510199246
 20
78.44583779922297
 10
231.7435510199246
 20
77.57083779922297
 10
231.1185510199246
 20
76.94583779922297
 10
230.2435510199246
 20
76.94583779922297
 10
229.6185510199246
 20
77.57083779922297
 10
229.6185510199246
 20
78.44583779922297
 10
230.0185510199246
 20
78.84583779922298
 10
230.0185510199246
 20
97.67083779922297
 10
216.0185510199246
 20
97.67083779922297
 10
215.9935510199246
 20
97.62083779922295
 10
215.8685510199246
 20
97.52083779922299
 10
215.7435510199246
 20
97.42083779922297
 10
215.5935510199246
 20
97.34583779922298
 10
215.4435510199246
 20
97.29583779922297
 10
215.2685510199246
 20
97.24583779922295
 10
215.0935510199246
 20
97.24583779922295
 10
214.9435510199246
 20
97.29583779922297
 10
214.7685510199246
 20
97.34583779922298
 10
214.6185510199246
 20
97.42083779922297
 10
214.4935510199246
 20
97.52083779922299
 10
214.3685510199246
 20
97.62083779922295
 10
214.2685510199246
 20
97.77083779922299
 10
214.1935510199246
 20
97.92083779922297
 10
214.1435510199246
 20
98.07083779922297
 10
214.1185510199246
 20
98.24583779922298
 10
214.1185510199246
 20
98.39583779922299
 10
214.1435510199246
 20
98.57083779922297
 10
214.1935510199246
 20
98.72083779922298
 10
214.2685510199246
 20
98.87083779922298
 10
214.3685510199246
 20
99.02083779922299
 10
214.4935510199246
 20
99.12083779922298
 10
214.6185510199246
 20
99.22083779922298
 10
214.7685510199246
 20
99.29583779922297
 10
214.9435510199246
 20
99.34583779922298
 10
215.0935510199246
 20
99.39583779922299
 10
215.2685510199246
 20
99.39583779922299
 10
215.4435510199246
 20
99.34583779922298
 10
215.5935510199246
 20
99.29583779922297
 10
215.7435510199246
 20
99.22083779922298
 10
215.8685510199246
 20
99.12083779922298
 10
215.9935510199246
 20
99.02083779922299
 10
216.0185510199246
 20
98.97083779922298
 10
230.6185510199246
 20
98.97083779922298
 10
230.7435510199246
 20
98.97083779922298
 10
230.8685510199246
 20
98.94583779922297
 10
230.9935510199246
 20
98.89583779922299
 10
231.0935510199246
 20
98.82083779922297
 10
231.1935510199246
 20
98.74583779922298
 10
231.2685510199246
 20
98.62083779922298
 10
231.3185510199246
 20
98.52083779922299
 10
231.3435510199246
 20
98.39583779922299
 10
231.3435510199246
 20
78.84583779922298
  0
LWPOLYLINE
  5
74
330
1B
100
AcDbEntity
 67
     1
  8
0
  6
DURCHGEHEND
 62
     7
100
AcDbPolyline
 90
       53
 70
   129
 43
0.0
 10
229.1935510199246
 20
78.44583779922297
 10
229.1935510199246
 20
78.44583779922297
 10
229.1935510199246
 20
77.57083779922297
 10
228.5685510199246
 20
76.94583779922297
 10
227.6935510199246
 20
76.94583779922297
 10
227.0685510199246
 20
77.57083779922297
 10
227.0685510199246
 20
78.44583779922297
 10
227.4935510199246
 20
78.84583779922298
 10
227.4935510199246
 20
95.12083779922295
 10
216.0185510199246
 20
95.12083779922295
 10
215.9935510199246
 20
95.09583779922298
 10
215.8685510199246
 20
94.97083779922298
 10
215.7435510199246
 20
94.87083779922295
 10
215.5935510199246
 20
94.79583779922297
 10
215.4435510199246
 20
94.74583779922295
 10
215.2685510199246
 20
94.72083779922298
 10
215.0935510199246
 20
94.72083779922298
 10
214.9435510199246
 20
94.74583779922295
 10
214.7685510199246
 20
94.79583779922297
 10
214.6185510199246
 20
94.87083779922295
 10
214.4935510199246
 20
94.97083779922298
 10
214.3685510199246
 20
95.09583779922298
 10
214.2685510199246
 20
95.22083779922298
 10
214.1935510199246
 20
95.37083779922295
 10
214.1435510199246
 20
95.52083779922299
 10
214.1185510199246
 20
95.69583779922297
 10
214.1185510199246
 20
95.87083779922295
 10
214.1435510199246
 20
96.02083779922299
 10
214.1935510199246
 20
96.19583779922297
 10
214.2685510199246
 20
96.34583779922298
 10
214.3685510199246
 20
96.47083779922298
 10
214.4935510199246
 20
96.59583779922298
 10
214.6185510199246
 20
96.69583779922297
 10
214.7685510199246
 20
96.77083779922299
 10
214.9435510199246
 20
96.82083779922297
 10
215.0935510199246
 20
96.84583779922298
 10
215.2685510199246
 20
96.84583779922298
 10
215.4435510199246
 20
96.82083779922297
 10
215.5935510199246
 20
96.77083779922299
 10
215.7435510199246
 20
96.69583779922297
 10
215.8685510199246
 20
96.59583779922298
 10
215.9935510199246
 20
96.47083779922298
 10
216.0185510199246
 20
96.44583779922297
 10
228.0685510199246
 20
96.44583779922297
 10
228.1935510199246
 20
96.44583779922297
 10
228.3435510199246
 20
96.42083779922297
 10
228.4435510199246
 20
96.37083779922295
 10
228.5685510199246
 20
96.29583779922297
 10
228.6435510199246
 20
96.19583779922297
 10
228.7185510199246
 20
96.09583779922298
 10
228.7685510199246
 20
95.97083779922298
 10
228.7935510199246
 20
95.84583779922298
 10
228.7935510199246
 20
78.84583779922298
  0
LWPOLYLINE
  5
75
330
1B
100
AcDbEntity
 67
     1
  8
0
  6
DURCHGEHEND
 62
     7
100
AcDbPolyline
 90
        9
 70
   129
 43
0.0
 10
216.4935510199246
 20
119.070837799223
 10
216.4935510199246
 20
119.070837799223
 10
216.4935510199246
 20
118.195837799223
 10
215.8685510199246
 20
117.570837799223
 10
214.9935510199246
 20
117.570837799223
 10
214.3685510199246
 20
118.195837799223
 10
214.3685510199246
 20
119.070837799223
 10
214.9935510199246
 20
119.695837799223
 10
215.8685510199246
 20
119.695837799223
  0
LWPOLYLINE
  5
76
330
1B
100
AcDbEntity
 67
     1
  8
0
  6
DURCHGEHEND
 62
     7
100
AcDbPolyline
 90
       43
 70
   129
 43
0.0
 10
207.6185510199246
 20
78.44583779922297
 10
207.6185510199246
 20
78.44583779922297
 10
207.6185510199246
 20
77.57083779922297
 10
206.9935510199246
 20
76.94583779922297
 10
206.1185510199246
 20
76.94583779922297
 10
205.4935510199246
 20
77.57083779922297
 10
205.4935510199246
 20
78.44583779922297
 10
205.8935510199246
 20
78.84583779922298
 10
205.8935510199246
 20
83.52083779922299
 10
205.8685510199246
 20
83.54583779922297
 10
205.7435510199246
 20
83.67083779922297
 10
205.6435510199246
 20
83.79583779922297
 10
205.5685510199246
 20
83.94583779922297
 10
205.5185510199246
 20
84.09583779922298
 10
205.4935510199246
 20
84.27083779922299
 10
205.4935510199246
 20
84.44583779922297
 10
205.5185510199246
 20
84.59583779922298
 10
205.5685510199246
 20
84.77083779922299
 10
205.6435510199246
 20
84.89583779922299
 10
205.7435510199246
 20
85.04583779922297
 10
205.8685510199246
 20
85.17083779922297
 10
205.9935510199246
 20
85.27083779922299
 10
206.1435510199246
 20
85.34583779922298
 10
206.2935510199246
 20
85.39583779922299
 10
206.4685510199246
 20
85.42083779922297
 10
206.6435510199246
 20
85.42083779922297
 10
206.7935510199246
 20
85.39583779922299
 10
206.9685510199246
 20
85.34583779922298
 10
207.1185510199246
 20
85.27083779922299
 10
207.2435510199246
 20
85.17083779922297
 10
207.3685510199246
 20
85.04583779922297
 10
207.4685510199246
 20
84.89583779922299
 10
207.5435510199246
 20
84.77083779922299
 10
207.5935510199246
 20
84.59583779922298
 10
207.6185510199246
 20
84.44583779922297
 10
207.6185510199246
 20
84.27083779922299
 10
207.5935510199246
 20
84.09583779922298
 10
207.5435510199246
 20
83.94583779922297
 10
207.4685510199246
 20
83.79583779922297
 10
207.3685510199246
 20
83.67083779922297
 10
207.2435510199246
 20
83.54583779922297
 10
207.2185510199246
 20
83.52083779922299
 10
207.2185510199246
 20
78.84583779922298
  0
LWPOLYLINE
  5
77
330
1B
100
AcDbEntity
 67
     1
  8
0
  6
DURCHGEHEND
 62
     7
100
AcDbPolyline
 90
       43
 70
   129
 43
0.0
 10
217.7685510199246
 20
78.44583779922297
 10
217.7685510199246
 20
78.44583779922297
 10
217.7685510199246
 20
77.57083779922297
 10
217.1435510199246
 20
76.94583779922297
 10
216.2685510199246
 20
76.94583779922297
 10
215.6435510199246
 20
77.57083779922297
 10
215.6435510199246
 20
78.44583779922297
 10
216.0435510199246
 20
78.84583779922298
 10
216.0435510199246
 20
83.52083779922299
 10
216.0185510199246
 20
83.54583779922297
 10
215.8935510199246
 20
83.67083779922297
 10
215.7935510199246
 20
83.79583779922297
 10
215.7185510199246
 20
83.94583779922297
 10
215.6685510199246
 20
84.09583779922298
 10
215.6435510199246
 20
84.27083779922299
 10
215.6435510199246
 20
84.44583779922297
 10
215.6685510199246
 20
84.59583779922298
 10
215.7185510199246
 20
84.77083779922299
 10
215.7935510199246
 20
84.89583779922299
 10
215.8935510199246
 20
85.04583779922297
 10
216.0185510199246
 20
85.17083779922297
 10
216.1435510199246
 20
85.27083779922299
 10
216.2935510199246
 20
85.34583779922298
 10
216.4685510199246
 20
85.39583779922299
 10
216.6185510199246
 20
85.42083779922297
 10
216.7935510199246
 20
85.42083779922297
 10
216.9685510199246
 20
85.39583779922299
 10
217.1185510199246
 20
85.34583779922298
 10
217.2685510199246
 20
85.27083779922299
 10
217.3935510199246
 20
85.17083779922297
 10
217.5185510199246
 20
85.04583779922297
 10
217.6185510199246
 20
84.89583779922299
 10
217.6935510199246
 20
84.77083779922299
 10
217.7435510199246
 20
84.59583779922298
 10
217.7685510199246
 20
84.44583779922297
 10
217.7685510199246
 20
84.27083779922299
 10
217.7435510199246
 20
84.09583779922298
 10
217.6935510199246
 20
83.94583779922297
 10
217.6185510199246
 20
83.79583779922297
 10
217.5185510199246
 20
83.67083779922297
 10
217.3935510199246
 20
83.54583779922297
 10
217.3685510199246
 20
83.52083779922299
 10
217.3685510199246
 20
78.84583779922298
  0
LWPOLYLINE
  5
78
330
1B
100
AcDbEntity
 67
     1
  8
0
  6
DURCHGEHEND
 62
     7
100
AcDbPolyline
 90
       43
 70
   129
 43
0.0
 10
215.2435510199246
 20
78.44583779922297
 10
215.2435510199246
 20
78.44583779922297
 10
215.2435510199246
 20
77.57083779922297
 10
214.6185510199246
 20
76.94583779922297
 10
213.7185510199246
 20
76.94583779922297
 10
213.1185510199246
 20
77.57083779922297
 10
213.1185510199246
 20
78.44583779922297
 10
213.5185510199246
 20
78.84583779922298
 10
213.5185510199246
 20
83.52083779922299
 10
213.4685510199246
 20
83.54583779922297
 10
213.3685510199246
 20
83.67083779922297
 10
213.2685510199246
 20
83.79583779922297
 10
213.1935510199246
 20
83.94583779922297
 10
213.1435510199246
 20
84.09583779922298
 10
213.1185510199246
 20
84.27083779922299
 10
213.1185510199246
 20
84.44583779922297
 10
213.1435510199246
 20
84.59583779922298
 10
213.1935510199246
 20
84.77083779922299
 10
213.2685510199246
 20
84.89583779922299
 10
213.3685510199246
 20
85.04583779922297
 10
213.4685510199246
 20
85.17083779922297
 10
213.6185510199246
 20
85.27083779922299
 10
213.7685510199246
 20
85.34583779922298
 10
213.9185510199246
 20
85.39583779922299
 10
214.0935510199246
 20
85.42083779922297
 10
214.2435510199246
 20
85.42083779922297
 10
214.4185510199246
 20
85.39583779922299
 10
214.5685510199246
 20
85.34583779922298
 10
214.7185510199246
 20
85.27083779922299
 10
214.8685510199246
 20
85.17083779922297
 10
214.9935510199246
 20
85.04583779922297
 10
215.0685510199246
 20
84.89583779922299
 10
215.1435510199246
 20
84.77083779922299
 10
215.2185510199246
 20
84.59583779922298
 10
215.2435510199246
 20
84.44583779922297
 10
215.2435510199246
 20
84.27083779922299
 10
215.2185510199246
 20
84.09583779922298
 10
215.1435510199246
 20
83.94583779922297
 10
215.0685510199246
 20
83.79583779922297
 10
214.9935510199246
 20
83.67083779922297
 10
214.8685510199246
 20
83.54583779922297
 10
214.8185510199246
 20
83.52083779922299
 10
214.8185510199246
 20
78.84583779922298
  0
LWPOLYLINE
  5
79
330
1B
100
AcDbEntity
 67
     1
  8
0
  6
DURCHGEHEND
 62
     7
100
AcDbPolyline
 90
       53
 70
   129
 43
0.0
 10
211.4185510199246
 20
119.070837799223
 10
211.4185510199246
 20
119.070837799223
 10
211.4185510199246
 20
118.195837799223
 10
211.0185510199246
 20
117.795837799223
 10
211.0185510199246
 20
112.945837799223
 10
217.1435510199246
 20
112.945837799223
 10
217.1685510199246
 20
112.970837799223
 10
217.2935510199246
 20
113.095837799223
 10
217.4185510199246
 20
113.195837799223
 10
217.5685510199246
 20
113.270837799223
 10
217.7435510199246
 20
113.320837799223
 10
217.8935510199246
 20
113.345837799223
 10
218.0685510199246
 20
113.345837799223
 10
218.2185510199246
 20
113.320837799223
 10
218.3935510199246
 20
113.270837799223
 10
218.5435510199246
 20
113.195837799223
 10
218.6685510199246
 20
113.095837799223
 10
218.7935510199246
 20
112.970837799223
 10
218.8935510199246
 20
112.845837799223
 10
218.9685510199246
 20
112.695837799223
 10
219.0185510199246
 20
112.545837799223
 10
219.0435510199246
 20
112.370837799223
 10
219.0435510199246
 20
112.195837799223
 10
219.0185510199246
 20
112.045837799223
 10
218.9685510199246
 20
111.870837799223
 10
218.8935510199246
 20
111.745837799223
 10
218.7935510199246
 20
111.595837799223
 10
218.6685510199246
 20
111.470837799223
 10
218.5435510199246
 20
111.370837799223
 10
218.3935510199246
 20
111.295837799223
 10
218.2185510199246
 20
111.245837799223
 10
218.0685510199246
 20
111.220837799223
 10
217.8935510199246
 20
111.220837799223
 10
217.7435510199246
 20
111.245837799223
 10
217.5685510199246
 20
111.295837799223
 10
217.4185510199246
 20
111.370837799223
 10
217.2935510199246
 20
111.470837799223
 10
217.1685510199246
 20
111.595837799223
 10
217.1435510199246
 20
111.645837799223
 10
210.4185510199246
 20
111.645837799223
 10
210.2935510199246
 20
111.645837799223
 10
210.1685510199246
 20
111.670837799223
 10
210.0435510199246
 20
111.720837799223
 10
209.9435510199246
 20
111.770837799223
 10
209.8435510199246
 20
111.870837799223
 10
209.7685510199246
 20
111.970837799223
 10
209.7185510199246
 20
112.095837799223
 10
209.6935510199246
 20
112.220837799223
 10
209.6935510199246
 20
117.795837799223
 10
209.2935510199246
 20
118.195837799223
 10
209.2935510199246
 20
119.070837799223
 10
209.9185510199246
 20
119.695837799223
 10
210.7935510199246
 20
119.695837799223
  0
LWPOLYLINE
  5
7A
330
1B
100
AcDbEntity
 67
     1
  8
0
  6
DURCHGEHEND
 62
     7
100
AcDbPolyline
 90
       53
 70
   129
 43
0.0
 10
213.9685510199246
 20
119.070837799223
 10
213.9685510199246
 20
119.070837799223
 10
213.9685510199246
 20
118.195837799223
 10
213.5685510199246
 20
117.795837799223
 10
213.5685510199246
 20
115.495837799223
 10
217.1435510199246
 20
115.495837799223
 10
217.1685510199246
 20
115.520837799223
 10
217.2935510199246
 20
115.645837799223
 10
217.4185510199246
 20
115.745837799223
 10
217.5685510199246
 20
115.820837799223
 10
217.7435510199246
 20
115.870837799223
 10
217.8935510199246
 20
115.895837799223
 10
218.0685510199246
 20
115.895837799223
 10
218.2185510199246
 20
115.870837799223
 10
218.3935510199246
 20
115.820837799223
 10
218.5435510199246
 20
115.745837799223
 10
218.6685510199246
 20
115.645837799223
 10
218.7935510199246
 20
115.520837799223
 10
218.8935510199246
 20
115.395837799223
 10
218.9685510199246
 20
115.245837799223
 10
219.0185510199246
 20
115.070837799223
 10
219.0435510199246
 20
114.920837799223
 10
219.0435510199246
 20
114.745837799223
 10
219.0185510199246
 20
114.570837799223
 10
218.9685510199246
 20
114.420837799223
 10
218.8935510199246
 20
114.270837799223
 10
218.7935510199246
 20
114.145837799223
 10
218.6685510199246
 20
114.020837799223
 10
218.5435510199246
 20
113.920837799223
 10
218.3935510199246
 20
113.845837799223
 10
218.2185510199246
 20
113.795837799223
 10
218.0685510199246
 20
113.770837799223
 10
217.8935510199246
 20
113.770837799223
 10
217.7435510199246
 20
113.795837799223
 10
217.5685510199246
 20
113.845837799223
 10
217.4185510199246
 20
113.920837799223
 10
217.2935510199246
 20
114.020837799223
 10
217.1685510199246
 20
114.145837799223
 10
217.1435510199246
 20
114.170837799223
 10
212.8435510199246
 20
114.170837799223
 10
212.7185510199246
 20
114.195837799223
 10
212.5935510199246
 20
114.245837799223
 10
212.4935510199246
 20
114.320837799223
 10
212.3935510199246
 20
114.420837799223
 10
212.3185510199246
 20
114.520837799223
 10
212.2685510199246
 20
114.645837799223
 10
212.2435510199246
 20
114.770837799223
 10
212.2435510199246
 20
114.895837799223
 10
212.2435510199246
 20
117.795837799223
 10
211.8435510199246
 20
118.195837799223
 10
211.8435510199246
 20
119.070837799223
 10
212.4685510199246
 20
119.695837799223
 10
213.3435510199246
 20
119.695837799223
  0
LWPOLYLINE
  5
7B
330
1B
100
AcDbEntity
 67
     1
  8
0
  6
DURCHGEHEND
 62
     7
100
AcDbPolyline
 90
       54
 70
   129
 43
0.0
 10
208.8935510199246
 20
119.070837799223
 10
208.8935510199246
 20
119.070837799223
 10
208.8935510199246
 20
118.195837799223
 10
208.4685510199246
 20
117.795837799223
 10
208.4685510199246
 20
99.64583779922299
 10
208.4685510199246
 20
99.64583779922299
 10
208.4685510199246
 20
99.52083779922299
 10
208.4435510199246
 20
99.39583779922299
 10
208.3935510199246
 20
99.27083779922299
 10
208.3185510199246
 20
99.17083779922297
 10
208.2435510199246
 20
99.07083779922297
 10
208.1435510199246
 20
99.02083779922299
 10
208.0185510199246
 20
98.97083779922298
 10
207.8935510199246
 20
98.94583779922297
 10
203.5685510199246
 20
98.94583779922297
 10
203.5435510199246
 20
98.89583779922299
 10
203.4435510199246
 20
98.77083779922299
 10
203.2935510199246
 20
98.67083779922297
 10
203.1435510199246
 20
98.59583779922298
 10
202.9935510199246
 20
98.54583779922297
 10
202.8185510199246
 20
98.52083779922299
 10
202.6685510199246
 20
98.52083779922299
 10
202.4935510199246
 20
98.54583779922297
 10
202.3435510199246
 20
98.59583779922298
 10
202.1935510199246
 20
98.67083779922297
 10
202.0435510199246
 20
98.77083779922299
 10
201.9185510199246
 20
98.89583779922299
 10
201.8435510199246
 20
99.04583779922297
 10
201.7435510199246
 20
99.17083779922297
 10
201.6935510199246
 20
99.34583779922298
 10
201.6685510199246
 20
99.49583779922298
 10
201.6685510199246
 20
99.67083779922302
 10
201.6935510199246
 20
99.845837799223
 10
201.7435510199246
 20
99.99583779922301
 10
201.8435510199246
 20
100.145837799223
 10
201.9185510199246
 20
100.270837799223
 10
202.0435510199246
 20
100.395837799223
 10
202.1935510199246
 20
100.495837799223
 10
202.3435510199246
 20
100.570837799223
 10
202.4935510199246
 20
100.620837799223
 10
202.6685510199246
 20
100.645837799223
 10
202.8185510199246
 20
100.645837799223
 10
202.9935510199246
 20
100.620837799223
 10
203.1435510199246
 20
100.570837799223
 10
203.2935510199246
 20
100.495837799223
 10
203.4435510199246
 20
100.395837799223
 10
203.5435510199246
 20
100.270837799223
 10
203.5685510199246
 20
100.245837799223
 10
207.1685510199246
 20
100.245837799223
 10
207.1685510199246
 20
117.795837799223
 10
206.7685510199246
 20
118.195837799223
 10
206.7685510199246
 20
119.070837799223
 10
207.3685510199246
 20
119.695837799223
 10
208.2685510199246
 20
119.695837799223
  0
LWPOLYLINE
  5
7C
330
1B
100
AcDbEntity
 67
     1
  8
0
  6
DURCHGEHEND
 62
     7
100
AcDbPolyline
 90
       53
 70
   129
 43
0.0
 10
206.3435510199246
 20
119.070837799223
 10
206.3435510199246
 20
119.070837799223
 10
206.3435510199246
 20
118.195837799223
 10
205.9435510199246
 20
117.795837799223
 10
205.9435510199246
 20
114.770837799223
 10
205.9185510199246
 20
114.645837799223
 10
205.8685510199246
 20
114.520837799223
 10
205.7935510199246
 20
114.420837799223
 10
205.6935510199246
 20
114.320837799223
 10
205.5935510199246
 20
114.245837799223
 10
205.4685510199246
 20
114.195837799223
 10
205.3435510199246
 20
114.170837799223
 10
205.2185510199246
 20
114.170837799223
 10
203.5685510199246
 20
114.170837799223
 10
203.5435510199246
 20
114.145837799223
 10
203.4435510199246
 20
114.020837799223
 10
203.2935510199246
 20
113.920837799223
 10
203.1435510199246
 20
113.845837799223
 10
202.9935510199246
 20
113.795837799223
 10
202.8185510199246
 20
113.770837799223
 10
202.6685510199246
 20
113.770837799223
 10
202.4935510199246
 20
113.795837799223
 10
202.3435510199246
 20
113.845837799223
 10
202.1935510199246
 20
113.920837799223
 10
202.0435510199246
 20
114.020837799223
 10
201.9185510199246
 20
114.145837799223
 10
201.8435510199246
 20
114.270837799223
 10
201.7435510199246
 20
114.420837799223
 10
201.6935510199246
 20
114.570837799223
 10
201.6685510199246
 20
114.745837799223
 10
201.6685510199246
 20
114.920837799223
 10
201.6935510199246
 20
115.070837799223
 10
201.7435510199246
 20
115.245837799223
 10
201.8435510199246
 20
115.395837799223
 10
201.9185510199246
 20
115.520837799223
 10
202.0435510199246
 20
115.645837799223
 10
202.1935510199246
 20
115.745837799223
 10
202.3435510199246
 20
115.820837799223
 10
202.4935510199246
 20
115.870837799223
 10
202.6685510199246
 20
115.895837799223
 10
202.8185510199246
 20
115.895837799223
 10
202.9935510199246
 20
115.870837799223
 10
203.1435510199246
 20
115.820837799223
 10
203.2935510199246
 20
115.745837799223
 10
203.4435510199246
 20
115.645837799223
 10
203.5435510199246
 20
115.520837799223
 10
203.5685510199246
 20
115.495837799223
 10
204.6185510199246
 20
115.495837799223
 10
204.6185510199246
 20
117.795837799223
 10
204.2185510199246
 20
118.195837799223
 10
204.2185510199246
 20
119.070837799223
 10
204.8435510199246
 20
119.695837799223
 10
205.7185510199246
 20
119.695837799223
  0
LWPOLYLINE
  5
7D
330
1B
100
AcDbEntity
 67
     1
  8
0
  6
DURCHGEHEND
 62
     7
100
AcDbPolyline
 90
       43
 70
   129
 43
0.0
 10
199.3685510199246
 20
106.145837799223
 10
199.3685510199246
 20
106.145837799223
 10
198.4935510199246
 20
106.145837799223
 10
197.8685510199246
 20
106.770837799223
 10
197.8685510199246
 20
107.645837799223
 10
198.4935510199246
 20
108.270837799223
 10
199.3685510199246
 20
108.270837799223
 10
199.7685510199246
 20
107.870837799223
 10
201.8935510199246
 20
107.870837799223
 10
201.9185510199246
 20
107.895837799223
 10
202.0435510199246
 20
108.020837799223
 10
202.1935510199246
 20
108.120837799223
 10
202.3435510199246
 20
108.195837799223
 10
202.4935510199246
 20
108.245837799223
 10
202.6685510199246
 20
108.270837799223
 10
202.8185510199246
 20
108.270837799223
 10
202.9935510199246
 20
108.245837799223
 10
203.1435510199246
 20
108.195837799223
 10
203.2935510199246
 20
108.120837799223
 10
203.4435510199246
 20
108.020837799223
 10
203.5435510199246
 20
107.895837799223
 10
203.6435510199246
 20
107.770837799223
 10
203.7185510199246
 20
107.620837799223
 10
203.7685510199246
 20
107.470837799223
 10
203.7935510199246
 20
107.295837799223
 10
203.7935510199246
 20
107.120837799223
 10
203.7685510199246
 20
106.970837799223
 10
203.7185510199246
 20
106.795837799223
 10
203.6435510199246
 20
106.645837799223
 10
203.5435510199246
 20
106.520837799223
 10
203.4435510199246
 20
106.395837799223
 10
203.2935510199246
 20
106.295837799223
 10
203.1435510199246
 20
106.220837799223
 10
202.9935510199246
 20
106.170837799223
 10
202.8185510199246
 20
106.145837799223
 10
202.6685510199246
 20
106.145837799223
 10
202.4935510199246
 20
106.170837799223
 10
202.3435510199246
 20
106.220837799223
 10
202.1935510199246
 20
106.295837799223
 10
202.0435510199246
 20
106.395837799223
 10
201.9185510199246
 20
106.520837799223
 10
201.8935510199246
 20
106.545837799223
 10
199.7685510199246
 20
106.545837799223
  0
LWPOLYLINE
  5
7E
330
1B
100
AcDbEntity
 67
     1
  8
0
  6
DURCHGEHEND
 62
     7
100
AcDbPolyline
 90
       43
 70
   129
 43
0.0
 10
199.3685510199246
 20
101.070837799223
 10
199.3685510199246
 20
101.070837799223
 10
198.4935510199246
 20
101.070837799223
 10
197.8685510199246
 20
101.695837799223
 10
197.8685510199246
 20
102.570837799223
 10
198.4935510199246
 20
103.195837799223
 10
199.3685510199246
 20
103.195837799223
 10
199.7685510199246
 20
102.795837799223
 10
201.8935510199246
 20
102.795837799223
 10
201.9185510199246
 20
102.820837799223
 10
202.0435510199246
 20
102.945837799223
 10
202.1935510199246
 20
103.045837799223
 10
202.3435510199246
 20
103.120837799223
 10
202.4935510199246
 20
103.170837799223
 10
202.6685510199246
 20
103.195837799223
 10
202.8185510199246
 20
103.195837799223
 10
202.9935510199246
 20
103.170837799223
 10
203.1435510199246
 20
103.120837799223
 10
203.2935510199246
 20
103.045837799223
 10
203.4435510199246
 20
102.945837799223
 10
203.5435510199246
 20
102.820837799223
 10
203.6435510199246
 20
102.695837799223
 10
203.7185510199246
 20
102.545837799223
 10
203.7685510199246
 20
102.370837799223
 10
203.7935510199246
 20
102.220837799223
 10
203.7935510199246
 20
102.045837799223
 10
203.7685510199246
 20
101.870837799223
 10
203.7185510199246
 20
101.720837799223
 10
203.6435510199246
 20
101.570837799223
 10
203.5435510199246
 20
101.445837799223
 10
203.4435510199246
 20
101.320837799223
 10
203.2935510199246
 20
101.220837799223
 10
203.1435510199246
 20
101.145837799223
 10
202.9935510199246
 20
101.095837799223
 10
202.8185510199246
 20
101.070837799223
 10
202.6685510199246
 20
101.070837799223
 10
202.4935510199246
 20
101.095837799223
 10
202.3435510199246
 20
101.145837799223
 10
202.1935510199246
 20
101.220837799223
 10
202.0435510199246
 20
101.320837799223
 10
201.9185510199246
 20
101.445837799223
 10
201.8935510199246
 20
101.470837799223
 10
199.7685510199246
 20
101.470837799223
  0
LINE
  5
7F
330
1B
100
AcDbEntity
 67
     1
  8
BOHRUNGEN
  6
DURCHGEHEND
 62
     1
100
AcDbLine
 10
204.0185510199246
 20
84.34583779922298
 30
0.0
 11
204.0185510199246
 21
84.34583779922298
 31
0.0
  0
LINE
  5
80
330
1B
100
AcDbEntity
 67
     1
  8
BOHRUNGEN
  6
DURCHGEHEND
 62
     1
100
AcDbLine
 10
206.5435510199246
 20
84.34583779922298
 30
0.0
 11
206.5435510199246
 21
84.34583779922298
 31
0.0
  0
LINE
  5
81
330
1B
100
AcDbEntity
 67
     1
  8
BOHRUNGEN
  6
DURCHGEHEND
 62
     1
100
AcDbLine
 10
209.0935510199246
 20
84.34583779922298
 30
0.0
 11
209.0935510199246
 21
84.34583779922298
 31
0.0
  0
LINE
  5
82
330
1B
100
AcDbEntity
 67
     1
  8
BOHRUNGEN
  6
DURCHGEHEND
 62
     1
100
AcDbLine
 10
211.6185510199246
 20
84.34583779922298
 30
0.0
 11
211.6185510199246
 21
84.34583779922298
 31
0.0
  0
LINE
  5
83
330
1B
100
AcDbEntity
 67
     1
  8
BOHRUNGEN
  6
DURCHGEHEND
 62
     1
100
AcDbLine
 10
214.1685510199246
 20
84.34583779922298
 30
0.0
 11
214.1685510199246
 21
84.34583779922298
 31
0.0
  0
LINE
  5
84
330
1B
100
AcDbEntity
 67
     1
  8
BOHRUNGEN
  6
DURCHGEHEND
 62
     1
100
AcDbLine
 10
216.7185510199246
 20
84.34583779922298
 30
0.0
 11
216.7185510199246
 21
84.34583779922298
 31
0.0
  0
LINE
  5
85
330
1B
100
AcDbEntity
 67
     1
  8
BOHRUNGEN
  6
DURCHGEHEND
 62
     1
100
AcDbLine
 10
217.9685510199246
 20
86.89583779922299
 30
0.0
 11
217.9685510199246
 21
86.89583779922299
 31
0.0
  0
LINE
  5
86
330
1B
100
AcDbEntity
 67
     1
  8
BOHRUNGEN
  6
DURCHGEHEND
 62
     1
100
AcDbLine
 10
217.9685510199246
 20
89.42083779922297
 30
0.0
 11
217.9685510199246
 21
89.42083779922297
 31
0.0
  0
LINE
  5
87
330
1B
100
AcDbEntity
 67
     1
  8
BOHRUNGEN
  6
DURCHGEHEND
 62
     1
100
AcDbLine
 10
217.9685510199246
 20
109.745837799223
 30
0.0
 11
217.9685510199246
 21
109.745837799223
 31
0.0
  0
LINE
  5
88
330
1B
100
AcDbEntity
 67
     1
  8
BOHRUNGEN
  6
DURCHGEHEND
 62
     1
100
AcDbLine
 10
217.9685510199246
 20
112.295837799223
 30
0.0
 11
217.9685510199246
 21
112.295837799223
 31
0.0
  0
LINE
  5
89
330
1B
100
AcDbEntity
 67
     1
  8
BOHRUNGEN
  6
DURCHGEHEND
 62
     1
100
AcDbLine
 10
217.9685510199246
 20
114.820837799223
 30
0.0
 11
217.9685510199246
 21
114.820837799223
 31
0.0
  0
LINE
  5
8A
330
1B
100
AcDbEntity
 67
     1
  8
BOHRUNGEN
  6
DURCHGEHEND
 62
     1
100
AcDbLine
 10
202.7435510199246
 20
114.820837799223
 30
0.0
 11
202.7435510199246
 21
114.820837799223
 31
0.0
  0
LINE
  5
8B
330
1B
100
AcDbEntity
 67
     1
  8
BOHRUNGEN
  6
DURCHGEHEND
 62
     1
100
AcDbLine
 10
202.7435510199246
 20
109.745837799223
 30
0.0
 11
202.7435510199246
 21
109.745837799223
 31
0.0
  0
LINE
  5
8C
330
1B
100
AcDbEntity
 67
     1
  8
BOHRUNGEN
  6
DURCHGEHEND
 62
     1
100
AcDbLine
 10
202.7435510199246
 20
107.220837799223
 30
0.0
 11
202.7435510199246
 21
107.220837799223
 31
0.0
  0
LINE
  5
8D
330
1B
100
AcDbEntity
 67
     1
  8
BOHRUNGEN
  6
DURCHGEHEND
 62
     1
100
AcDbLine
 10
202.7435510199246
 20
104.670837799223
 30
0.0
 11
202.7435510199246
 21
104.670837799223
 31
0.0
  0
LINE
  5
90
102
{ACAD_XDICTIONARY
360
8E
102
}
330
1B
100
AcDbEntity
 67
     1
  8
BOHRUNGEN
  6
DURCHGEHEND
 62
     1
100
AcDbLine
 10
202.7435510199246
 20
102.120837799223
 30
0.0
 11
202.7435510199246
 21
102.120837799223
 31
0.0
  0
LINE
  5
91
330
1B
100
AcDbEntity
 67
     1
  8
BOHRUNGEN
  6
DURCHGEHEND
 62
     1
100
AcDbLine
 10
202.7435510199246
 20
99.59583779922298
 30
0.0
 11
202.7435510199246
 21
99.59583779922298
 31
0.0
  0
LINE
  5
92
330
1B
100
AcDbEntity
 67
     1
  8
BOHRUNGEN
  6
DURCHGEHEND
 62
     1
100
AcDbLine
 10
202.7435510199246
 20
97.04583779922297
 30
0.0
 11
202.7435510199246
 21
97.04583779922297
 31
0.0
  0
LINE
  5
93
330
1B
100
AcDbEntity
 67
     1
  8
BOHRUNGEN
  6
DURCHGEHEND
 62
     1
100
AcDbLine
 10
215.1935510199246
 20
98.32083779922297
 30
0.0
 11
215.1935510199246
 21
98.32083779922297
 31
0.0
  0
LINE
  5
94
330
1B
100
AcDbEntity
 67
     1
  8
BOHRUNGEN
  6
DURCHGEHEND
 62
     1
100
AcDbLine
 10
215.1935510199246
 20
95.77083779922299
 30
0.0
 11
215.1935510199246
 21
95.77083779922299
 31
0.0
  0
LINE
  5
95
330
1B
100
AcDbEntity
 67
     1
  8
BOHRUNGEN
  6
DURCHGEHEND
 62
     1
100
AcDbLine
 10
193.8435510199246
 20
97.04583779922297
 30
0.0
 11
193.8435510199246
 21
97.04583779922297
 31
0.0
  0
LINE
  5
96
330
1B
100
AcDbEntity
 67
     1
  8
BOHRUNGEN
  6
DURCHGEHEND
 62
     1
100
AcDbLine
 10
196.3935510199246
 20
97.04583779922297
 30
0.0
 11
196.3935510199246
 21
97.04583779922297
 31
0.0
  0
LINE
  5
97
330
1B
100
AcDbEntity
 67
     1
  8
BOHRUNGEN
  6
DURCHGEHEND
 62
     1
100
AcDbLine
 10
198.9185510199246
 20
97.04583779922297
 30
0.0
 11
198.9185510199246
 21
97.04583779922297
 31
0.0
  0
LINE
  5
98
330
1B
100
AcDbEntity
 67
     1
  8
BOHRUNGEN
  6
DURCHGEHEND
 62
     1
100
AcDbLine
 10
193.8435510199246
 20
102.120837799223
 30
0.0
 11
193.8435510199246
 21
102.120837799223
 31
0.0
  0
LINE
  5
99
330
1B
100
AcDbEntity
 67
     1
  8
BOHRUNGEN
  6
DURCHGEHEND
 62
     1
100
AcDbLine
 10
196.3935510199246
 20
102.120837799223
 30
0.0
 11
196.3935510199246
 21
102.120837799223
 31
0.0
  0
LINE
  5
9A
330
1B
100
AcDbEntity
 67
     1
  8
BOHRUNGEN
  6
DURCHGEHEND
 62
     1
100
AcDbLine
 10
198.9185510199246
 20
102.120837799223
 30
0.0
 11
198.9185510199246
 21
102.120837799223
 31
0.0
  0
LINE
  5
9B
330
1B
100
AcDbEntity
 67
     1
  8
BOHRUNGEN
  6
DURCHGEHEND
 62
     1
100
AcDbLine
 10
193.8435510199246
 20
104.670837799223
 30
0.0
 11
193.8435510199246
 21
104.670837799223
 31
0.0
  0
LINE
  5
9C
330
1B
100
AcDbEntity
 67
     1
  8
BOHRUNGEN
  6
DURCHGEHEND
 62
     1
100
AcDbLine
 10
196.3935510199246
 20
104.670837799223
 30
0.0
 11
196.3935510199246
 21
104.670837799223
 31
0.0
  0
LINE
  5
9D
330
1B
100
AcDbEntity
 67
     1
  8
BOHRUNGEN
  6
DURCHGEHEND
 62
     1
100
AcDbLine
 10
198.9185510199246
 20
104.670837799223
 30
0.0
 11
198.9185510199246
 21
104.670837799223
 31
0.0
  0
LINE
  5
9E
330
1B
100
AcDbEntity
 67
     1
  8
BOHRUNGEN
  6
DURCHGEHEND
 62
     1
100
AcDbLine
 10
193.8435510199246
 20
107.220837799223
 30
0.0
 11
193.8435510199246
 21
107.220837799223
 31
0.0
  0
LINE
  5
9F
330
1B
100
AcDbEntity
 67
     1
  8
BOHRUNGEN
  6
DURCHGEHEND
 62
     1
100
AcDbLine
 10
196.3935510199246
 20
107.220837799223
 30
0.0
 11
196.3935510199246
 21
107.220837799223
 31
0.0
  0
LINE
  5
A0
330
1B
100
AcDbEntity
 67
     1
  8
BOHRUNGEN
  6
DURCHGEHEND
 62
     1
100
AcDbLine
 10
198.9185510199246
 20
107.220837799223
 30
0.0
 11
198.9185510199246
 21
107.220837799223
 31
0.0
  0
LINE
  5
A1
330
1B
100
AcDbEntity
 67
     1
  8
BOHRUNGEN
  6
DURCHGEHEND
 62
     1
100
AcDbLine
 10
193.8435510199246
 20
109.745837799223
 30
0.0
 11
193.8435510199246
 21
109.745837799223
 31
0.0
  0
LINE
  5
A2
330
1B
100
AcDbEntity
 67
     1
  8
BOHRUNGEN
  6
DURCHGEHEND
 62
     1
100
AcDbLine
 10
196.3935510199246
 20
109.745837799223
 30
0.0
 11
196.3935510199246
 21
109.745837799223
 31
0.0
  0
LINE
  5
A3
330
1B
100
AcDbEntity
 67
     1
  8
BOHRUNGEN
  6
DURCHGEHEND
 62
     1
100
AcDbLine
 10
198.9185510199246
 20
109.745837799223
 30
0.0
 11
198.9185510199246
 21
109.745837799223
 31
0.0
  0
LINE
  5
A6
102
{ACAD_XDICTIONARY
360
A4
102
}
330
1B
100
AcDbEntity
 67
     1
  8
BOHRUNGEN
  6
DURCHGEHEND
 62
     1
100
AcDbLine
 10
205.2685510199246
 20
123.720837799223
 30
0.0
 11
205.2685510199246
 21
123.720837799223
 31
0.0
  0
LINE
  5
A7
330
1B
100
AcDbEntity
 67
     1
  8
BOHRUNGEN
  6
DURCHGEHEND
 62
     1
100
AcDbLine
 10
205.2685510199246
 20
121.170837799223
 30
0.0
 11
205.2685510199246
 21
121.170837799223
 31
0.0
  0
LINE
  5
A8
330
1B
100
AcDbEntity
 67
     1
  8
BOHRUNGEN
  6
DURCHGEHEND
 62
     1
100
AcDbLine
 10
205.2685510199246
 20
118.645837799223
 30
0.0
 11
205.2685510199246
 21
118.645837799223
 31
0.0
  0
LINE
  5
AB
102
{ACAD_XDICTIONARY
360
A9
102
}
330
1B
100
AcDbEntity
 67
     1
  8
BOHRUNGEN
  6
DURCHGEHEND
 62
     1
100
AcDbLine
 10
207.8185510199246
 20
123.720837799223
 30
0.0
 11
207.8185510199246
 21
123.720837799223
 31
0.0
  0
LINE
  5
AC
330
1B
100
AcDbEntity
 67
     1
  8
BOHRUNGEN
  6
DURCHGEHEND
 62
     1
100
AcDbLine
 10
207.8185510199246
 20
121.170837799223
 30
0.0
 11
207.8185510199246
 21
121.170837799223
 31
0.0
  0
LINE
  5
AD
330
1B
100
AcDbEntity
 67
     1
  8
BOHRUNGEN
  6
DURCHGEHEND
 62
     1
100
AcDbLine
 10
207.8185510199246
 20
118.645837799223
 30
0.0
 11
207.8185510199246
 21
118.645837799223
 31
0.0
  0
LINE
  5
AE
330
1B
100
AcDbEntity
 67
     1
  8
BOHRUNGEN
  6
DURCHGEHEND
 62
     1
100
AcDbLine
 10
212.8935510199246
 20
123.720837799223
 30
0.0
 11
212.8935510199246
 21
123.720837799223
 31
0.0
  0
LINE
  5
AF
330
1B
100
AcDbEntity
 67
     1
  8
BOHRUNGEN
  6
DURCHGEHEND
 62
     1
100
AcDbLine
 10
212.8935510199246
 20
121.170837799223
 30
0.0
 11
212.8935510199246
 21
121.170837799223
 31
0.0
  0
LINE
  5
B0
330
1B
100
AcDbEntity
 67
     1
  8
BOHRUNGEN
  6
DURCHGEHEND
 62
     1
100
AcDbLine
 10
212.8935510199246
 20
118.645837799223
 30
0.0
 11
212.8935510199246
 21
118.645837799223
 31
0.0
  0
LINE
  5
B1
330
1B
100
AcDbEntity
 67
     1
  8
BOHRUNGEN
  6
DURCHGEHEND
 62
     1
100
AcDbLine
 10
210.3685510199246
 20
123.720837799223
 30
0.0
 11
210.3685510199246
 21
123.720837799223
 31
0.0
  0
LINE
  5
B2
330
1B
100
AcDbEntity
 67
     1
  8
BOHRUNGEN
  6
DURCHGEHEND
 62
     1
100
AcDbLine
 10
210.3685510199246
 20
121.170837799223
 30
0.0
 11
210.3685510199246
 21
121.170837799223
 31
0.0
  0
LINE
  5
B3
330
1B
100
AcDbEntity
 67
     1
  8
BOHRUNGEN
  6
DURCHGEHEND
 62
     1
100
AcDbLine
 10
210.3685510199246
 20
118.645837799223
 30
0.0
 11
210.3685510199246
 21
118.645837799223
 31
0.0
  0
LINE
  5
B4
330
1B
100
AcDbEntity
 67
     1
  8
BOHRUNGEN
  6
DURCHGEHEND
 62
     1
100
AcDbLine
 10
211.6185510199246
 20
77.99583779922298
 30
0.0
 11
211.6185510199246
 21
77.99583779922298
 31
0.0
  0
LINE
  5
B5
330
1B
100
AcDbEntity
 67
     1
  8
BOHRUNGEN
  6
DURCHGEHEND
 62
     1
100
AcDbLine
 10
214.1685510199246
 20
77.99583779922298
 30
0.0
 11
214.1685510199246
 21
77.99583779922298
 31
0.0
  0
LINE
  5
B6
330
1B
100
AcDbEntity
 67
     1
  8
BOHRUNGEN
  6
DURCHGEHEND
 62
     1
100
AcDbLine
 10
216.7185510199246
 20
77.99583779922298
 30
0.0
 11
216.7185510199246
 21
77.99583779922298
 31
0.0
  0
LINE
  5
B7
330
1B
100
AcDbEntity
 67
     1
  8
BOHRUNGEN
  6
DURCHGEHEND
 62
     1
100
AcDbLine
 10
209.0935510199246
 20
77.99583779922298
 30
0.0
 11
209.0935510199246
 21
77.99583779922298
 31
0.0
  0
LINE
  5
B8
330
1B
100
AcDbEntity
 67
     1
  8
BOHRUNGEN
  6
DURCHGEHEND
 62
     1
100
AcDbLine
 10
206.5435510199246
 20
77.99583779922298
 30
0.0
 11
206.5435510199246
 21
77.99583779922298
 31
0.0
  0
LINE
  5
B9
330
1B
100
AcDbEntity
 67
     1
  8
BOHRUNGEN
  6
DURCHGEHEND
 62
     1
100
AcDbLine
 10
204.0185510199246
 20
77.99583779922298
 30
0.0
 11
204.0185510199246
 21
77.99583779922298
 31
0.0
  0
LINE
  5
BA
330
1B
100
AcDbEntity
 67
     1
  8
BOHRUNGEN
  6
DURCHGEHEND
 62
     1
100
AcDbLine
 10
215.4435510199246
 20
123.720837799223
 30
0.0
 11
215.4435510199246
 21
123.720837799223
 31
0.0
  0
LINE
  5
BB
330
1B
100
AcDbEntity
 67
     1
  8
BOHRUNGEN
  6
DURCHGEHEND
 62
     1
100
AcDbLine
 10
215.4435510199246
 20
121.170837799223
 30
0.0
 11
215.4435510199246
 21
121.170837799223
 31
0.0
  0
LINE
  5
BC
330
1B
100
AcDbEntity
 67
     1
  8
BOHRUNGEN
  6
DURCHGEHEND
 62
     1
100
AcDbLine
 10
215.4435510199246
 20
118.645837799223
 30
0.0
 11
215.4435510199246
 21
118.645837799223
 31
0.0
  0
LINE
  5
BD
330
1B
100
AcDbEntity
 67
     1
  8
BOHRUNGEN
  6
DURCHGEHEND
 62
     1
100
AcDbLine
 10
225.5935510199246
 20
77.99583779922298
 30
0.0
 11
225.5935510199246
 21
77.99583779922298
 31
0.0
  0
LINE
  5
BE
330
1B
100
AcDbEntity
 67
     1
  8
BOHRUNGEN
  6
DURCHGEHEND
 62
     1
100
AcDbLine
 10
228.1435510199246
 20
77.99583779922298
 30
0.0
 11
228.1435510199246
 21
77.99583779922298
 31
0.0
  0
LINE
  5
BF
330
1B
100
AcDbEntity
 67
     1
  8
BOHRUNGEN
  6
DURCHGEHEND
 62
     1
100
AcDbLine
 10
230.6685510199246
 20
77.99583779922298
 30
0.0
 11
230.6685510199246
 21
77.99583779922298
 31
0.0
  0
LINE
  5
C0
330
1B
100
AcDbEntity
 67
     1
  8
BOHRUNGEN
  6
DURCHGEHEND
 62
     1
100
AcDbLine
 10
233.2185510199246
 20
77.99583779922298
 30
0.0
 11
233.2185510199246
 21
77.99583779922298
 31
0.0
  0
CIRCLE
  5
C3
102
{ACAD_XDICTIONARY
360
C1
102
}
330
1B
100
AcDbEntity
 67
     1
  8
AUSFRAESEN_RAND
  6
DURCHGEHEND
 62
    69
100
AcDbCircle
 10
219.0
 20
99.66643422523751
 30
0.0
 40
35.80819215902865
  0
CIRCLE
  5
C6
102
{ACAD_XDICTIONARY
360
C4
102
}
330
1B
100
AcDbEntity
 67
     1
  8
KONTUREN_FRAESEN
  6
DURCHGEHEND
 62
     5
100
AcDbCircle
 10
219.2435510199246
 20
131.3458377992229
 30
0.0
 40
1.59999999999998
  0
CIRCLE
  5
C9
102
{ACAD_XDICTIONARY
360
C7
102
}
330
1B
100
AcDbEntity
 67
     1
  8
KONTUREN_FRAESEN
  6
DURCHGEHEND
 62
     5
100
AcDbCircle
 10
250.9935510199246
 20
99.59583779922298
 30
0.0
 40
1.599999999999966
  0
CIRCLE
  5
CC
102
{ACAD_XDICTIONARY
360
CA
102
}
330
1B
100
AcDbEntity
 67
     1
  8
KONTUREN_FRAESEN
  6
DURCHGEHEND
 62
     5
100
AcDbCircle
 10
219.2435510199246
 20
67.84583779922298
 30
0.0
 40
1.599999999999966
  0
CIRCLE
  5
CF
102
{ACAD_XDICTIONARY
360
CD
102
}
330
1B
100
AcDbEntity
 67
     1
  8
KONTUREN_FRAESEN
  6
DURCHGEHEND
 62
     5
100
AcDbCircle
 10
187.4935510199246
 20
99.59583779922298
 30
0.0
 40
1.599999999999966
  0
LWPOLYLINE
  5
D2
102
{ACAD_XDICTIONARY
360
D0
102
}
330
1B
100
AcDbEntity
 67
     1
  8
SCHRIFT
100
AcDbPolyline
 90
        5
 70
   128
 43
0.0
 10
240.0081743566748
 20
85.50970708741684
 10
243.0081743566748
 20
86.50970708741684
 10
241.5081743566748
 20
87.00970708741684
 10
243.0081743566748
 20
87.50970708741684
 10
240.0081743566748
 20
88.50970708741684
  0
LINE
  5
D5
102
{ACAD_XDICTIONARY
360
D3
102
}
330
1B
100
AcDbEntity
 67
     1
  8
SCHRIFT
100
AcDbLine
 10
243.0081743566748
 20
90.00970708741681
 30
0.0
 11
240.0081743566748
 21
90.00970708741681
 31
0.0
  0
LINE
  5
D8
102
{ACAD_XDICTIONARY
360
D6
102
}
330
1B
100
AcDbEntity
 67
     1
  8
SCHRIFT
100
AcDbLine
 10
243.0081743566747
 20
92.00970708741681
 30
0.0
 11
240.0081743566747
 21
92.00970708741681
 31
0.0
  0
LWPOLYLINE
  5
DB
102
{ACAD_XDICTIONARY
360
D9
102
}
330
1B
100
AcDbEntity
 67
     1
  8
SCHRIFT
100
AcDbPolyline
 90
        8
 70
   128
 43
0.0
 10
240.5081743566747
 20
98.50970708741679
 10
240.0081743566747
 20
98.00970708741679
 10
240.0081743566747
 20
97.00970708741679
 10
240.5081743566747
 20
96.50970708741679
 10
242.5081743566747
 20
96.50970708741679
 10
243.0081743566747
 20
97.00970708741679
 10
243.0081743566747
 20
98.00970708741679
 10
242.5081743566747
 20
98.50970708741679
  0
LWPOLYLINE
  5
DE
102
{ACAD_XDICTIONARY
360
DC
102
}
330
1B
100
AcDbEntity
 67
     1
  8
SCHRIFT
100
AcDbPolyline
 90
        4
 70
   129
 43
0.0
 10
243.0081743566747
 20
99.50970708741676
 10
243.0081743566747
 20
101.5097070874168
 10
240.0081743566747
 20
101.5097070874168
 10
240.0081743566747
 20
99.50970708741676
  0
LWPOLYLINE
  5
E1
102
{ACAD_XDICTIONARY
360
DF
102
}
330
1B
100
AcDbEntity
 67
     1
  8
SCHRIFT
100
AcDbPolyline
 90
        7
 70
   128
 43
0.0
 10
243.0081743566747
 20
102.5097070874167
 10
240.0081743566747
 20
102.5097070874167
 10
240.0081743566747
 20
104.0097070874167
 10
240.5081743566747
 20
104.5097070874167
 10
241.0081743566747
 20
104.5097070874167
 10
241.5081743566747
 20
104.0097070874167
 10
241.5081743566747
 20
102.5097070874167
  0
LINE
  5
E4
102
{ACAD_XDICTIONARY
360
E2
102
}
330
1B
100
AcDbEntity
 67
     1
  8
SCHRIFT
100
AcDbLine
 10
243.0081743566747
 20
106.5097070874167
 30
0.0
 11
240.0081743566747
 21
106.5097070874167
 31
0.0
  0
LINE
  5
E7
102
{ACAD_XDICTIONARY
360
E5
102
}
330
1B
100
AcDbEntity
 67
     1
  8
SCHRIFT
100
AcDbLine
 10
240.0081743566747
 20
105.5097070874167
 30
0.0
 11
240.0081743566747
 21
107.5097070874167
 31
0.0
  0
LWPOLYLINE
  5
EA
102
{ACAD_XDICTIONARY
360
E8
102
}
330
1B
100
AcDbEntity
 67
     1
  8
SCHRIFT
100
AcDbPolyline
 90
        4
 70
   128
 43
0.0
 10
243.0081743566747
 20
110.5097070874167
 10
243.0081743566747
 20
108.5097070874167
 10
240.0081743566747
 20
108.5097070874167
 10
240.0081743566747
 20
110.5097070874167
  0
LINE
  5
ED
102
{ACAD_XDICTIONARY
360
EB
102
}
330
1B
100
AcDbEntity
 67
     1
  8
SCHRIFT
100
AcDbLine
 10
241.5081743566747
 20
108.5097070874167
 30
0.0
 11
241.5081743566747
 21
109.5097070874167
 31
0.0
  0
LWPOLYLINE
  5
F0
102
{ACAD_XDICTIONARY
360
EE
102
}
330
1B
100
AcDbEntity
 67
     1
  8
SCHRIFT
100
AcDbPolyline
 90
        7
 70
   128
 43
0.0
 10
243.0081743566747
 20
111.5097070874167
 10
240.0081743566747
 20
111.5097070874167
 10
240.0081743566747
 20
113.0097070874167
 10
240.5081743566747
 20
113.5097070874167
 10
241.0081743566747
 20
113.5097070874167
 10
241.5081743566747
 20
113.0097070874167
 10
241.5081743566747
 20
111.5097070874167
  0
LINE
  5
F3
102
{ACAD_XDICTIONARY
360
F1
102
}
330
1B
100
AcDbEntity
 67
     1
  8
SCHRIFT
100
AcDbLine
 10
241.5081743566747
 20
112.0097070874167
 30
0.0
 11
243.0081743566747
 21
113.5097070874167
 31
0.0
  0
CIRCLE
  5
F6
102
{ACAD_XDICTIONARY
360
F4
102
}
330
1B
100
AcDbEntity
 67
     1
  8
BEFESTIGUNGSBOHRUNG
  6
DURCHGEHEND
100
AcDbCircle
 10
107.0
 20
131.6664342252375
 30
0.0
 40
1.75
  0
CIRCLE
  5
F9
102
{ACAD_XDICTIONARY
360
F7
102
}
330
1B
100
AcDbEntity
 67
     1
  8
BEFESTIGUNGSBOHRUNG
  6
DURCHGEHEND
100
AcDbCircle
 10
179.0
 20
119.6664342252375
 30
0.0
 40
1.75
  0
CIRCLE
  5
FC
102
{ACAD_XDICTIONARY
360
FA
102
}
330
1B
100
AcDbEntity
 67
     1
  8
BEFESTIGUNGSBOHRUNG
  6
DURCHGEHEND
100
AcDbCircle
 10
107.0
 20
69.66643422523751
 30
0.0
 40
1.75
  0
CIRCLE
  5
FF
102
{ACAD_XDICTIONARY
360
FD
102
}
330
1B
100
AcDbEntity
 67
     1
  8
BEFESTIGUNGSBOHRUNG
  6
DURCHGEHEND
100
AcDbCircle
 10
179.0
 20
79.66643422523751
 30
0.0
 40
1.75
  0
LWPOLYLINE
  5
100
330
1B
100
AcDbEntity
 67
     1
  8
0
  6
DURCHGEHEND
 62
     7
100
AcDbPolyline
 90
       43
 70
   129
 43
0.0
 10
283.7935510199245
 20
97.14583779922299
 10
283.7935510199245
 20
97.14583779922299
 10
283.7935510199245
 20
96.97083779922298
 10
283.7685510199246
 20
96.79583779922297
 10
283.7185510199246
 20
96.64583779922299
 10
283.6435510199246
 20
96.49583779922295
 10
283.5435510199245
 20
96.37083779922295
 10
283.4435510199246
 20
96.24583779922295
 10
283.2935510199245
 20
96.14583779922299
 10
283.1435510199246
 20
96.07083779922297
 10
282.9935510199246
 20
96.02083779922299
 10
282.8185510199246
 20
95.99583779922295
 10
282.6685510199245
 20
95.99583779922295
 10
282.4935510199246
 20
96.02083779922299
 10
282.3435510199246
 20
96.07083779922297
 10
282.1935510199246
 20
96.14583779922299
 10
282.0435510199245
 20
96.24583779922295
 10
281.9185510199245
 20
96.37083779922295
 10
281.8935510199246
 20
96.39583779922299
 10
279.7685510199246
 20
96.39583779922299
 10
279.3685510199246
 20
95.99583779922295
 10
278.4935510199246
 20
95.99583779922295
 10
277.8685510199246
 20
96.62083779922295
 10
277.8685510199246
 20
97.49583779922295
 10
278.4935510199246
 20
98.12083779922298
 10
279.3685510199246
 20
98.12083779922298
 10
279.7685510199246
 20
97.69583779922297
 10
281.8935510199246
 20
97.69583779922297
 10
281.9185510199245
 20
97.74583779922298
 10
282.0435510199245
 20
97.87083779922298
 10
282.1935510199246
 20
97.97083779922298
 10
282.3435510199246
 20
98.04583779922297
 10
282.4935510199246
 20
98.09583779922298
 10
282.6685510199245
 20
98.12083779922298
 10
282.8185510199246
 20
98.12083779922298
 10
282.9935510199246
 20
98.09583779922298
 10
283.1435510199246
 20
98.04583779922297
 10
283.2935510199245
 20
97.97083779922298
 10
283.4435510199246
 20
97.87083779922298
 10
283.5435510199245
 20
97.74583779922298
 10
283.6435510199246
 20
97.59583779922298
 10
283.7185510199246
 20
97.47083779922298
 10
283.7685510199246
 20
97.29583779922297
  0
LWPOLYLINE
  5
101
330
1B
100
AcDbEntity
 67
     1
  8
0
  6
DURCHGEHEND
 62
     7
100
AcDbPolyline
 90
       43
 70
   129
 43
0.0
 10
283.7935510199245
 20
104.7458377992229
 10
283.7935510199245
 20
104.7458377992229
 10
283.7935510199245
 20
104.595837799223
 10
283.7685510199246
 20
104.420837799223
 10
283.7185510199246
 20
104.270837799223
 10
283.6435510199246
 20
104.1208377992229
 10
283.5435510199245
 20
103.970837799223
 10
283.4435510199246
 20
103.8708377992229
 10
283.2935510199245
 20
103.770837799223
 10
283.1435510199246
 20
103.6958377992229
 10
282.9935510199246
 20
103.645837799223
 10
282.8185510199246
 20
103.595837799223
 10
282.6685510199245
 20
103.595837799223
 10
282.4935510199246
 20
103.645837799223
 10
282.3435510199246
 20
103.6958377992229
 10
282.1935510199246
 20
103.770837799223
 10
282.0435510199245
 20
103.8708377992229
 10
281.9185510199245
 20
103.970837799223
 10
281.8935510199246
 20
104.020837799223
 10
279.7685510199246
 20
104.020837799223
 10
279.3685510199246
 20
103.595837799223
 10
278.4935510199246
 20
103.595837799223
 10
277.8685510199246
 20
104.220837799223
 10
277.8685510199246
 20
105.1208377992229
 10
278.4935510199246
 20
105.7458377992229
 10
279.3685510199246
 20
105.7458377992229
 10
279.7685510199246
 20
105.3208377992229
 10
281.8935510199246
 20
105.3208377992229
 10
281.9185510199245
 20
105.3708377992229
 10
282.0435510199245
 20
105.470837799223
 10
282.1935510199246
 20
105.5708377992229
 10
282.3435510199246
 20
105.645837799223
 10
282.4935510199246
 20
105.6958377992229
 10
282.6685510199245
 20
105.7458377992229
 10
282.8185510199246
 20
105.7458377992229
 10
282.9935510199246
 20
105.6958377992229
 10
283.1435510199246
 20
105.645837799223
 10
283.2935510199245
 20
105.5708377992229
 10
283.4435510199246
 20
105.470837799223
 10
283.5435510199245
 20
105.3708377992229
 10
283.6435510199246
 20
105.220837799223
 10
283.7185510199246
 20
105.0708377992229
 10
283.7685510199246
 20
104.920837799223
  0
LWPOLYLINE
  5
102
330
1B
100
AcDbEntity
 67
     1
  8
0
  6
DURCHGEHEND
 62
     7
100
AcDbPolyline
 90
       43
 70
   129
 43
0.0
 10
283.7935510199245
 20
109.845837799223
 10
283.7935510199245
 20
109.845837799223
 10
283.7935510199245
 20
109.670837799223
 10
283.7685510199246
 20
109.4958377992229
 10
283.7185510199246
 20
109.345837799223
 10
283.6435510199246
 20
109.1958377992229
 10
283.5435510199245
 20
109.0708377992229
 10
283.4435510199246
 20
108.9458377992229
 10
283.2935510199245
 20
108.845837799223
 10
283.1435510199246
 20
108.770837799223
 10
282.9935510199246
 20
108.720837799223
 10
282.8185510199246
 20
108.6958377992229
 10
282.6685510199245
 20
108.6958377992229
 10
282.4935510199246
 20
108.720837799223
 10
282.3435510199246
 20
108.770837799223
 10
282.1935510199246
 20
108.845837799223
 10
282.0435510199245
 20
108.9458377992229
 10
281.9185510199245
 20
109.0708377992229
 10
281.8935510199246
 20
109.095837799223
 10
279.7685510199246
 20
109.095837799223
 10
279.3685510199246
 20
108.6958377992229
 10
278.4935510199246
 20
108.6958377992229
 10
277.8685510199246
 20
109.3208377992229
 10
277.8685510199246
 20
110.1958377992229
 10
278.4935510199246
 20
110.8208377992229
 10
279.3685510199246
 20
110.8208377992229
 10
279.7685510199246
 20
110.395837799223
 10
281.8935510199246
 20
110.395837799223
 10
281.9185510199245
 20
110.4458377992229
 10
282.0435510199245
 20
110.5708377992229
 10
282.1935510199246
 20
110.670837799223
 10
282.3435510199246
 20
110.7458377992229
 10
282.4935510199246
 20
110.795837799223
 10
282.6685510199245
 20
110.8208377992229
 10
282.8185510199246
 20
110.8208377992229
 10
282.9935510199246
 20
110.795837799223
 10
283.1435510199246
 20
110.7458377992229
 10
283.2935510199245
 20
110.670837799223
 10
283.4435510199246
 20
110.5708377992229
 10
283.5435510199245
 20
110.4458377992229
 10
283.6435510199246
 20
110.295837799223
 10
283.7185510199246
 20
110.170837799223
 10
283.7685510199246
 20
109.9958377992229
  0
LWPOLYLINE
  5
103
330
1B
100
AcDbEntity
 67
     1
  8
0
  6
DURCHGEHEND
 62
     7
100
AcDbPolyline
 90
       73
 70
   129
 43
0.0
 10
299.0435510199245
 20
109.845837799223
 10
299.0435510199245
 20
109.845837799223
 10
299.0435510199245
 20
109.670837799223
 10
299.0185510199246
 20
109.4958377992229
 10
298.9685510199246
 20
109.345837799223
 10
298.8935510199246
 20
109.1958377992229
 10
298.7935510199245
 20
109.0708377992229
 10
298.6685510199245
 20
108.9458377992229
 10
298.5435510199245
 20
108.845837799223
 10
298.3935510199246
 20
108.770837799223
 10
298.2185510199246
 20
108.720837799223
 10
298.0685510199246
 20
108.6958377992229
 10
297.8935510199246
 20
108.6958377992229
 10
297.7435510199246
 20
108.720837799223
 10
297.5685510199246
 20
108.770837799223
 10
297.4185510199245
 20
108.845837799223
 10
297.2935510199245
 20
108.9458377992229
 10
297.1685510199245
 20
109.0708377992229
 10
297.1435510199246
 20
109.095837799223
 10
291.0185510199246
 20
109.095837799223
 10
291.0185510199246
 20
92.62083779922295
 10
305.5435510199245
 20
92.62083779922295
 10
305.6685510199245
 20
92.62083779922295
 10
305.7935510199245
 20
92.59583779922298
 10
305.9185510199245
 20
92.54583779922297
 10
306.0185510199246
 20
92.47083779922298
 10
306.1185510199246
 20
92.39583779922299
 10
306.1935510199246
 20
92.27083779922299
 10
306.2435510199246
 20
92.17083779922297
 10
306.2685510199246
 20
92.04583779922297
 10
306.2685510199246
 20
78.84583779922298
 10
306.6685510199245
 20
78.44583779922297
 10
306.6685510199245
 20
77.57083779922297
 10
306.0435510199245
 20
76.94583779922297
 10
305.1685510199245
 20
76.94583779922297
 10
304.5435510199245
 20
77.57083779922297
 10
304.5435510199245
 20
78.44583779922297
 10
304.9435510199246
 20
78.84583779922298
 10
304.9435510199246
 20
91.32083779922297
 10
290.2935510199245
 20
91.32083779922297
 10
290.1685510199245
 20
91.34583779922298
 10
290.0435510199245
 20
91.39583779922299
 10
289.9435510199246
 20
91.47083779922298
 10
289.8435510199246
 20
91.54583779922297
 10
289.7685510199246
 20
91.67083779922297
 10
289.7185510199246
 20
91.77083779922299
 10
289.6935510199246
 20
91.89583779922299
 10
289.6935510199246
 20
92.04583779922297
 10
289.6935510199246
 20
109.8208377992229
 10
289.7185510199246
 20
109.9458377992229
 10
289.7685510199246
 20
110.0708377992229
 10
289.8435510199246
 20
110.170837799223
 10
289.9435510199246
 20
110.270837799223
 10
290.0435510199245
 20
110.3208377992229
 10
290.1685510199245
 20
110.3708377992229
 10
290.2935510199245
 20
110.395837799223
 10
290.4185510199245
 20
110.395837799223
 10
297.1435510199246
 20
110.395837799223
 10
297.1685510199245
 20
110.4458377992229
 10
297.2935510199245
 20
110.5708377992229
 10
297.4185510199245
 20
110.670837799223
 10
297.5685510199246
 20
110.7458377992229
 10
297.7435510199246
 20
110.795837799223
 10
297.8935510199246
 20
110.8208377992229
 10
298.0685510199246
 20
110.8208377992229
 10
298.2185510199246
 20
110.795837799223
 10
298.3935510199246
 20
110.7458377992229
 10
298.5435510199245
 20
110.670837799223
 10
298.6685510199245
 20
110.5708377992229
 10
298.7935510199245
 20
110.4458377992229
 10
298.8935510199246
 20
110.295837799223
 10
298.9685510199246
 20
110.170837799223
 10
299.0185510199246
 20
109.9958377992229
  0
LWPOLYLINE
  5
104
330
1B
100
AcDbEntity
 67
     1
  8
0
  6
DURCHGEHEND
 62
     7
100
AcDbPolyline
 90
      169
 70
   129
 43
0.0
 10
298.7935510199245
 20
86.19583779922297
 10
298.7935510199245
 20
86.19583779922297
 10
298.6685510199245
 20
86.07083779922297
 10
298.5435510199245
 20
85.97083779922298
 10
298.3935510199246
 20
85.89583779922299
 10
298.2185510199246
 20
85.84583779922298
 10
298.0685510199246
 20
85.82083779922297
 10
297.8935510199246
 20
85.82083779922297
 10
297.7435510199246
 20
85.84583779922298
 10
297.5685510199246
 20
85.89583779922299
 10
297.4185510199245
 20
85.97083779922298
 10
297.2935510199245
 20
86.07083779922297
 10
297.1685510199245
 20
86.19583779922297
 10
297.0685510199246
 20
86.34583779922298
 10
296.9935510199246
 20
86.47083779922298
 10
296.9435510199246
 20
86.64583779922299
 10
296.9185510199245
 20
86.79583779922297
 10
296.9185510199245
 20
86.97083779922298
 10
296.9435510199246
 20
87.14583779922299
 10
296.9935510199246
 20
87.29583779922297
 10
297.0685510199246
 20
87.44583779922297
 10
297.1685510199245
 20
87.57083779922297
 10
297.2935510199245
 20
87.69583779922297
 10
297.4185510199245
 20
87.79583779922297
 10
297.5685510199246
 20
87.87083779922295
 10
297.7435510199246
 20
87.92083779922297
 10
297.8935510199246
 20
87.94583779922297
 10
298.0685510199246
 20
87.94583779922297
 10
298.2185510199246
 20
87.92083779922297
 10
298.3935510199246
 20
87.87083779922295
 10
298.5435510199245
 20
87.79583779922297
 10
298.6685510199245
 20
87.69583779922297
 10
298.7935510199245
 20
87.57083779922297
 10
298.8185510199246
 20
87.54583779922297
 10
300.5935510199246
 20
87.54583779922297
 10
300.7185510199246
 20
87.52083779922299
 10
300.8435510199246
 20
87.47083779922298
 10
300.9435510199246
 20
87.39583779922299
 10
301.0185510199246
 20
87.32083779922297
 10
301.0935510199246
 20
87.19583779922297
 10
301.1435510199246
 20
87.07083779922297
 10
301.1685510199245
 20
86.94583779922297
 10
301.1685510199245
 20
86.82083779922297
 10
301.1685510199245
 20
73.57083779922297
 10
315.0935510199246
 20
73.57083779922297
 10
315.0935510199246
 20
117.095837799223
 10
311.6685510199245
 20
120.520837799223
 10
296.2935510199245
 20
120.520837799223
 10
295.8685510199246
 20
120.1208377992229
 10
294.9935510199246
 20
120.1208377992229
 10
294.5935510199246
 20
120.520837799223
 10
293.7435510199246
 20
120.520837799223
 10
293.3435510199246
 20
120.1208377992229
 10
292.4685510199246
 20
120.1208377992229
 10
292.0435510199245
 20
120.520837799223
 10
291.2185510199246
 20
120.520837799223
 10
290.7935510199245
 20
120.1208377992229
 10
289.9185510199245
 20
120.1208377992229
 10
289.5185510199246
 20
120.520837799223
 10
288.6685510199245
 20
120.520837799223
 10
288.2685510199246
 20
120.1208377992229
 10
287.3685510199246
 20
120.1208377992229
 10
286.9685510199246
 20
120.520837799223
 10
286.1185510199246
 20
120.520837799223
 10
285.7185510199246
 20
120.1208377992229
 10
284.8435510199246
 20
120.1208377992229
 10
284.4435510199246
 20
120.520837799223
 10
280.4685510199246
 20
120.520837799223
 10
277.0435510199245
 20
117.095837799223
 10
277.0435510199245
 20
110.595837799223
 10
277.4435510199246
 20
110.1958377992229
 10
277.4435510199246
 20
109.3208377992229
 10
277.0435510199245
 20
108.895837799223
 10
277.0435510199245
 20
108.045837799223
 10
277.4435510199246
 20
107.645837799223
 10
277.4435510199246
 20
106.770837799223
 10
277.0435510199245
 20
106.3708377992229
 10
277.0435510199245
 20
105.520837799223
 10
277.4435510199246
 20
105.1208377992229
 10
277.4435510199246
 20
104.220837799223
 10
277.0435510199245
 20
103.8208377992229
 10
277.0435510199245
 20
102.970837799223
 10
277.4435510199246
 20
102.5708377992229
 10
277.4435510199246
 20
101.6958377992229
 10
277.0435510199245
 20
101.295837799223
 10
277.0435510199245
 20
97.89583779922299
 10
277.4435510199246
 20
97.49583779922295
 10
277.4435510199246
 20
96.62083779922295
 10
276.8185510199246
 20
95.99583779922295
 10
275.9435510199246
 20
95.99583779922295
 10
275.3185510199246
 20
96.62083779922295
 10
275.3185510199246
 20
97.49583779922295
 10
275.7435510199246
 20
97.89583779922299
 10
275.7435510199246
 20
101.295837799223
 10
275.3185510199246
 20
101.6958377992229
 10
275.3185510199246
 20
102.5708377992229
 10
275.7435510199246
 20
102.970837799223
 10
275.7435510199246
 20
103.8208377992229
 10
275.3185510199246
 20
104.220837799223
 10
275.3185510199246
 20
105.1208377992229
 10
275.7435510199246
 20
105.520837799223
 10
275.7435510199246
 20
106.3708377992229
 10
275.3185510199246
 20
106.770837799223
 10
275.3185510199246
 20
107.645837799223
 10
275.7435510199246
 20
108.045837799223
 10
275.7435510199246
 20
108.895837799223
 10
275.3185510199246
 20
109.3208377992229
 10
275.3185510199246
 20
110.1958377992229
 10
275.7435510199246
 20
110.595837799223
 10
275.7435510199246
 20
117.4458377992229
 10
275.7685510199246
 20
117.5708377992229
 10
275.8185510199246
 20
117.670837799223
 10
275.8685510199246
 20
117.795837799223
 10
275.9685510199246
 20
117.8708377992229
 10
279.6935510199246
 20
121.595837799223
 10
279.7935510199245
 20
121.6958377992229
 10
279.8935510199246
 20
121.770837799223
 10
280.0185510199246
 20
121.8208377992229
 10
280.1435510199246
 20
121.845837799223
 10
284.4435510199246
 20
121.845837799223
 10
284.8435510199246
 20
122.2458377992229
 10
285.7185510199246
 20
122.2458377992229
 10
286.1185510199246
 20
121.845837799223
 10
286.9685510199246
 20
121.845837799223
 10
287.3685510199246
 20
122.2458377992229
 10
288.2685510199246
 20
122.2458377992229
 10
288.6685510199245
 20
121.845837799223
 10
289.5185510199246
 20
121.845837799223
 10
289.9185510199245
 20
122.2458377992229
 10
290.7935510199245
 20
122.2458377992229
 10
291.2185510199246
 20
121.845837799223
 10
292.0435510199245
 20
121.845837799223
 10
292.4685510199246
 20
122.2458377992229
 10
293.3435510199246
 20
122.2458377992229
 10
293.7435510199246
 20
121.845837799223
 10
294.5935510199246
 20
121.845837799223
 10
294.9935510199246
 20
122.2458377992229
 10
295.8685510199246
 20
122.2458377992229
 10
296.2935510199245
 20
121.845837799223
 10
311.8935510199246
 20
121.845837799223
 10
312.0185510199246
 20
121.845837799223
 10
312.1435510199246
 20
121.8208377992229
 10
312.2685510199246
 20
121.770837799223
 10
312.3685510199246
 20
121.6958377992229
 10
316.1685510199245
 20
117.8708377992229
 10
316.2685510199246
 20
117.795837799223
 10
316.3435510199246
 20
117.670837799223
 10
316.3935510199246
 20
117.5708377992229
 10
316.4185510199245
 20
117.4458377992229
 10
316.4185510199245
 20
72.99583779922298
 10
316.4185510199245
 20
72.84583779922298
 10
316.3935510199246
 20
72.72083779922298
 10
316.3435510199246
 20
72.62083779922298
 10
316.2685510199246
 20
72.49583779922298
 10
316.1685510199245
 20
72.42083779922297
 10
316.0685510199246
 20
72.34583779922298
 10
315.9435510199246
 20
72.29583779922297
 10
315.8185510199246
 20
72.27083779922297
 10
300.5935510199246
 20
72.27083779922297
 10
300.4435510199246
 20
72.27083779922297
 10
300.3185510199246
 20
72.29583779922297
 10
300.2185510199246
 20
72.34583779922298
 10
300.0935510199246
 20
72.42083779922297
 10
300.0185510199246
 20
72.49583779922298
 10
299.9435510199246
 20
72.62083779922298
 10
299.8935510199246
 20
72.72083779922298
 10
299.8685510199246
 20
72.84583779922298
 10
299.8685510199246
 20
86.24583779922295
 10
298.8185510199246
 20
86.24583779922295
  0
LWPOLYLINE
  5
105
330
1B
100
AcDbEntity
 67
     1
  8
0
  6
DURCHGEHEND
 62
     7
100
AcDbPolyline
 90
       43
 70
   129
 43
0.0
 10
292.6935510199246
 20
84.44583779922297
 10
292.6935510199246
 20
84.44583779922297
 10
292.6935510199246
 20
84.27083779922299
 10
292.6685510199245
 20
84.09583779922298
 10
292.6185510199246
 20
83.94583779922297
 10
292.5435510199245
 20
83.79583779922297
 10
292.4435510199246
 20
83.67083779922297
 10
292.3185510199246
 20
83.54583779922297
 10
292.2935510199245
 20
83.52083779922299
 10
292.2935510199245
 20
78.84583779922298
 10
292.6935510199246
 20
78.44583779922297
 10
292.6935510199246
 20
77.57083779922297
 10
292.0685510199246
 20
76.94583779922297
 10
291.1935510199246
 20
76.94583779922297
 10
290.5685510199246
 20
77.57083779922297
 10
290.5685510199246
 20
78.44583779922297
 10
290.9685510199246
 20
78.84583779922298
 10
290.9685510199246
 20
83.52083779922299
 10
290.9435510199246
 20
83.54583779922297
 10
290.8185510199246
 20
83.67083779922297
 10
290.7185510199246
 20
83.79583779922297
 10
290.6435510199246
 20
83.94583779922297
 10
290.5935510199246
 20
84.09583779922298
 10
290.5685510199246
 20
84.27083779922299
 10
290.5685510199246
 20
84.44583779922297
 10
290.5935510199246
 20
84.59583779922298
 10
290.6435510199246
 20
84.77083779922299
 10
290.7185510199246
 20
84.89583779922299
 10
290.8185510199246
 20
85.04583779922297
 10
290.9435510199246
 20
85.17083779922297
 10
291.0685510199246
 20
85.27083779922299
 10
291.2185510199246
 20
85.34583779922298
 10
291.3935510199246
 20
85.39583779922299
 10
291.5435510199245
 20
85.42083779922297
 10
291.7185510199246
 20
85.42083779922297
 10
291.8685510199246
 20
85.39583779922299
 10
292.0435510199245
 20
85.34583779922298
 10
292.1935510199246
 20
85.27083779922299
 10
292.3185510199246
 20
85.17083779922297
 10
292.4435510199246
 20
85.04583779922297
 10
292.5435510199245
 20
84.89583779922299
 10
292.6185510199246
 20
84.77083779922299
 10
292.6685510199245
 20
84.59583779922298
  0
LWPOLYLINE
  5
106
330
1B
100
AcDbEntity
 67
     1
  8
0
  6
DURCHGEHEND
 62
     7
100
AcDbPolyline
 90
       43
 70
   129
 43
0.0
 10
290.1435510199246
 20
84.44583779922297
 10
290.1435510199246
 20
84.44583779922297
 10
290.1435510199246
 20
84.27083779922299
 10
290.1185510199246
 20
84.09583779922298
 10
290.0685510199246
 20
83.94583779922297
 10
289.9935510199246
 20
83.79583779922297
 10
289.8935510199246
 20
83.67083779922297
 10
289.7935510199245
 20
83.54583779922297
 10
289.7435510199246
 20
83.52083779922299
 10
289.7435510199246
 20
78.84583779922298
 10
290.1435510199246
 20
78.44583779922297
 10
290.1435510199246
 20
77.57083779922297
 10
289.5185510199246
 20
76.94583779922297
 10
288.6435510199246
 20
76.94583779922297
 10
288.0185510199246
 20
77.57083779922297
 10
288.0185510199246
 20
78.44583779922297
 10
288.4435510199246
 20
78.84583779922298
 10
288.4435510199246
 20
83.52083779922299
 10
288.3935510199246
 20
83.54583779922297
 10
288.2685510199246
 20
83.67083779922297
 10
288.1935510199246
 20
83.79583779922297
 10
288.0935510199246
 20
83.94583779922297
 10
288.0435510199245
 20
84.09583779922298
 10
288.0185510199246
 20
84.27083779922299
 10
288.0185510199246
 20
84.44583779922297
 10
288.0435510199245
 20
84.59583779922298
 10
288.0935510199246
 20
84.77083779922299
 10
288.1935510199246
 20
84.89583779922299
 10
288.2685510199246
 20
85.04583779922297
 10
288.3935510199246
 20
85.17083779922297
 10
288.5435510199245
 20
85.27083779922299
 10
288.6935510199246
 20
85.34583779922298
 10
288.8435510199246
 20
85.39583779922299
 10
289.0185510199246
 20
85.42083779922297
 10
289.1685510199245
 20
85.42083779922297
 10
289.3435510199246
 20
85.39583779922299
 10
289.4935510199246
 20
85.34583779922298
 10
289.6435510199246
 20
85.27083779922299
 10
289.7935510199245
 20
85.17083779922297
 10
289.8935510199246
 20
85.04583779922297
 10
289.9935510199246
 20
84.89583779922299
 10
290.0685510199246
 20
84.77083779922299
 10
290.1185510199246
 20
84.59583779922298
  0
LWPOLYLINE
  5
107
330
1B
100
AcDbEntity
 67
     1
  8
0
  6
DURCHGEHEND
 62
     7
100
AcDbPolyline
 90
       43
 70
   129
 43
0.0
 10
285.0685510199246
 20
84.44583779922297
 10
285.0685510199246
 20
84.44583779922297
 10
285.0685510199246
 20
84.27083779922299
 10
285.0435510199245
 20
84.09583779922298
 10
284.9935510199246
 20
83.94583779922297
 10
284.9185510199245
 20
83.79583779922297
 10
284.8185510199246
 20
83.67083779922297
 10
284.6935510199246
 20
83.54583779922297
 10
284.6685510199245
 20
83.52083779922299
 10
284.6685510199245
 20
78.84583779922298
 10
285.0685510199246
 20
78.44583779922297
 10
285.0685510199246
 20
77.57083779922297
 10
284.4435510199246
 20
76.94583779922297
 10
283.5685510199246
 20
76.94583779922297
 10
282.9435510199246
 20
77.57083779922297
 10
282.9435510199246
 20
78.44583779922297
 10
283.3435510199246
 20
78.84583779922298
 10
283.3435510199246
 20
83.52083779922299
 10
283.3185510199246
 20
83.54583779922297
 10
283.1935510199246
 20
83.67083779922297
 10
283.0935510199246
 20
83.79583779922297
 10
283.0185510199246
 20
83.94583779922297
 10
282.9685510199246
 20
84.09583779922298
 10
282.9435510199246
 20
84.27083779922299
 10
282.9435510199246
 20
84.44583779922297
 10
282.9685510199246
 20
84.59583779922298
 10
283.0185510199246
 20
84.77083779922299
 10
283.0935510199246
 20
84.89583779922299
 10
283.1935510199246
 20
85.04583779922297
 10
283.3185510199246
 20
85.17083779922297
 10
283.4435510199246
 20
85.27083779922299
 10
283.5935510199246
 20
85.34583779922298
 10
283.7685510199246
 20
85.39583779922299
 10
283.9185510199245
 20
85.42083779922297
 10
284.0935510199246
 20
85.42083779922297
 10
284.2685510199246
 20
85.39583779922299
 10
284.4185510199245
 20
85.34583779922298
 10
284.5685510199246
 20
85.27083779922299
 10
284.6935510199246
 20
85.17083779922297
 10
284.8185510199246
 20
85.04583779922297
 10
284.9185510199245
 20
84.89583779922299
 10
284.9935510199246
 20
84.77083779922299
 10
285.0435510199245
 20
84.59583779922298
  0
LWPOLYLINE
  5
108
330
1B
100
AcDbEntity
 67
     1
  8
0
  6
DURCHGEHEND
 62
     7
100
AcDbPolyline
 90
      172
 70
   129
 43
0.0
 10
314.2935510199245
 20
78.44583779922297
 10
314.2935510199245
 20
78.44583779922297
 10
314.2935510199245
 20
77.57083779922297
 10
313.8685510199246
 20
77.14583779922297
 10
313.8685510199246
 20
75.52083779922297
 10
313.8685510199246
 20
75.39583779922297
 10
313.8435510199246
 20
75.27083779922297
 10
313.7935510199245
 20
75.14583779922297
 10
313.7185510199246
 20
75.04583779922297
 10
313.6435510199246
 20
74.94583779922297
 10
313.5435510199245
 20
74.87083779922298
 10
313.4185510199245
 20
74.82083779922297
 10
313.2935510199245
 20
74.79583779922297
 10
303.1185510199246
 20
74.79583779922297
 10
302.9935510199246
 20
74.79583779922297
 10
302.8685510199246
 20
74.82083779922297
 10
302.7435510199246
 20
74.87083779922298
 10
302.6435510199246
 20
74.94583779922297
 10
302.5435510199245
 20
75.04583779922297
 10
302.4685510199246
 20
75.14583779922297
 10
302.4185510199245
 20
75.27083779922297
 10
302.3935510199246
 20
75.39583779922297
 10
302.3935510199246
 20
88.77083779922299
 10
298.8185510199246
 20
88.77083779922299
 10
298.7935510199245
 20
88.74583779922295
 10
298.6685510199245
 20
88.62083779922295
 10
298.5435510199245
 20
88.52083779922299
 10
298.3935510199246
 20
88.44583779922297
 10
298.2185510199246
 20
88.39583779922299
 10
298.0685510199246
 20
88.37083779922295
 10
297.8935510199246
 20
88.37083779922295
 10
297.7435510199246
 20
88.39583779922299
 10
297.5685510199246
 20
88.44583779922297
 10
297.4185510199245
 20
88.52083779922299
 10
297.2935510199245
 20
88.62083779922295
 10
297.1685510199245
 20
88.74583779922295
 10
297.1435510199246
 20
88.77083779922299
 10
277.5935510199246
 20
88.77083779922299
 10
277.4685510199246
 20
88.79583779922297
 10
277.3435510199246
 20
88.84583779922298
 10
277.2435510199246
 20
88.92083779922297
 10
277.1435510199246
 20
89.02083779922299
 10
273.3435510199246
 20
92.82083779922297
 10
273.2685510199246
 20
92.92083779922297
 10
273.2185510199246
 20
93.04583779922297
 10
273.1935510199246
 20
93.17083779922297
 10
273.1935510199246
 20
93.29583779922297
 10
273.1935510199246
 20
96.19583779922297
 10
272.7935510199246
 20
96.62083779922295
 10
272.7935510199246
 20
97.49583779922295
 10
273.1935510199246
 20
97.89583779922299
 10
273.1935510199246
 20
101.295837799223
 10
272.7935510199246
 20
101.6958377992229
 10
272.7935510199246
 20
102.5708377992229
 10
273.1935510199246
 20
102.970837799223
 10
273.1935510199246
 20
103.8208377992229
 10
272.7935510199246
 20
104.220837799223
 10
272.7935510199246
 20
105.1208377992229
 10
273.1935510199246
 20
105.520837799223
 10
273.1935510199246
 20
106.3708377992229
 10
272.7935510199246
 20
106.770837799223
 10
272.7935510199246
 20
107.645837799223
 10
273.1935510199246
 20
108.045837799223
 10
273.1935510199246
 20
108.895837799223
 10
272.7935510199246
 20
109.3208377992229
 10
272.7935510199246
 20
110.1958377992229
 10
273.1935510199246
 20
110.595837799223
 10
273.1935510199246
 20
118.6958377992229
 10
273.2185510199246
 20
118.8208377992229
 10
273.2685510199246
 20
118.9458377992229
 10
273.3435510199246
 20
119.0708377992229
 10
273.4435510199246
 20
119.145837799223
 10
278.5185510199246
 20
124.220837799223
 10
278.6185510199246
 20
124.295837799223
 10
278.7435510199246
 20
124.345837799223
 10
278.8685510199246
 20
124.3708377992229
 10
278.9935510199246
 20
124.3708377992229
 10
284.4435510199246
 20
124.3708377992229
 10
284.8435510199246
 20
124.795837799223
 10
285.7185510199246
 20
124.795837799223
 10
286.1185510199246
 20
124.3708377992229
 10
286.9685510199246
 20
124.3708377992229
 10
287.3685510199246
 20
124.795837799223
 10
288.2685510199246
 20
124.795837799223
 10
288.6685510199245
 20
124.3708377992229
 10
289.5185510199246
 20
124.3708377992229
 10
289.9185510199245
 20
124.795837799223
 10
290.7935510199245
 20
124.795837799223
 10
291.2185510199246
 20
124.3708377992229
 10
292.0435510199245
 20
124.3708377992229
 10
292.4685510199246
 20
124.795837799223
 10
293.3435510199246
 20
124.795837799223
 10
293.7435510199246
 20
124.3708377992229
 10
294.5935510199246
 20
124.3708377992229
 10
294.9935510199246
 20
124.795837799223
 10
295.8685510199246
 20
124.795837799223
 10
296.4935510199246
 20
124.170837799223
 10
296.4935510199246
 20
123.270837799223
 10
295.8685510199246
 20
122.645837799223
 10
294.9935510199246
 20
122.645837799223
 10
294.5935510199246
 20
123.0708377992229
 10
293.7435510199246
 20
123.0708377992229
 10
293.3435510199246
 20
122.645837799223
 10
292.4685510199246
 20
122.645837799223
 10
292.0435510199245
 20
123.0708377992229
 10
291.2185510199246
 20
123.0708377992229
 10
290.7935510199245
 20
122.645837799223
 10
289.9185510199245
 20
122.645837799223
 10
289.5185510199246
 20
123.0708377992229
 10
288.6685510199245
 20
123.0708377992229
 10
288.2685510199246
 20
122.645837799223
 10
287.3685510199246
 20
122.645837799223
 10
286.9685510199246
 20
123.0708377992229
 10
286.1185510199246
 20
123.0708377992229
 10
285.7185510199246
 20
122.645837799223
 10
284.8435510199246
 20
122.645837799223
 10
284.4435510199246
 20
123.0708377992229
 10
279.1935510199246
 20
123.0708377992229
 10
274.5185510199246
 20
118.3708377992229
 10
274.5185510199246
 20
110.595837799223
 10
274.9185510199246
 20
110.1958377992229
 10
274.9185510199246
 20
109.3208377992229
 10
274.5185510199246
 20
108.895837799223
 10
274.5185510199246
 20
108.045837799223
 10
274.9185510199246
 20
107.645837799223
 10
274.9185510199246
 20
106.770837799223
 10
274.5185510199246
 20
106.3708377992229
 10
274.5185510199246
 20
105.520837799223
 10
274.9185510199246
 20
105.1208377992229
 10
274.9185510199246
 20
104.220837799223
 10
274.5185510199246
 20
103.8208377992229
 10
274.5185510199246
 20
102.970837799223
 10
274.9185510199246
 20
102.5708377992229
 10
274.9185510199246
 20
101.6958377992229
 10
274.5185510199246
 20
101.295837799223
 10
274.5185510199246
 20
97.89583779922299
 10
274.9185510199246
 20
97.49583779922295
 10
274.9185510199246
 20
96.62083779922295
 10
274.5185510199246
 20
96.19583779922297
 10
274.5185510199246
 20
93.52083779922299
 10
277.9435510199246
 20
90.09583779922298
 10
297.1435510199246
 20
90.09583779922298
 10
297.1685510199245
 20
90.12083779922295
 10
297.2935510199245
 20
90.24583779922295
 10
297.4185510199245
 20
90.34583779922298
 10
297.5685510199246
 20
90.42083779922297
 10
297.7435510199246
 20
90.47083779922298
 10
297.8935510199246
 20
90.49583779922295
 10
298.0685510199246
 20
90.49583779922295
 10
298.2185510199246
 20
90.47083779922298
 10
298.3935510199246
 20
90.42083779922297
 10
298.5435510199245
 20
90.34583779922298
 10
298.6685510199245
 20
90.24583779922295
 10
298.7935510199245
 20
90.12083779922295
 10
298.8185510199246
 20
90.09583779922298
 10
302.9935510199246
 20
90.09583779922298
 10
302.9935510199246
 20
90.09583779922298
 10
303.1185510199246
 20
90.09583779922298
 10
303.2435510199246
 20
90.07083779922297
 10
303.3685510199246
 20
90.02083779922299
 10
303.4685510199246
 20
89.94583779922297
 10
303.5685510199246
 20
89.84583779922298
 10
303.6435510199246
 20
89.74583779922295
 10
303.6935510199246
 20
89.62083779922295
 10
303.7185510199246
 20
89.49583779922295
 10
303.7185510199246
 20
76.12083779922298
 10
312.5685510199246
 20
76.12083779922298
 10
312.5685510199246
 20
77.14583779922297
 10
312.1685510199245
 20
77.57083779922297
 10
312.1685510199245
 20
78.44583779922297
 10
312.7685510199246
 20
79.07083779922297
 10
313.6685510199245
 20
79.07083779922297
  0
LWPOLYLINE
  5
109
330
1B
100
AcDbEntity
 67
     1
  8
0
  6
DURCHGEHEND
 62
     7
100
AcDbPolyline
 90
       53
 70
   129
 43
0.0
 10
311.7435510199246
 20
78.44583779922297
 10
311.7435510199246
 20
78.44583779922297
 10
311.7435510199246
 20
77.57083779922297
 10
311.1185510199246
 20
76.94583779922297
 10
310.2435510199246
 20
76.94583779922297
 10
309.6185510199246
 20
77.57083779922297
 10
309.6185510199246
 20
78.44583779922297
 10
310.0185510199246
 20
78.84583779922298
 10
310.0185510199246
 20
97.67083779922297
 10
296.0185510199246
 20
97.67083779922297
 10
295.9935510199246
 20
97.62083779922295
 10
295.8685510199246
 20
97.52083779922299
 10
295.7435510199246
 20
97.42083779922297
 10
295.5935510199246
 20
97.34583779922298
 10
295.4435510199246
 20
97.29583779922297
 10
295.2685510199246
 20
97.24583779922295
 10
295.0935510199246
 20
97.24583779922295
 10
294.9435510199246
 20
97.29583779922297
 10
294.7685510199246
 20
97.34583779922298
 10
294.6185510199246
 20
97.42083779922297
 10
294.4935510199246
 20
97.52083779922299
 10
294.3685510199246
 20
97.62083779922295
 10
294.2685510199246
 20
97.77083779922299
 10
294.1935510199246
 20
97.92083779922297
 10
294.1435510199246
 20
98.07083779922297
 10
294.1185510199246
 20
98.24583779922298
 10
294.1185510199246
 20
98.39583779922299
 10
294.1435510199246
 20
98.57083779922297
 10
294.1935510199246
 20
98.72083779922298
 10
294.2685510199246
 20
98.87083779922298
 10
294.3685510199246
 20
99.02083779922299
 10
294.4935510199246
 20
99.12083779922298
 10
294.6185510199246
 20
99.22083779922298
 10
294.7685510199246
 20
99.29583779922297
 10
294.9435510199246
 20
99.34583779922298
 10
295.0935510199246
 20
99.39583779922299
 10
295.2685510199246
 20
99.39583779922299
 10
295.4435510199246
 20
99.34583779922298
 10
295.5935510199246
 20
99.29583779922297
 10
295.7435510199246
 20
99.22083779922298
 10
295.8685510199246
 20
99.12083779922298
 10
295.9935510199246
 20
99.02083779922299
 10
296.0185510199246
 20
98.97083779922298
 10
310.6185510199246
 20
98.97083779922298
 10
310.7435510199246
 20
98.97083779922298
 10
310.8685510199246
 20
98.94583779922297
 10
310.9935510199246
 20
98.89583779922299
 10
311.0935510199246
 20
98.82083779922297
 10
311.1935510199246
 20
98.74583779922298
 10
311.2685510199246
 20
98.62083779922298
 10
311.3185510199246
 20
98.52083779922299
 10
311.3435510199246
 20
98.39583779922299
 10
311.3435510199246
 20
78.84583779922298
  0
LWPOLYLINE
  5
10A
330
1B
100
AcDbEntity
 67
     1
  8
0
  6
DURCHGEHEND
 62
     7
100
AcDbPolyline
 90
       53
 70
   129
 43
0.0
 10
309.1935510199246
 20
78.44583779922297
 10
309.1935510199246
 20
78.44583779922297
 10
309.1935510199246
 20
77.57083779922297
 10
308.5685510199246
 20
76.94583779922297
 10
307.6935510199246
 20
76.94583779922297
 10
307.0685510199246
 20
77.57083779922297
 10
307.0685510199246
 20
78.44583779922297
 10
307.4935510199246
 20
78.84583779922298
 10
307.4935510199246
 20
95.12083779922295
 10
296.0185510199246
 20
95.12083779922295
 10
295.9935510199246
 20
95.09583779922298
 10
295.8685510199246
 20
94.97083779922298
 10
295.7435510199246
 20
94.87083779922295
 10
295.5935510199246
 20
94.79583779922297
 10
295.4435510199246
 20
94.74583779922295
 10
295.2685510199246
 20
94.72083779922298
 10
295.0935510199246
 20
94.72083779922298
 10
294.9435510199246
 20
94.74583779922295
 10
294.7685510199246
 20
94.79583779922297
 10
294.6185510199246
 20
94.87083779922295
 10
294.4935510199246
 20
94.97083779922298
 10
294.3685510199246
 20
95.09583779922298
 10
294.2685510199246
 20
95.22083779922298
 10
294.1935510199246
 20
95.37083779922295
 10
294.1435510199246
 20
95.52083779922299
 10
294.1185510199246
 20
95.69583779922297
 10
294.1185510199246
 20
95.87083779922295
 10
294.1435510199246
 20
96.02083779922299
 10
294.1935510199246
 20
96.19583779922297
 10
294.2685510199246
 20
96.34583779922298
 10
294.3685510199246
 20
96.47083779922298
 10
294.4935510199246
 20
96.59583779922298
 10
294.6185510199246
 20
96.69583779922297
 10
294.7685510199246
 20
96.77083779922299
 10
294.9435510199246
 20
96.82083779922297
 10
295.0935510199246
 20
96.84583779922298
 10
295.2685510199246
 20
96.84583779922298
 10
295.4435510199246
 20
96.82083779922297
 10
295.5935510199246
 20
96.77083779922299
 10
295.7435510199246
 20
96.69583779922297
 10
295.8685510199246
 20
96.59583779922298
 10
295.9935510199246
 20
96.47083779922298
 10
296.0185510199246
 20
96.44583779922297
 10
308.0685510199246
 20
96.44583779922297
 10
308.1935510199246
 20
96.44583779922297
 10
308.3435510199246
 20
96.42083779922297
 10
308.4435510199246
 20
96.37083779922295
 10
308.5685510199246
 20
96.29583779922297
 10
308.6435510199246
 20
96.19583779922297
 10
308.7185510199246
 20
96.09583779922298
 10
308.7685510199246
 20
95.97083779922298
 10
308.7935510199245
 20
95.84583779922298
 10
308.7935510199245
 20
78.84583779922298
  0
LWPOLYLINE
  5
10B
330
1B
100
AcDbEntity
 67
     1
  8
0
  6
DURCHGEHEND
 62
     7
100
AcDbPolyline
 90
        9
 70
   129
 43
0.0
 10
296.4935510199246
 20
119.0708377992229
 10
296.4935510199246
 20
119.0708377992229
 10
296.4935510199246
 20
118.1958377992229
 10
295.8685510199246
 20
117.5708377992229
 10
294.9935510199246
 20
117.5708377992229
 10
294.3685510199246
 20
118.1958377992229
 10
294.3685510199246
 20
119.0708377992229
 10
294.9935510199246
 20
119.6958377992229
 10
295.8685510199246
 20
119.6958377992229
  0
LWPOLYLINE
  5
10C
330
1B
100
AcDbEntity
 67
     1
  8
0
  6
DURCHGEHEND
 62
     7
100
AcDbPolyline
 90
       43
 70
   129
 43
0.0
 10
287.6185510199246
 20
78.44583779922297
 10
287.6185510199246
 20
78.44583779922297
 10
287.6185510199246
 20
77.57083779922297
 10
286.9935510199246
 20
76.94583779922297
 10
286.1185510199246
 20
76.94583779922297
 10
285.4935510199246
 20
77.57083779922297
 10
285.4935510199246
 20
78.44583779922297
 10
285.8935510199246
 20
78.84583779922298
 10
285.8935510199246
 20
83.52083779922299
 10
285.8685510199246
 20
83.54583779922297
 10
285.7435510199246
 20
83.67083779922297
 10
285.6435510199246
 20
83.79583779922297
 10
285.5685510199246
 20
83.94583779922297
 10
285.5185510199246
 20
84.09583779922298
 10
285.4935510199246
 20
84.27083779922299
 10
285.4935510199246
 20
84.44583779922297
 10
285.5185510199246
 20
84.59583779922298
 10
285.5685510199246
 20
84.77083779922299
 10
285.6435510199246
 20
84.89583779922299
 10
285.7435510199246
 20
85.04583779922297
 10
285.8685510199246
 20
85.17083779922297
 10
285.9935510199246
 20
85.27083779922299
 10
286.1435510199246
 20
85.34583779922298
 10
286.2935510199245
 20
85.39583779922299
 10
286.4685510199246
 20
85.42083779922297
 10
286.6435510199246
 20
85.42083779922297
 10
286.7935510199245
 20
85.39583779922299
 10
286.9685510199246
 20
85.34583779922298
 10
287.1185510199246
 20
85.27083779922299
 10
287.2435510199246
 20
85.17083779922297
 10
287.3685510199246
 20
85.04583779922297
 10
287.4685510199246
 20
84.89583779922299
 10
287.5435510199245
 20
84.77083779922299
 10
287.5935510199246
 20
84.59583779922298
 10
287.6185510199246
 20
84.44583779922297
 10
287.6185510199246
 20
84.27083779922299
 10
287.5935510199246
 20
84.09583779922298
 10
287.5435510199245
 20
83.94583779922297
 10
287.4685510199246
 20
83.79583779922297
 10
287.3685510199246
 20
83.67083779922297
 10
287.2435510199246
 20
83.54583779922297
 10
287.2185510199246
 20
83.52083779922299
 10
287.2185510199246
 20
78.84583779922298
  0
LWPOLYLINE
  5
10D
330
1B
100
AcDbEntity
 67
     1
  8
0
  6
DURCHGEHEND
 62
     7
100
AcDbPolyline
 90
       43
 70
   129
 43
0.0
 10
297.7685510199246
 20
78.44583779922297
 10
297.7685510199246
 20
78.44583779922297
 10
297.7685510199246
 20
77.57083779922297
 10
297.1435510199246
 20
76.94583779922297
 10
296.2685510199246
 20
76.94583779922297
 10
295.6435510199246
 20
77.57083779922297
 10
295.6435510199246
 20
78.44583779922297
 10
296.0435510199245
 20
78.84583779922298
 10
296.0435510199245
 20
83.52083779922299
 10
296.0185510199246
 20
83.54583779922297
 10
295.8935510199246
 20
83.67083779922297
 10
295.7935510199245
 20
83.79583779922297
 10
295.7185510199246
 20
83.94583779922297
 10
295.6685510199245
 20
84.09583779922298
 10
295.6435510199246
 20
84.27083779922299
 10
295.6435510199246
 20
84.44583779922297
 10
295.6685510199245
 20
84.59583779922298
 10
295.7185510199246
 20
84.77083779922299
 10
295.7935510199245
 20
84.89583779922299
 10
295.8935510199246
 20
85.04583779922297
 10
296.0185510199246
 20
85.17083779922297
 10
296.1435510199246
 20
85.27083779922299
 10
296.2935510199245
 20
85.34583779922298
 10
296.4685510199246
 20
85.39583779922299
 10
296.6185510199246
 20
85.42083779922297
 10
296.7935510199245
 20
85.42083779922297
 10
296.9685510199246
 20
85.39583779922299
 10
297.1185510199246
 20
85.34583779922298
 10
297.2685510199246
 20
85.27083779922299
 10
297.3935510199246
 20
85.17083779922297
 10
297.5185510199246
 20
85.04583779922297
 10
297.6185510199246
 20
84.89583779922299
 10
297.6935510199246
 20
84.77083779922299
 10
297.7435510199246
 20
84.59583779922298
 10
297.7685510199246
 20
84.44583779922297
 10
297.7685510199246
 20
84.27083779922299
 10
297.7435510199246
 20
84.09583779922298
 10
297.6935510199246
 20
83.94583779922297
 10
297.6185510199246
 20
83.79583779922297
 10
297.5185510199246
 20
83.67083779922297
 10
297.3935510199246
 20
83.54583779922297
 10
297.3685510199246
 20
83.52083779922299
 10
297.3685510199246
 20
78.84583779922298
  0
LWPOLYLINE
  5
10E
330
1B
100
AcDbEntity
 67
     1
  8
0
  6
DURCHGEHEND
 62
     7
100
AcDbPolyline
 90
       43
 70
   129
 43
0.0
 10
295.2435510199246
 20
78.44583779922297
 10
295.2435510199246
 20
78.44583779922297
 10
295.2435510199246
 20
77.57083779922297
 10
294.6185510199246
 20
76.94583779922297
 10
293.7185510199246
 20
76.94583779922297
 10
293.1185510199246
 20
77.57083779922297
 10
293.1185510199246
 20
78.44583779922297
 10
293.5185510199246
 20
78.84583779922298
 10
293.5185510199246
 20
83.52083779922299
 10
293.4685510199246
 20
83.54583779922297
 10
293.3685510199246
 20
83.67083779922297
 10
293.2685510199246
 20
83.79583779922297
 10
293.1935510199246
 20
83.94583779922297
 10
293.1435510199246
 20
84.09583779922298
 10
293.1185510199246
 20
84.27083779922299
 10
293.1185510199246
 20
84.44583779922297
 10
293.1435510199246
 20
84.59583779922298
 10
293.1935510199246
 20
84.77083779922299
 10
293.2685510199246
 20
84.89583779922299
 10
293.3685510199246
 20
85.04583779922297
 10
293.4685510199246
 20
85.17083779922297
 10
293.6185510199246
 20
85.27083779922299
 10
293.7685510199246
 20
85.34583779922298
 10
293.9185510199245
 20
85.39583779922299
 10
294.0935510199246
 20
85.42083779922297
 10
294.2435510199246
 20
85.42083779922297
 10
294.4185510199245
 20
85.39583779922299
 10
294.5685510199246
 20
85.34583779922298
 10
294.7185510199246
 20
85.27083779922299
 10
294.8685510199246
 20
85.17083779922297
 10
294.9935510199246
 20
85.04583779922297
 10
295.0685510199246
 20
84.89583779922299
 10
295.1435510199246
 20
84.77083779922299
 10
295.2185510199246
 20
84.59583779922298
 10
295.2435510199246
 20
84.44583779922297
 10
295.2435510199246
 20
84.27083779922299
 10
295.2185510199246
 20
84.09583779922298
 10
295.1435510199246
 20
83.94583779922297
 10
295.0685510199246
 20
83.79583779922297
 10
294.9935510199246
 20
83.67083779922297
 10
294.8685510199246
 20
83.54583779922297
 10
294.8185510199246
 20
83.52083779922299
 10
294.8185510199246
 20
78.84583779922298
  0
LWPOLYLINE
  5
10F
330
1B
100
AcDbEntity
 67
     1
  8
0
  6
DURCHGEHEND
 62
     7
100
AcDbPolyline
 90
       53
 70
   129
 43
0.0
 10
291.4185510199245
 20
119.0708377992229
 10
291.4185510199245
 20
119.0708377992229
 10
291.4185510199245
 20
118.1958377992229
 10
291.0185510199246
 20
117.795837799223
 10
291.0185510199246
 20
112.9458377992229
 10
297.1435510199246
 20
112.9458377992229
 10
297.1685510199245
 20
112.970837799223
 10
297.2935510199245
 20
113.095837799223
 10
297.4185510199245
 20
113.1958377992229
 10
297.5685510199246
 20
113.270837799223
 10
297.7435510199246
 20
113.3208377992229
 10
297.8935510199246
 20
113.345837799223
 10
298.0685510199246
 20
113.345837799223
 10
298.2185510199246
 20
113.3208377992229
 10
298.3935510199246
 20
113.270837799223
 10
298.5435510199245
 20
113.1958377992229
 10
298.6685510199245
 20
113.095837799223
 10
298.7935510199245
 20
112.970837799223
 10
298.8935510199246
 20
112.845837799223
 10
298.9685510199246
 20
112.6958377992229
 10
299.0185510199246
 20
112.545837799223
 10
299.0435510199245
 20
112.3708377992229
 10
299.0435510199245
 20
112.1958377992229
 10
299.0185510199246
 20
112.045837799223
 10
298.9685510199246
 20
111.8708377992229
 10
298.8935510199246
 20
111.7458377992229
 10
298.7935510199245
 20
111.595837799223
 10
298.6685510199245
 20
111.470837799223
 10
298.5435510199245
 20
111.3708377992229
 10
298.3935510199246
 20
111.295837799223
 10
298.2185510199246
 20
111.2458377992229
 10
298.0685510199246
 20
111.220837799223
 10
297.8935510199246
 20
111.220837799223
 10
297.7435510199246
 20
111.2458377992229
 10
297.5685510199246
 20
111.295837799223
 10
297.4185510199245
 20
111.3708377992229
 10
297.2935510199245
 20
111.470837799223
 10
297.1685510199245
 20
111.595837799223
 10
297.1435510199246
 20
111.645837799223
 10
290.4185510199245
 20
111.645837799223
 10
290.2935510199245
 20
111.645837799223
 10
290.1685510199245
 20
111.670837799223
 10
290.0435510199245
 20
111.720837799223
 10
289.9435510199246
 20
111.770837799223
 10
289.8435510199246
 20
111.8708377992229
 10
289.7685510199246
 20
111.970837799223
 10
289.7185510199246
 20
112.095837799223
 10
289.6935510199246
 20
112.220837799223
 10
289.6935510199246
 20
117.795837799223
 10
289.2935510199245
 20
118.1958377992229
 10
289.2935510199245
 20
119.0708377992229
 10
289.9185510199245
 20
119.6958377992229
 10
290.7935510199245
 20
119.6958377992229
  0
LWPOLYLINE
  5
110
330
1B
100
AcDbEntity
 67
     1
  8
0
  6
DURCHGEHEND
 62
     7
100
AcDbPolyline
 90
       53
 70
   129
 43
0.0
 10
293.9685510199246
 20
119.0708377992229
 10
293.9685510199246
 20
119.0708377992229
 10
293.9685510199246
 20
118.1958377992229
 10
293.5685510199246
 20
117.795837799223
 10
293.5685510199246
 20
115.4958377992229
 10
297.1435510199246
 20
115.4958377992229
 10
297.1685510199245
 20
115.520837799223
 10
297.2935510199245
 20
115.645837799223
 10
297.4185510199245
 20
115.7458377992229
 10
297.5685510199246
 20
115.8208377992229
 10
297.7435510199246
 20
115.8708377992229
 10
297.8935510199246
 20
115.895837799223
 10
298.0685510199246
 20
115.895837799223
 10
298.2185510199246
 20
115.8708377992229
 10
298.3935510199246
 20
115.8208377992229
 10
298.5435510199245
 20
115.7458377992229
 10
298.6685510199245
 20
115.645837799223
 10
298.7935510199245
 20
115.520837799223
 10
298.8935510199246
 20
115.395837799223
 10
298.9685510199246
 20
115.2458377992229
 10
299.0185510199246
 20
115.0708377992229
 10
299.0435510199245
 20
114.920837799223
 10
299.0435510199245
 20
114.7458377992229
 10
299.0185510199246
 20
114.5708377992229
 10
298.9685510199246
 20
114.420837799223
 10
298.8935510199246
 20
114.270837799223
 10
298.7935510199245
 20
114.145837799223
 10
298.6685510199245
 20
114.020837799223
 10
298.5435510199245
 20
113.920837799223
 10
298.3935510199246
 20
113.845837799223
 10
298.2185510199246
 20
113.795837799223
 10
298.0685510199246
 20
113.770837799223
 10
297.8935510199246
 20
113.770837799223
 10
297.7435510199246
 20
113.795837799223
 10
297.5685510199246
 20
113.845837799223
 10
297.4185510199245
 20
113.920837799223
 10
297.2935510199245
 20
114.020837799223
 10
297.1685510199245
 20
114.145837799223
 10
297.1435510199246
 20
114.170837799223
 10
292.8435510199246
 20
114.170837799223
 10
292.7185510199246
 20
114.1958377992229
 10
292.5935510199246
 20
114.2458377992229
 10
292.4935510199246
 20
114.3208377992229
 10
292.3935510199246
 20
114.420837799223
 10
292.3185510199246
 20
114.520837799223
 10
292.2685510199246
 20
114.645837799223
 10
292.2435510199246
 20
114.770837799223
 10
292.2435510199246
 20
114.895837799223
 10
292.2435510199246
 20
117.795837799223
 10
291.8435510199246
 20
118.1958377992229
 10
291.8435510199246
 20
119.0708377992229
 10
292.4685510199246
 20
119.6958377992229
 10
293.3435510199246
 20
119.6958377992229
  0
LWPOLYLINE
  5
111
330
1B
100
AcDbEntity
 67
     1
  8
0
  6
DURCHGEHEND
 62
     7
100
AcDbPolyline
 90
       54
 70
   129
 43
0.0
 10
288.8935510199246
 20
119.0708377992229
 10
288.8935510199246
 20
119.0708377992229
 10
288.8935510199246
 20
118.1958377992229
 10
288.4685510199246
 20
117.795837799223
 10
288.4685510199246
 20
99.64583779922299
 10
288.4685510199246
 20
99.64583779922299
 10
288.4685510199246
 20
99.52083779922299
 10
288.4435510199246
 20
99.39583779922299
 10
288.3935510199246
 20
99.27083779922299
 10
288.3185510199246
 20
99.17083779922297
 10
288.2435510199246
 20
99.07083779922297
 10
288.1435510199246
 20
99.02083779922299
 10
288.0185510199246
 20
98.97083779922298
 10
287.8935510199246
 20
98.94583779922297
 10
283.5685510199246
 20
98.94583779922297
 10
283.5435510199245
 20
98.89583779922299
 10
283.4435510199246
 20
98.77083779922299
 10
283.2935510199245
 20
98.67083779922297
 10
283.1435510199246
 20
98.59583779922298
 10
282.9935510199246
 20
98.54583779922297
 10
282.8185510199246
 20
98.52083779922299
 10
282.6685510199245
 20
98.52083779922299
 10
282.4935510199246
 20
98.54583779922297
 10
282.3435510199246
 20
98.59583779922298
 10
282.1935510199246
 20
98.67083779922297
 10
282.0435510199245
 20
98.77083779922299
 10
281.9185510199245
 20
98.89583779922299
 10
281.8435510199246
 20
99.04583779922297
 10
281.7435510199246
 20
99.17083779922297
 10
281.6935510199246
 20
99.34583779922298
 10
281.6685510199245
 20
99.49583779922298
 10
281.6685510199245
 20
99.67083779922302
 10
281.6935510199246
 20
99.845837799223
 10
281.7435510199246
 20
99.9958377992229
 10
281.8435510199246
 20
100.145837799223
 10
281.9185510199245
 20
100.270837799223
 10
282.0435510199245
 20
100.395837799223
 10
282.1935510199246
 20
100.4958377992229
 10
282.3435510199246
 20
100.5708377992229
 10
282.4935510199246
 20
100.6208377992229
 10
282.6685510199245
 20
100.645837799223
 10
282.8185510199246
 20
100.645837799223
 10
282.9935510199246
 20
100.6208377992229
 10
283.1435510199246
 20
100.5708377992229
 10
283.2935510199245
 20
100.4958377992229
 10
283.4435510199246
 20
100.395837799223
 10
283.5435510199245
 20
100.270837799223
 10
283.5685510199246
 20
100.2458377992229
 10
287.1685510199245
 20
100.2458377992229
 10
287.1685510199245
 20
117.795837799223
 10
286.7685510199246
 20
118.1958377992229
 10
286.7685510199246
 20
119.0708377992229
 10
287.3685510199246
 20
119.6958377992229
 10
288.2685510199246
 20
119.6958377992229
  0
LWPOLYLINE
  5
112
330
1B
100
AcDbEntity
 67
     1
  8
0
  6
DURCHGEHEND
 62
     7
100
AcDbPolyline
 90
       53
 70
   129
 43
0.0
 10
286.3435510199246
 20
119.0708377992229
 10
286.3435510199246
 20
119.0708377992229
 10
286.3435510199246
 20
118.1958377992229
 10
285.9435510199246
 20
117.795837799223
 10
285.9435510199246
 20
114.770837799223
 10
285.9185510199245
 20
114.645837799223
 10
285.8685510199246
 20
114.520837799223
 10
285.7935510199245
 20
114.420837799223
 10
285.6935510199246
 20
114.3208377992229
 10
285.5935510199246
 20
114.2458377992229
 10
285.4685510199246
 20
114.1958377992229
 10
285.3435510199246
 20
114.170837799223
 10
285.2185510199246
 20
114.170837799223
 10
283.5685510199246
 20
114.170837799223
 10
283.5435510199245
 20
114.145837799223
 10
283.4435510199246
 20
114.020837799223
 10
283.2935510199245
 20
113.920837799223
 10
283.1435510199246
 20
113.845837799223
 10
282.9935510199246
 20
113.795837799223
 10
282.8185510199246
 20
113.770837799223
 10
282.6685510199245
 20
113.770837799223
 10
282.4935510199246
 20
113.795837799223
 10
282.3435510199246
 20
113.845837799223
 10
282.1935510199246
 20
113.920837799223
 10
282.0435510199245
 20
114.020837799223
 10
281.9185510199245
 20
114.145837799223
 10
281.8435510199246
 20
114.270837799223
 10
281.7435510199246
 20
114.420837799223
 10
281.6935510199246
 20
114.5708377992229
 10
281.6685510199245
 20
114.7458377992229
 10
281.6685510199245
 20
114.920837799223
 10
281.6935510199246
 20
115.0708377992229
 10
281.7435510199246
 20
115.2458377992229
 10
281.8435510199246
 20
115.395837799223
 10
281.9185510199245
 20
115.520837799223
 10
282.0435510199245
 20
115.645837799223
 10
282.1935510199246
 20
115.7458377992229
 10
282.3435510199246
 20
115.8208377992229
 10
282.4935510199246
 20
115.8708377992229
 10
282.6685510199245
 20
115.895837799223
 10
282.8185510199246
 20
115.895837799223
 10
282.9935510199246
 20
115.8708377992229
 10
283.1435510199246
 20
115.8208377992229
 10
283.2935510199245
 20
115.7458377992229
 10
283.4435510199246
 20
115.645837799223
 10
283.5435510199245
 20
115.520837799223
 10
283.5685510199246
 20
115.4958377992229
 10
284.6185510199246
 20
115.4958377992229
 10
284.6185510199246
 20
117.795837799223
 10
284.2185510199246
 20
118.1958377992229
 10
284.2185510199246
 20
119.0708377992229
 10
284.8435510199246
 20
119.6958377992229
 10
285.7185510199246
 20
119.6958377992229
  0
LWPOLYLINE
  5
113
330
1B
100
AcDbEntity
 67
     1
  8
0
  6
DURCHGEHEND
 62
     7
100
AcDbPolyline
 90
       43
 70
   129
 43
0.0
 10
279.3685510199246
 20
106.145837799223
 10
279.3685510199246
 20
106.145837799223
 10
278.4935510199246
 20
106.145837799223
 10
277.8685510199246
 20
106.770837799223
 10
277.8685510199246
 20
107.645837799223
 10
278.4935510199246
 20
108.270837799223
 10
279.3685510199246
 20
108.270837799223
 10
279.7685510199246
 20
107.8708377992229
 10
281.8935510199246
 20
107.8708377992229
 10
281.9185510199245
 20
107.895837799223
 10
282.0435510199245
 20
108.020837799223
 10
282.1935510199246
 20
108.1208377992229
 10
282.3435510199246
 20
108.1958377992229
 10
282.4935510199246
 20
108.2458377992229
 10
282.6685510199245
 20
108.270837799223
 10
282.8185510199246
 20
108.270837799223
 10
282.9935510199246
 20
108.2458377992229
 10
283.1435510199246
 20
108.1958377992229
 10
283.2935510199245
 20
108.1208377992229
 10
283.4435510199246
 20
108.020837799223
 10
283.5435510199245
 20
107.895837799223
 10
283.6435510199246
 20
107.770837799223
 10
283.7185510199246
 20
107.6208377992229
 10
283.7685510199246
 20
107.470837799223
 10
283.7935510199245
 20
107.295837799223
 10
283.7935510199245
 20
107.1208377992229
 10
283.7685510199246
 20
106.970837799223
 10
283.7185510199246
 20
106.795837799223
 10
283.6435510199246
 20
106.645837799223
 10
283.5435510199245
 20
106.520837799223
 10
283.4435510199246
 20
106.395837799223
 10
283.2935510199245
 20
106.295837799223
 10
283.1435510199246
 20
106.220837799223
 10
282.9935510199246
 20
106.170837799223
 10
282.8185510199246
 20
106.145837799223
 10
282.6685510199245
 20
106.145837799223
 10
282.4935510199246
 20
106.170837799223
 10
282.3435510199246
 20
106.220837799223
 10
282.1935510199246
 20
106.295837799223
 10
282.0435510199245
 20
106.395837799223
 10
281.9185510199245
 20
106.520837799223
 10
281.8935510199246
 20
106.545837799223
 10
279.7685510199246
 20
106.545837799223
  0
LWPOLYLINE
  5
114
330
1B
100
AcDbEntity
 67
     1
  8
0
  6
DURCHGEHEND
 62
     7
100
AcDbPolyline
 90
       43
 70
   129
 43
0.0
 10
279.3685510199246
 20
101.0708377992229
 10
279.3685510199246
 20
101.0708377992229
 10
278.4935510199246
 20
101.0708377992229
 10
277.8685510199246
 20
101.6958377992229
 10
277.8685510199246
 20
102.5708377992229
 10
278.4935510199246
 20
103.1958377992229
 10
279.3685510199246
 20
103.1958377992229
 10
279.7685510199246
 20
102.795837799223
 10
281.8935510199246
 20
102.795837799223
 10
281.9185510199245
 20
102.8208377992229
 10
282.0435510199245
 20
102.9458377992229
 10
282.1935510199246
 20
103.045837799223
 10
282.3435510199246
 20
103.1208377992229
 10
282.4935510199246
 20
103.170837799223
 10
282.6685510199245
 20
103.1958377992229
 10
282.8185510199246
 20
103.1958377992229
 10
282.9935510199246
 20
103.170837799223
 10
283.1435510199246
 20
103.1208377992229
 10
283.2935510199245
 20
103.045837799223
 10
283.4435510199246
 20
102.9458377992229
 10
283.5435510199245
 20
102.8208377992229
 10
283.6435510199246
 20
102.6958377992229
 10
283.7185510199246
 20
102.545837799223
 10
283.7685510199246
 20
102.3708377992229
 10
283.7935510199245
 20
102.220837799223
 10
283.7935510199245
 20
102.045837799223
 10
283.7685510199246
 20
101.8708377992229
 10
283.7185510199246
 20
101.720837799223
 10
283.6435510199246
 20
101.5708377992229
 10
283.5435510199245
 20
101.4458377992229
 10
283.4435510199246
 20
101.3208377992229
 10
283.2935510199245
 20
101.220837799223
 10
283.1435510199246
 20
101.145837799223
 10
282.9935510199246
 20
101.095837799223
 10
282.8185510199246
 20
101.0708377992229
 10
282.6685510199245
 20
101.0708377992229
 10
282.4935510199246
 20
101.095837799223
 10
282.3435510199246
 20
101.145837799223
 10
282.1935510199246
 20
101.220837799223
 10
282.0435510199245
 20
101.3208377992229
 10
281.9185510199245
 20
101.4458377992229
 10
281.8935510199246
 20
101.470837799223
 10
279.7685510199246
 20
101.470837799223
  0
LINE
  5
115
330
1B
100
AcDbEntity
 67
     1
  8
BOHRUNGEN
  6
DURCHGEHEND
 62
     1
100
AcDbLine
 10
284.0185510199246
 20
84.34583779922298
 30
0.0
 11
284.0185510199246
 21
84.34583779922298
 31
0.0
  0
LINE
  5
116
330
1B
100
AcDbEntity
 67
     1
  8
BOHRUNGEN
  6
DURCHGEHEND
 62
     1
100
AcDbLine
 10
286.5435510199245
 20
84.34583779922298
 30
0.0
 11
286.5435510199245
 21
84.34583779922298
 31
0.0
  0
LINE
  5
117
330
1B
100
AcDbEntity
 67
     1
  8
BOHRUNGEN
  6
DURCHGEHEND
 62
     1
100
AcDbLine
 10
289.0935510199246
 20
84.34583779922298
 30
0.0
 11
289.0935510199246
 21
84.34583779922298
 31
0.0
  0
LINE
  5
118
330
1B
100
AcDbEntity
 67
     1
  8
BOHRUNGEN
  6
DURCHGEHEND
 62
     1
100
AcDbLine
 10
291.6185510199246
 20
84.34583779922298
 30
0.0
 11
291.6185510199246
 21
84.34583779922298
 31
0.0
  0
LINE
  5
119
330
1B
100
AcDbEntity
 67
     1
  8
BOHRUNGEN
  6
DURCHGEHEND
 62
     1
100
AcDbLine
 10
294.1685510199245
 20
84.34583779922298
 30
0.0
 11
294.1685510199245
 21
84.34583779922298
 31
0.0
  0
LINE
  5
11A
330
1B
100
AcDbEntity
 67
     1
  8
BOHRUNGEN
  6
DURCHGEHEND
 62
     1
100
AcDbLine
 10
296.7185510199246
 20
84.34583779922298
 30
0.0
 11
296.7185510199246
 21
84.34583779922298
 31
0.0
  0
LINE
  5
11B
330
1B
100
AcDbEntity
 67
     1
  8
BOHRUNGEN
  6
DURCHGEHEND
 62
     1
100
AcDbLine
 10
297.9685510199246
 20
86.89583779922299
 30
0.0
 11
297.9685510199246
 21
86.89583779922299
 31
0.0
  0
LINE
  5
11C
330
1B
100
AcDbEntity
 67
     1
  8
BOHRUNGEN
  6
DURCHGEHEND
 62
     1
100
AcDbLine
 10
297.9685510199246
 20
89.42083779922297
 30
0.0
 11
297.9685510199246
 21
89.42083779922297
 31
0.0
  0
LINE
  5
11D
330
1B
100
AcDbEntity
 67
     1
  8
BOHRUNGEN
  6
DURCHGEHEND
 62
     1
100
AcDbLine
 10
297.9685510199246
 20
109.7458377992229
 30
0.0
 11
297.9685510199246
 21
109.7458377992229
 31
0.0
  0
LINE
  5
11E
330
1B
100
AcDbEntity
 67
     1
  8
BOHRUNGEN
  6
DURCHGEHEND
 62
     1
100
AcDbLine
 10
297.9685510199246
 20
112.295837799223
 30
0.0
 11
297.9685510199246
 21
112.295837799223
 31
0.0
  0
LINE
  5
11F
330
1B
100
AcDbEntity
 67
     1
  8
BOHRUNGEN
  6
DURCHGEHEND
 62
     1
100
AcDbLine
 10
297.9685510199246
 20
114.8208377992229
 30
0.0
 11
297.9685510199246
 21
114.8208377992229
 31
0.0
  0
LINE
  5
120
330
1B
100
AcDbEntity
 67
     1
  8
BOHRUNGEN
  6
DURCHGEHEND
 62
     1
100
AcDbLine
 10
282.7435510199246
 20
114.8208377992229
 30
0.0
 11
282.7435510199246
 21
114.8208377992229
 31
0.0
  0
LINE
  5
121
330
1B
100
AcDbEntity
 67
     1
  8
BOHRUNGEN
  6
DURCHGEHEND
 62
     1
100
AcDbLine
 10
282.7435510199246
 20
109.7458377992229
 30
0.0
 11
282.7435510199246
 21
109.7458377992229
 31
0.0
  0
LINE
  5
122
330
1B
100
AcDbEntity
 67
     1
  8
BOHRUNGEN
  6
DURCHGEHEND
 62
     1
100
AcDbLine
 10
282.7435510199246
 20
107.220837799223
 30
0.0
 11
282.7435510199246
 21
107.220837799223
 31
0.0
  0
LINE
  5
123
330
1B
100
AcDbEntity
 67
     1
  8
BOHRUNGEN
  6
DURCHGEHEND
 62
     1
100
AcDbLine
 10
282.7435510199246
 20
104.670837799223
 30
0.0
 11
282.7435510199246
 21
104.670837799223
 31
0.0
  0
LINE
  5
126
102
{ACAD_XDICTIONARY
360
124
102
}
330
1B
100
AcDbEntity
 67
     1
  8
BOHRUNGEN
  6
DURCHGEHEND
 62
     1
100
AcDbLine
 10
282.7435510199246
 20
102.1208377992229
 30
0.0
 11
282.7435510199246
 21
102.1208377992229
 31
0.0
  0
LINE
  5
127
330
1B
100
AcDbEntity
 67
     1
  8
BOHRUNGEN
  6
DURCHGEHEND
 62
     1
100
AcDbLine
 10
282.7435510199246
 20
99.59583779922298
 30
0.0
 11
282.7435510199246
 21
99.59583779922298
 31
0.0
  0
LINE
  5
128
330
1B
100
AcDbEntity
 67
     1
  8
BOHRUNGEN
  6
DURCHGEHEND
 62
     1
100
AcDbLine
 10
282.7435510199246
 20
97.04583779922297
 30
0.0
 11
282.7435510199246
 21
97.04583779922297
 31
0.0
  0
LINE
  5
129
330
1B
100
AcDbEntity
 67
     1
  8
BOHRUNGEN
  6
DURCHGEHEND
 62
     1
100
AcDbLine
 10
295.1935510199246
 20
98.32083779922297
 30
0.0
 11
295.1935510199246
 21
98.32083779922297
 31
0.0
  0
LINE
  5
12A
330
1B
100
AcDbEntity
 67
     1
  8
BOHRUNGEN
  6
DURCHGEHEND
 62
     1
100
AcDbLine
 10
295.1935510199246
 20
95.77083779922299
 30
0.0
 11
295.1935510199246
 21
95.77083779922299
 31
0.0
  0
LINE
  5
12B
330
1B
100
AcDbEntity
 67
     1
  8
BOHRUNGEN
  6
DURCHGEHEND
 62
     1
100
AcDbLine
 10
273.8435510199246
 20
97.04583779922297
 30
0.0
 11
273.8435510199246
 21
97.04583779922297
 31
0.0
  0
LINE
  5
12C
330
1B
100
AcDbEntity
 67
     1
  8
BOHRUNGEN
  6
DURCHGEHEND
 62
     1
100
AcDbLine
 10
276.3935510199246
 20
97.04583779922297
 30
0.0
 11
276.3935510199246
 21
97.04583779922297
 31
0.0
  0
LINE
  5
12D
330
1B
100
AcDbEntity
 67
     1
  8
BOHRUNGEN
  6
DURCHGEHEND
 62
     1
100
AcDbLine
 10
278.9185510199245
 20
97.04583779922297
 30
0.0
 11
278.9185510199245
 21
97.04583779922297
 31
0.0
  0
LINE
  5
12E
330
1B
100
AcDbEntity
 67
     1
  8
BOHRUNGEN
  6
DURCHGEHEND
 62
     1
100
AcDbLine
 10
273.8435510199246
 20
102.1208377992229
 30
0.0
 11
273.8435510199246
 21
102.1208377992229
 31
0.0
  0
LINE
  5
12F
330
1B
100
AcDbEntity
 67
     1
  8
BOHRUNGEN
  6
DURCHGEHEND
 62
     1
100
AcDbLine
 10
276.3935510199246
 20
102.1208377992229
 30
0.0
 11
276.3935510199246
 21
102.1208377992229
 31
0.0
  0
LINE
  5
130
330
1B
100
AcDbEntity
 67
     1
  8
BOHRUNGEN
  6
DURCHGEHEND
 62
     1
100
AcDbLine
 10
278.9185510199245
 20
102.1208377992229
 30
0.0
 11
278.9185510199245
 21
102.1208377992229
 31
0.0
  0
LINE
  5
131
330
1B
100
AcDbEntity
 67
     1
  8
BOHRUNGEN
  6
DURCHGEHEND
 62
     1
100
AcDbLine
 10
273.8435510199246
 20
104.670837799223
 30
0.0
 11
273.8435510199246
 21
104.670837799223
 31
0.0
  0
LINE
  5
132
330
1B
100
AcDbEntity
 67
     1
  8
BOHRUNGEN
  6
DURCHGEHEND
 62
     1
100
AcDbLine
 10
276.3935510199246
 20
104.670837799223
 30
0.0
 11
276.3935510199246
 21
104.670837799223
 31
0.0
  0
LINE
  5
133
330
1B
100
AcDbEntity
 67
     1
  8
BOHRUNGEN
  6
DURCHGEHEND
 62
     1
100
AcDbLine
 10
278.9185510199245
 20
104.670837799223
 30
0.0
 11
278.9185510199245
 21
104.670837799223
 31
0.0
  0
LINE
  5
134
330
1B
100
AcDbEntity
 67
     1
  8
BOHRUNGEN
  6
DURCHGEHEND
 62
     1
100
AcDbLine
 10
273.8435510199246
 20
107.220837799223
 30
0.0
 11
273.8435510199246
 21
107.220837799223
 31
0.0
  0
LINE
  5
135
330
1B
100
AcDbEntity
 67
     1
  8
BOHRUNGEN
  6
DURCHGEHEND
 62
     1
100
AcDbLine
 10
276.3935510199246
 20
107.220837799223
 30
0.0
 11
276.3935510199246
 21
107.220837799223
 31
0.0
  0
LINE
  5
136
330
1B
100
AcDbEntity
 67
     1
  8
BOHRUNGEN
  6
DURCHGEHEND
 62
     1
100
AcDbLine
 10
278.9185510199245
 20
107.220837799223
 30
0.0
 11
278.9185510199245
 21
107.220837799223
 31
0.0
  0
LINE
  5
137
330
1B
100
AcDbEntity
 67
     1
  8
BOHRUNGEN
  6
DURCHGEHEND
 62
     1
100
AcDbLine
 10
273.8435510199246
 20
109.7458377992229
 30
0.0
 11
273.8435510199246
 21
109.7458377992229
 31
0.0
  0
LINE
  5
138
330
1B
100
AcDbEntity
 67
     1
  8
BOHRUNGEN
  6
DURCHGEHEND
 62
     1
100
AcDbLine
 10
276.3935510199246
 20
109.7458377992229
 30
0.0
 11
276.3935510199246
 21
109.7458377992229
 31
0.0
  0
LINE
  5
139
330
1B
100
AcDbEntity
 67
     1
  8
BOHRUNGEN
  6
DURCHGEHEND
 62
     1
100
AcDbLine
 10
278.9185510199245
 20
109.7458377992229
 30
0.0
 11
278.9185510199245
 21
109.7458377992229
 31
0.0
  0
LINE
  5
13C
102
{ACAD_XDICTIONARY
360
13A
102
}
330
1B
100
AcDbEntity
 67
     1
  8
BOHRUNGEN
  6
DURCHGEHEND
 62
     1
100
AcDbLine
 10
285.2685510199246
 20
123.720837799223
 30
0.0
 11
285.2685510199246
 21
123.720837799223
 31
0.0
  0
LINE
  5
13D
330
1B
100
AcDbEntity
 67
     1
  8
BOHRUNGEN
  6
DURCHGEHEND
 62
     1
100
AcDbLine
 10
285.2685510199246
 20
121.170837799223
 30
0.0
 11
285.2685510199246
 21
121.170837799223
 31
0.0
  0
LINE
  5
13E
330
1B
100
AcDbEntity
 67
     1
  8
BOHRUNGEN
  6
DURCHGEHEND
 62
     1
100
AcDbLine
 10
285.2685510199246
 20
118.645837799223
 30
0.0
 11
285.2685510199246
 21
118.645837799223
 31
0.0
  0
LINE
  5
13F
330
1B
100
AcDbEntity
 67
     1
  8
BOHRUNGEN
  6
DURCHGEHEND
 62
     1
100
AcDbLine
 10
287.8185510199246
 20
123.720837799223
 30
0.0
 11
287.8185510199246
 21
123.720837799223
 31
0.0
  0
LINE
  5
140
330
1B
100
AcDbEntity
 67
     1
  8
BOHRUNGEN
  6
DURCHGEHEND
 62
     1
100
AcDbLine
 10
287.8185510199246
 20
121.170837799223
 30
0.0
 11
287.8185510199246
 21
121.170837799223
 31
0.0
  0
LINE
  5
141
330
1B
100
AcDbEntity
 67
     1
  8
BOHRUNGEN
  6
DURCHGEHEND
 62
     1
100
AcDbLine
 10
287.8185510199246
 20
118.645837799223
 30
0.0
 11
287.8185510199246
 21
118.645837799223
 31
0.0
  0
LINE
  5
142
330
1B
100
AcDbEntity
 67
     1
  8
BOHRUNGEN
  6
DURCHGEHEND
 62
     1
100
AcDbLine
 10
292.8935510199246
 20
123.720837799223
 30
0.0
 11
292.8935510199246
 21
123.720837799223
 31
0.0
  0
LINE
  5
143
330
1B
100
AcDbEntity
 67
     1
  8
BOHRUNGEN
  6
DURCHGEHEND
 62
     1
100
AcDbLine
 10
292.8935510199246
 20
121.170837799223
 30
0.0
 11
292.8935510199246
 21
121.170837799223
 31
0.0
  0
LINE
  5
144
330
1B
100
AcDbEntity
 67
     1
  8
BOHRUNGEN
  6
DURCHGEHEND
 62
     1
100
AcDbLine
 10
292.8935510199246
 20
118.645837799223
 30
0.0
 11
292.8935510199246
 21
118.645837799223
 31
0.0
  0
LINE
  5
145
330
1B
100
AcDbEntity
 67
     1
  8
BOHRUNGEN
  6
DURCHGEHEND
 62
     1
100
AcDbLine
 10
290.3685510199246
 20
123.720837799223
 30
0.0
 11
290.3685510199246
 21
123.720837799223
 31
0.0
  0
LINE
  5
146
330
1B
100
AcDbEntity
 67
     1
  8
BOHRUNGEN
  6
DURCHGEHEND
 62
     1
100
AcDbLine
 10
290.3685510199246
 20
121.170837799223
 30
0.0
 11
290.3685510199246
 21
121.170837799223
 31
0.0
  0
LINE
  5
147
330
1B
100
AcDbEntity
 67
     1
  8
BOHRUNGEN
  6
DURCHGEHEND
 62
     1
100
AcDbLine
 10
290.3685510199246
 20
118.645837799223
 30
0.0
 11
290.3685510199246
 21
118.645837799223
 31
0.0
  0
LINE
  5
148
330
1B
100
AcDbEntity
 67
     1
  8
BOHRUNGEN
  6
DURCHGEHEND
 62
     1
100
AcDbLine
 10
291.6185510199246
 20
77.99583779922298
 30
0.0
 11
291.6185510199246
 21
77.99583779922298
 31
0.0
  0
LINE
  5
149
330
1B
100
AcDbEntity
 67
     1
  8
BOHRUNGEN
  6
DURCHGEHEND
 62
     1
100
AcDbLine
 10
294.1685510199245
 20
77.99583779922298
 30
0.0
 11
294.1685510199245
 21
77.99583779922298
 31
0.0
  0
LINE
  5
14A
330
1B
100
AcDbEntity
 67
     1
  8
BOHRUNGEN
  6
DURCHGEHEND
 62
     1
100
AcDbLine
 10
296.7185510199246
 20
77.99583779922298
 30
0.0
 11
296.7185510199246
 21
77.99583779922298
 31
0.0
  0
LINE
  5
14B
330
1B
100
AcDbEntity
 67
     1
  8
BOHRUNGEN
  6
DURCHGEHEND
 62
     1
100
AcDbLine
 10
289.0935510199246
 20
77.99583779922298
 30
0.0
 11
289.0935510199246
 21
77.99583779922298
 31
0.0
  0
LINE
  5
14C
330
1B
100
AcDbEntity
 67
     1
  8
BOHRUNGEN
  6
DURCHGEHEND
 62
     1
100
AcDbLine
 10
286.5435510199245
 20
77.99583779922298
 30
0.0
 11
286.5435510199245
 21
77.99583779922298
 31
0.0
  0
LINE
  5
14D
330
1B
100
AcDbEntity
 67
     1
  8
BOHRUNGEN
  6
DURCHGEHEND
 62
     1
100
AcDbLine
 10
284.0185510199246
 20
77.99583779922298
 30
0.0
 11
284.0185510199246
 21
77.99583779922298
 31
0.0
  0
LINE
  5
14E
330
1B
100
AcDbEntity
 67
     1
  8
BOHRUNGEN
  6
DURCHGEHEND
 62
     1
100
AcDbLine
 10
295.4435510199246
 20
123.720837799223
 30
0.0
 11
295.4435510199246
 21
123.720837799223
 31
0.0
  0
LINE
  5
14F
330
1B
100
AcDbEntity
 67
     1
  8
BOHRUNGEN
  6
DURCHGEHEND
 62
     1
100
AcDbLine
 10
295.4435510199246
 20
121.170837799223
 30
0.0
 11
295.4435510199246
 21
121.170837799223
 31
0.0
  0
LINE
  5
150
330
1B
100
AcDbEntity
 67
     1
  8
BOHRUNGEN
  6
DURCHGEHEND
 62
     1
100
AcDbLine
 10
295.4435510199246
 20
118.645837799223
 30
0.0
 11
295.4435510199246
 21
118.645837799223
 31
0.0
  0
LINE
  5
151
330
1B
100
AcDbEntity
 67
     1
  8
BOHRUNGEN
  6
DURCHGEHEND
 62
     1
100
AcDbLine
 10
305.5935510199246
 20
77.99583779922298
 30
0.0
 11
305.5935510199246
 21
77.99583779922298
 31
0.0
  0
LINE
  5
152
330
1B
100
AcDbEntity
 67
     1
  8
BOHRUNGEN
  6
DURCHGEHEND
 62
     1
100
AcDbLine
 10
308.1435510199246
 20
77.99583779922298
 30
0.0
 11
308.1435510199246
 21
77.99583779922298
 31
0.0
  0
LINE
  5
153
330
1B
100
AcDbEntity
 67
     1
  8
BOHRUNGEN
  6
DURCHGEHEND
 62
     1
100
AcDbLine
 10
310.6685510199245
 20
77.99583779922298
 30
0.0
 11
310.6685510199245
 21
77.99583779922298
 31
0.0
  0
LINE
  5
154
330
1B
100
AcDbEntity
 67
     1
  8
BOHRUNGEN
  6
DURCHGEHEND
 62
     1
100
AcDbLine
 10
313.2185510199246
 20
77.99583779922298
 30
0.0
 11
313.2185510199246
 21
77.99583779922298
 31
0.0
  0
CIRCLE
  5
157
102
{ACAD_XDICTIONARY
360
155
102
}
330
1B
100
AcDbEntity
 67
     1
  8
AUSFRAESEN_RAND
  6
DURCHGEHEND
 62
    69
100
AcDbCircle
 10
299.0
 20
99.66643422523751
 30
0.0
 40
35.80819215902875
  0
CIRCLE
  5
15A
102
{ACAD_XDICTIONARY
360
158
102
}
330
1B
100
AcDbEntity
 67
     1
  8
KONTUREN_FRAESEN
  6
DURCHGEHEND
 62
     5
100
AcDbCircle
 10
299.2435510199246
 20
131.3458377992229
 30
0.0
 40
1.600000000000023
  0
CIRCLE
  5
15D
102
{ACAD_XDICTIONARY
360
15B
102
}
330
1B
100
AcDbEntity
 67
     1
  8
KONTUREN_FRAESEN
  6
DURCHGEHEND
 62
     5
100
AcDbCircle
 10
330.9935510199246
 20
99.59583779922298
 30
0.0
 40
1.600000000000023
  0
CIRCLE
  5
160
102
{ACAD_XDICTIONARY
360
15E
102
}
330
1B
100
AcDbEntity
 67
     1
  8
KONTUREN_FRAESEN
  6
DURCHGEHEND
 62
     5
100
AcDbCircle
 10
299.2435510199246
 20
67.84583779922298
 30
0.0
 40
1.600000000000023
  0
CIRCLE
  5
163
102
{ACAD_XDICTIONARY
360
161
102
}
330
1B
100
AcDbEntity
 67
     1
  8
KONTUREN_FRAESEN
  6
DURCHGEHEND
 62
     5
100
AcDbCircle
 10
267.4935510199246
 20
99.59583779922298
 30
0.0
 40
1.600000000000023
  0
LWPOLYLINE
  5
166
102
{ACAD_XDICTIONARY
360
164
102
}
330
1B
100
AcDbEntity
 67
     1
  8
SCHRIFT
100
AcDbPolyline
 90
        5
 70
   128
 43
0.0
 10
320.0081743566748
 20
85.5097070874169
 10
323.0081743566748
 20
86.50970708741687
 10
321.5081743566748
 20
87.0097070874169
 10
323.0081743566748
 20
87.50970708741687
 10
320.0081743566748
 20
88.5097070874169
  0
LINE
  5
169
102
{ACAD_XDICTIONARY
360
167
102
}
330
1B
100
AcDbEntity
 67
     1
  8
SCHRIFT
100
AcDbLine
 10
323.0081743566748
 20
90.00970708741687
 30
0.0
 11
320.0081743566748
 21
90.00970708741687
 31
0.0
  0
LINE
  5
16C
102
{ACAD_XDICTIONARY
360
16A
102
}
330
1B
100
AcDbEntity
 67
     1
  8
SCHRIFT
100
AcDbLine
 10
323.0081743566748
 20
92.00970708741687
 30
0.0
 11
320.0081743566748
 21
92.00970708741687
 31
0.0
  0
LWPOLYLINE
  5
16F
102
{ACAD_XDICTIONARY
360
16D
102
}
330
1B
100
AcDbEntity
 67
     1
  8
SCHRIFT
100
AcDbPolyline
 90
        8
 70
   128
 43
0.0
 10
320.5081743566748
 20
98.50970708741687
 10
320.0081743566748
 20
98.00970708741687
 10
320.0081743566748
 20
97.00970708741687
 10
320.5081743566748
 20
96.50970708741687
 10
322.5081743566748
 20
96.50970708741687
 10
323.0081743566748
 20
97.00970708741687
 10
323.0081743566748
 20
98.00970708741687
 10
322.5081743566748
 20
98.50970708741687
  0
LWPOLYLINE
  5
172
102
{ACAD_XDICTIONARY
360
170
102
}
330
1B
100
AcDbEntity
 67
     1
  8
SCHRIFT
100
AcDbPolyline
 90
        4
 70
   129
 43
0.0
 10
323.0081743566748
 20
99.50970708741684
 10
323.0081743566748
 20
101.5097070874168
 10
320.0081743566748
 20
101.5097070874168
 10
320.0081743566748
 20
99.50970708741687
  0
LWPOLYLINE
  5
175
102
{ACAD_XDICTIONARY
360
173
102
}
330
1B
100
AcDbEntity
 67
     1
  8
SCHRIFT
100
AcDbPolyline
 90
        7
 70
   128
 43
0.0
 10
323.0081743566748
 20
102.5097070874168
 10
320.0081743566748
 20
102.5097070874168
 10
320.0081743566748
 20
104.0097070874168
 10
320.5081743566748
 20
104.5097070874168
 10
321.0081743566748
 20
104.5097070874168
 10
321.5081743566748
 20
104.0097070874168
 10
321.5081743566748
 20
102.5097070874168
  0
LINE
  5
178
102
{ACAD_XDICTIONARY
360
176
102
}
330
1B
100
AcDbEntity
 67
     1
  8
SCHRIFT
100
AcDbLine
 10
323.0081743566748
 20
106.5097070874168
 30
0.0
 11
320.0081743566748
 21
106.5097070874168
 31
0.0
  0
LINE
  5
17B
102
{ACAD_XDICTIONARY
360
179
102
}
330
1B
100
AcDbEntity
 67
     1
  8
SCHRIFT
100
AcDbLine
 10
320.0081743566748
 20
105.5097070874168
 30
0.0
 11
320.0081743566748
 21
107.5097070874168
 31
0.0
  0
LWPOLYLINE
  5
17E
102
{ACAD_XDICTIONARY
360
17C
102
}
330
1B
100
AcDbEntity
 67
     1
  8
SCHRIFT
100
AcDbPolyline
 90
        4
 70
   128
 43
0.0
 10
323.0081743566748
 20
110.5097070874168
 10
323.0081743566748
 20
108.5097070874168
 10
320.0081743566748
 20
108.5097070874168
 10
320.0081743566748
 20
110.5097070874168
  0
LINE
  5
181
102
{ACAD_XDICTIONARY
360
17F
102
}
330
1B
100
AcDbEntity
 67
     1
  8
SCHRIFT
100
AcDbLine
 10
321.5081743566748
 20
108.5097070874168
 30
0.0
 11
321.5081743566748
 21
109.5097070874168
 31
0.0
  0
LWPOLYLINE
  5
184
102
{ACAD_XDICTIONARY
360
182
102
}
330
1B
100
AcDbEntity
 67
     1
  8
SCHRIFT
100
AcDbPolyline
 90
        7
 70
   128
 43
0.0
 10
323.0081743566748
 20
111.5097070874168
 10
320.0081743566748
 20
111.5097070874168
 10
320.0081743566748
 20
113.0097070874168
 10
320.5081743566748
 20
113.5097070874168
 10
321.0081743566748
 20
113.5097070874168
 10
321.5081743566748
 20
113.0097070874168
 10
321.5081743566748
 20
111.5097070874168
  0
LINE
  5
187
102
{ACAD_XDICTIONARY
360
185
102
}
330
1B
100
AcDbEntity
 67
     1
  8
SCHRIFT
100
AcDbLine
 10
321.5081743566748
 20
112.0097070874168
 30
0.0
 11
323.0081743566748
 21
113.5097070874168
 31
0.0
  0
CIRCLE
  5
18A
102
{ACAD_XDICTIONARY
360
188
102
}
330
1B
100
AcDbEntity
 67
     1
  8
BEFESTIGUNGSBOHRUNG
  6
DURCHGEHEND
100
AcDbCircle
 10
259.0
 20
119.875
 30
0.0
 40
1.75
  0
CIRCLE
  5
18D
102
{ACAD_XDICTIONARY
360
18B
102
}
330
1B
100
AcDbEntity
 67
     1
  8
BEFESTIGUNGSBOHRUNG
  6
DURCHGEHEND
100
AcDbCircle
 10
331.0
 20
133.875
 30
0.0
 40
1.75
  0
CIRCLE
  5
190
102
{ACAD_XDICTIONARY
360
18E
102
}
330
1B
100
AcDbEntity
 67
     1
  8
BEFESTIGUNGSBOHRUNG
  6
DURCHGEHEND
100
AcDbCircle
 10
259.0
 20
78.875
 30
0.0
 40
1.75
  0
CIRCLE
  5
193
102
{ACAD_XDICTIONARY
360
191
102
}
330
1B
100
AcDbEntity
 67
     1
  8
BEFESTIGUNGSBOHRUNG
  6
DURCHGEHEND
100
AcDbCircle
 10
331.0
 20
63.875
 30
0.0
 40
1.75
  0
LWPOLYLINE
  5
196
102
{ACAD_XDICTIONARY
360
194
102
}
330
1B
100
AcDbEntity
 67
     1
  8
AUSFRAESEN_RAND
  6
DURCHGEHEND
100
AcDbPolyline
 90
        4
 70
   129
 43
0.0
 10
245.9369726106229
 20
72.17724007830846
 10
270.9369726106229
 20
72.17724007830846
 10
270.9369726106229
 20
62.17724007830846
 10
245.9369726106229
 20
62.17724007830846
  0
LINE
  5
199
102
{ACAD_XDICTIONARY
360
197
102
}
330
1B
100
AcDbEntity
 67
     1
  8
0
  6
DURCHGEHEND
100
AcDbLine
 10
245.4670441574275
 20
67.17724007830846
 30
0.0
 11
271.4670441574275
 21
67.17724007830846
 31
0.0
  0
CIRCLE
  5
19C
102
{ACAD_XDICTIONARY
360
19A
102
}
330
1B
100
AcDbEntity
 67
     1
  8
KONTUREN_FRAESEN
  6
DURCHGEHEND
100
AcDbCircle
 10
248.818938621873
 20
69.67724007830846
 30
0.0
 40
1.118033988749907
  0
CIRCLE
  5
19F
102
{ACAD_XDICTIONARY
360
19D
102
}
330
1B
100
AcDbEntity
 67
     1
  8
KONTUREN_FRAESEN
  6
DURCHGEHEND
100
AcDbCircle
 10
252.9243071181164
 20
69.5975141453668
 30
0.0
 40
1.118033988749914
  0
CIRCLE
  5
1A2
102
{ACAD_XDICTIONARY
360
1A0
102
}
330
1B
100
AcDbEntity
 67
     1
  8
KONTUREN_FRAESEN
  6
DURCHGEHEND
100
AcDbCircle
 10
256.934088314855
 20
69.5975141453668
 30
0.0
 40
1.118033988749865
  0
CIRCLE
  5
1A5
102
{ACAD_XDICTIONARY
360
1A3
102
}
330
1B
100
AcDbEntity
 67
     1
  8
KONTUREN_FRAESEN
  6
DURCHGEHEND
100
AcDbCircle
 10
260.9438695115934
 20
69.63038120435647
 30
0.0
 40
1.118033988749907
  0
CIRCLE
  5
1A8
102
{ACAD_XDICTIONARY
360
1A6
102
}
330
1B
100
AcDbEntity
 67
     1
  8
KONTUREN_FRAESEN
  6
DURCHGEHEND
100
AcDbCircle
 10
248.7745462804395
 20
64.74018532237828
 30
0.0
 40
1.118033988749879
  0
CIRCLE
  5
1AB
102
{ACAD_XDICTIONARY
360
1A9
102
}
330
1B
100
AcDbEntity
 67
     1
  8
KONTUREN_FRAESEN
  6
DURCHGEHEND
100
AcDbCircle
 10
252.9243071181164
 20
64.66745529691781
 30
0.0
 40
1.118033988749907
  0
CIRCLE
  5
1AE
102
{ACAD_XDICTIONARY
360
1AC
102
}
330
1B
100
AcDbEntity
 67
     1
  8
KONTUREN_FRAESEN
  6
DURCHGEHEND
100
AcDbCircle
 10
256.9669553738446
 20
64.70032235590746
 30
0.0
 40
1.118033988749914
  0
CIRCLE
  5
1B1
102
{ACAD_XDICTIONARY
360
1AF
102
}
330
1B
100
AcDbEntity
 67
     1
  8
KONTUREN_FRAESEN
  6
DURCHGEHEND
100
AcDbCircle
 10
260.9438695115934
 20
64.70032235590746
 30
0.0
 40
1.118033988749914
  0
LWPOLYLINE
  5
1B4
102
{ACAD_XDICTIONARY
360
1B2
102
}
330
1B
100
AcDbEntity
 67
     1
  8
AUSFRAESEN_RAND
  6
DURCHGEHEND
100
AcDbPolyline
 90
        4
 70
   129
 43
0.0
 10
246.4699284531954
 20
135.875
 10
271.4699284531954
 20
135.875
 10
271.4699284531954
 20
125.875
 10
246.4699284531954
 20
125.875
  0
LINE
  5
1B7
102
{ACAD_XDICTIONARY
360
1B5
102
}
330
1B
100
AcDbEntity
 67
     1
  8
0
  6
DURCHGEHEND
100
AcDbLine
 10
246.0
 20
130.875
 30
0.0
 11
272.0
 21
130.875
 31
0.0
  0
CIRCLE
  5
1BA
102
{ACAD_XDICTIONARY
360
1B8
102
}
330
1B
100
AcDbEntity
 67
     1
  8
KONTUREN_FRAESEN
  6
DURCHGEHEND
100
AcDbCircle
 10
249.3518944644455
 20
133.375
 30
0.0
 40
1.118033988749914
  0
CIRCLE
  5
1BD
102
{ACAD_XDICTIONARY
360
1BB
102
}
330
1B
100
AcDbEntity
 67
     1
  8
KONTUREN_FRAESEN
  6
DURCHGEHEND
100
AcDbCircle
 10
253.4572629606889
 20
133.2952740670584
 30
0.0
 40
1.118033988749914
  0
CIRCLE
  5
1C0
102
{ACAD_XDICTIONARY
360
1BE
102
}
330
1B
100
AcDbEntity
 67
     1
  8
KONTUREN_FRAESEN
  6
DURCHGEHEND
100
AcDbCircle
 10
257.4670441574275
 20
133.2952740670584
 30
0.0
 40
1.118033988749858
  0
CIRCLE
  5
1C3
102
{ACAD_XDICTIONARY
360
1C1
102
}
330
1B
100
AcDbEntity
 67
     1
  8
KONTUREN_FRAESEN
  6
DURCHGEHEND
100
AcDbCircle
 10
261.4768253541659
 20
133.328141126048
 30
0.0
 40
1.1180339887499
  0
CIRCLE
  5
1C6
102
{ACAD_XDICTIONARY
360
1C4
102
}
330
1B
100
AcDbEntity
 67
     1
  8
KONTUREN_FRAESEN
  6
DURCHGEHEND
100
AcDbCircle
 10
249.307502123012
 20
128.4379452440698
 30
0.0
 40
1.118033988749886
  0
CIRCLE
  5
1C9
102
{ACAD_XDICTIONARY
360
1C7
102
}
330
1B
100
AcDbEntity
 67
     1
  8
KONTUREN_FRAESEN
  6
DURCHGEHEND
100
AcDbCircle
 10
253.4572629606889
 20
128.3652152186094
 30
0.0
 40
1.118033988749886
  0
CIRCLE
  5
1CC
102
{ACAD_XDICTIONARY
360
1CA
102
}
330
1B
100
AcDbEntity
 67
     1
  8
KONTUREN_FRAESEN
  6
DURCHGEHEND
100
AcDbCircle
 10
257.4999112164171
 20
128.398082277599
 30
0.0
 40
1.118033988749914
  0
CIRCLE
  5
1CF
102
{ACAD_XDICTIONARY
360
1CD
102
}
330
1B
100
AcDbEntity
 67
     1
  8
KONTUREN_FRAESEN
  6
DURCHGEHEND
100
AcDbCircle
 10
261.4768253541659
 20
128.398082277599
 30
0.0
 40
1.118033988749914
  0
CIRCLE
  5
1D2
102
{ACAD_XDICTIONARY
360
1D0
102
}
330
1B
100
AcDbEntity
 67
     1
  8
BEFESTIGUNGSBOHRUNG
  6
DURCHGEHEND
100
AcDbCircle
 10
94.0
 20
134.875
 30
0.0
 40
1.75
  0
CIRCLE
  5
1D5
102
{ACAD_XDICTIONARY
360
1D3
102
}
330
1B
100
AcDbEntity
 67
     1
  8
BEFESTIGUNGSBOHRUNG
  6
DURCHGEHEND
100
AcDbCircle
 10
94.0
 20
64.875
 30
0.0
 40
1.75
  0
ENDSEC
  0
SECTION
  2
OBJECTS
  0
DICTIONARY
  5
C
330
0
100
AcDbDictionary
  3
ACAD_GROUP
350
D
  3
ACAD_LAYOUT
350
1A
  3
ACAD_MLEADERSTYLE
350
1F8
  3
ACAD_MLINESTYLE
350
17
  3
ACAD_PLOTSETTINGS
350
19
  3
ACAD_VISUALSTYLE
350
2A
  3
ACDBHEADERROUNDTRIPXREC
350
1D6
  3
ACDBVARIABLEDICTIONARY
350
1F6
  0
DICTIONARY
  5
52
330
54
100
AcDbDictionary
280
     1
  3
TC_OPTIONAL_DATA
360
53
  0
DICTIONARY
  5
55
330
57
100
AcDbDictionary
280
     1
  3
TC_OPTIONAL_DATA
360
56
  0
DICTIONARY
  5
58
330
5A
100
AcDbDictionary
280
     1
  3
TC_OPTIONAL_DATA
360
59
  0
DICTIONARY
  5
5B
330
5D
100
AcDbDictionary
280
     1
  3
TC_OPTIONAL_DATA
360
5C
  0
DICTIONARY
  5
5E
330
60
100
AcDbDictionary
280
     1
  3
TC_OPTIONAL_DATA
360
5F
  0
DICTIONARY
  5
61
330
63
100
AcDbDictionary
280
     1
  3
TC_OPTIONAL_DATA
360
62
  0
DICTIONARY
  5
64
330
66
100
AcDbDictionary
280
     1
  3
TC_OPTIONAL_DATA
360
65
  0
DICTIONARY
  5
67
330
69
100
AcDbDictionary
280
     1
  3
TC_OPTIONAL_DATA
360
68
  0
DICTIONARY
  5
8E
330
90
100
AcDbDictionary
280
     1
  3
TC_OPTIONAL_DATA
360
8F
  0
DICTIONARY
  5
A4
330
A6
100
AcDbDictionary
280
     1
  3
TC_OPTIONAL_DATA
360
A5
  0
DICTIONARY
  5
A9
330
AB
100
AcDbDictionary
280
     1
  3
TC_OPTIONAL_DATA
360
AA
  0
DICTIONARY
  5
C1
330
C3
100
AcDbDictionary
280
     1
  3
TC_OPTIONAL_DATA
360
C2
  0
DICTIONARY
  5
C4
330
C6
100
AcDbDictionary
280
     1
  3
TC_OPTIONAL_DATA
360
C5
  0
DICTIONARY
  5
C7
330
C9
100
AcDbDictionary
280
     1
  3
TC_OPTIONAL_DATA
360
C8
  0
DICTIONARY
  5
CA
330
CC
100
AcDbDictionary
280
     1
  3
TC_OPTIONAL_DATA
360
CB
  0
DICTIONARY
  5
CD
330
CF
100
AcDbDictionary
280
     1
  3
TC_OPTIONAL_DATA
360
CE
  0
DICTIONARY
  5
D0
330
D2
100
AcDbDictionary
280
     1
  3
TC_OPTIONAL_DATA
360
D1
  0
DICTIONARY
  5
D3
330
D5
100
AcDbDictionary
280
     1
  3
TC_OPTIONAL_DATA
360
D4
  0
DICTIONARY
  5
D6
330
D8
100
AcDbDictionary
280
     1
  3
TC_OPTIONAL_DATA
360
D7
  0
DICTIONARY
  5
D9
330
DB
100
AcDbDictionary
280
     1
  3
TC_OPTIONAL_DATA
360
DA
  0
DICTIONARY
  5
DC
330
DE
100
AcDbDictionary
280
     1
  3
TC_OPTIONAL_DATA
360
DD
  0
DICTIONARY
  5
DF
330
E1
100
AcDbDictionary
280
     1
  3
TC_OPTIONAL_DATA
360
E0
  0
DICTIONARY
  5
E2
330
E4
100
AcDbDictionary
280
     1
  3
TC_OPTIONAL_DATA
360
E3
  0
DICTIONARY
  5
E5
330
E7
100
AcDbDictionary
280
     1
  3
TC_OPTIONAL_DATA
360
E6
  0
DICTIONARY
  5
E8
330
EA
100
AcDbDictionary
280
     1
  3
TC_OPTIONAL_DATA
360
E9
  0
DICTIONARY
  5
EB
330
ED
100
AcDbDictionary
280
     1
  3
TC_OPTIONAL_DATA
360
EC
  0
DICTIONARY
  5
EE
330
F0
100
AcDbDictionary
280
     1
  3
TC_OPTIONAL_DATA
360
EF
  0
DICTIONARY
  5
F1
330
F3
100
AcDbDictionary
280
     1
  3
TC_OPTIONAL_DATA
360
F2
  0
DICTIONARY
  5
F4
330
F6
100
AcDbDictionary
280
     1
  3
TC_OPTIONAL_DATA
360
F5
  0
DICTIONARY
  5
F7
330
F9
100
AcDbDictionary
280
     1
  3
TC_OPTIONAL_DATA
360
F8
  0
DICTIONARY
  5
FA
330
FC
100
AcDbDictionary
280
     1
  3
TC_OPTIONAL_DATA
360
FB
  0
DICTIONARY
  5
FD
330
FF
100
AcDbDictionary
280
     1
  3
TC_OPTIONAL_DATA
360
FE
  0
DICTIONARY
  5
124
330
126
100
AcDbDictionary
280
     1
  3
TC_OPTIONAL_DATA
360
125
  0
DICTIONARY
  5
13A
330
13C
100
AcDbDictionary
280
     1
  3
TC_OPTIONAL_DATA
360
13B
  0
DICTIONARY
  5
155
330
157
100
AcDbDictionary
280
     1
  3
TC_OPTIONAL_DATA
360
156
  0
DICTIONARY
  5
158
330
15A
100
AcDbDictionary
280
     1
  3
TC_OPTIONAL_DATA
360
159
  0
DICTIONARY
  5
15B
330
15D
100
AcDbDictionary
280
     1
  3
TC_OPTIONAL_DATA
360
15C
  0
DICTIONARY
  5
15E
330
160
100
AcDbDictionary
280
     1
  3
TC_OPTIONAL_DATA
360
15F
  0
DICTIONARY
  5
161
330
163
100
AcDbDictionary
280
     1
  3
TC_OPTIONAL_DATA
360
162
  0
DICTIONARY
  5
164
330
166
100
AcDbDictionary
280
     1
  3
TC_OPTIONAL_DATA
360
165
  0
DICTIONARY
  5
167
330
169
100
AcDbDictionary
280
     1
  3
TC_OPTIONAL_DATA
360
168
  0
DICTIONARY
  5
16A
330
16C
100
AcDbDictionary
280
     1
  3
TC_OPTIONAL_DATA
360
16B
  0
DICTIONARY
  5
16D
330
16F
100
AcDbDictionary
280
     1
  3
TC_OPTIONAL_DATA
360
16E
  0
DICTIONARY
  5
170
330
172
100
AcDbDictionary
280
     1
  3
TC_OPTIONAL_DATA
360
171
  0
DICTIONARY
  5
173
330
175
100
AcDbDictionary
280
     1
  3
TC_OPTIONAL_DATA
360
174
  0
DICTIONARY
  5
176
330
178
100
AcDbDictionary
280
     1
  3
TC_OPTIONAL_DATA
360
177
  0
DICTIONARY
  5
179
330
17B
100
AcDbDictionary
280
     1
  3
TC_OPTIONAL_DATA
360
17A
  0
DICTIONARY
  5
17C
330
17E
100
AcDbDictionary
280
     1
  3
TC_OPTIONAL_DATA
360
17D
  0
DICTIONARY
  5
17F
330
181
100
AcDbDictionary
280
     1
  3
TC_OPTIONAL_DATA
360
180
  0
DICTIONARY
  5
182
330
184
100
AcDbDictionary
280
     1
  3
TC_OPTIONAL_DATA
360
183
  0
DICTIONARY
  5
185
330
187
100
AcDbDictionary
280
     1
  3
TC_OPTIONAL_DATA
360
186
  0
DICTIONARY
  5
188
330
18A
100
AcDbDictionary
280
     1
  3
TC_OPTIONAL_DATA
360
189
  0
DICTIONARY
  5
18B
330
18D
100
AcDbDictionary
280
     1
  3
TC_OPTIONAL_DATA
360
18C
  0
DICTIONARY
  5
18E
330
190
100
AcDbDictionary
280
     1
  3
TC_OPTIONAL_DATA
360
18F
  0
DICTIONARY
  5
191
330
193
100
AcDbDictionary
280
     1
  3
TC_OPTIONAL_DATA
360
192
  0
DICTIONARY
  5
194
330
196
100
AcDbDictionary
280
     1
  3
TC_OPTIONAL_DATA
360
195
  0
DICTIONARY
  5
197
330
199
100
AcDbDictionary
280
     1
  3
TC_OPTIONAL_DATA
360
198
  0
DICTIONARY
  5
19A
330
19C
100
AcDbDictionary
280
     1
  3
TC_OPTIONAL_DATA
360
19B
  0
DICTIONARY
  5
19D
330
19F
100
AcDbDictionary
280
     1
  3
TC_OPTIONAL_DATA
360
19E
  0
DICTIONARY
  5
1A0
330
1A2
100
AcDbDictionary
280
     1
  3
TC_OPTIONAL_DATA
360
1A1
  0
DICTIONARY
  5
1A3
330
1A5
100
AcDbDictionary
280
     1
  3
TC_OPTIONAL_DATA
360
1A4
  0
DICTIONARY
  5
1A6
330
1A8
100
AcDbDictionary
280
     1
  3
TC_OPTIONAL_DATA
360
1A7
  0
DICTIONARY
  5
1A9
330
1AB
100
AcDbDictionary
280
     1
  3
TC_OPTIONAL_DATA
360
1AA
  0
DICTIONARY
  5
1AC
330
1AE
100
AcDbDictionary
280
     1
  3
TC_OPTIONAL_DATA
360
1AD
  0
DICTIONARY
  5
1AF
330
1B1
100
AcDbDictionary
280
     1
  3
TC_OPTIONAL_DATA
360
1B0
  0
DICTIONARY
  5
1B2
330
1B4
100
AcDbDictionary
280
     1
  3
TC_OPTIONAL_DATA
360
1B3
  0
DICTIONARY
  5
1B5
330
1B7
100
AcDbDictionary
280
     1
  3
TC_OPTIONAL_DATA
360
1B6
  0
DICTIONARY
  5
1B8
330
1BA
100
AcDbDictionary
280
     1
  3
TC_OPTIONAL_DATA
360
1B9
  0
DICTIONARY
  5
1BB
330
1BD
100
AcDbDictionary
280
     1
  3
TC_OPTIONAL_DATA
360
1BC
  0
DICTIONARY
  5
1BE
330
1C0
100
AcDbDictionary
280
     1
  3
TC_OPTIONAL_DATA
360
1BF
  0
DICTIONARY
  5
1C1
330
1C3
100
AcDbDictionary
280
     1
  3
TC_OPTIONAL_DATA
360
1C2
  0
DICTIONARY
  5
1C4
330
1C6
100
AcDbDictionary
280
     1
  3
TC_OPTIONAL_DATA
360
1C5
  0
DICTIONARY
  5
1C7
330
1C9
100
AcDbDictionary
280
     1
  3
TC_OPTIONAL_DATA
360
1C8
  0
DICTIONARY
  5
1CA
330
1CC
100
AcDbDictionary
280
     1
  3
TC_OPTIONAL_DATA
360
1CB
  0
DICTIONARY
  5
1CD
330
1CF
100
AcDbDictionary
280
     1
  3
TC_OPTIONAL_DATA
360
1CE
  0
DICTIONARY
  5
1D0
330
1D2
100
AcDbDictionary
280
     1
  3
TC_OPTIONAL_DATA
360
1D1
  0
DICTIONARY
  5
1D3
330
1D5
100
AcDbDictionary
280
     1
  3
TC_OPTIONAL_DATA
360
1D4
  0
DICTIONARY
  5
D
102
{ACAD_REACTORS
330
C
102
}
330
C
100
AcDbDictionary
  0
DICTIONARY
  5
1A
102
{ACAD_REACTORS
330
C
102
}
330
C
100
AcDbDictionary
  0
DICTIONARY
  5
1F8
102
{ACAD_REACTORS
330
C
102
}
330
C
100
AcDbDictionary
  0
DICTIONARY
  5
17
102
{ACAD_REACTORS
330
C
102
}
330
C
100
AcDbDictionary
  3
STANDARD
350
18
  0
DICTIONARY
  5
19
102
{ACAD_REACTORS
330
C
102
}
330
C
100
AcDbDictionary
  0
DICTIONARY
  5
2A
102
{ACAD_REACTORS
330
C
102
}
330
C
100
AcDbDictionary
  3
2DWIREFRAME
350
2F
  3
3D_HIDDEN
350
31
  3
3DWIREFRAME
350
30
  3
BASIC
350
32
  3
BRIGHTEN
350
36
  3
COLORCHANGE
350
3A
  3
CONCEPTUAL
350
34
  3
DIM
350
35
  3
FACEPATTERN
350
39
  3
FLAT
350
2B
  3
FLATWITHEDGES
350
2C
  3
GOURAUD
350
2D
  3
GOURAUDWITHEDGES
350
2E
  3
LINEPATTERN
350
38
  3
REALISTIC
350
33
  3
THICKEN
350
37
  0
DICTIONARY
  5
1D6
102
{ACAD_REACTORS
330
C
102
}
330
C
100
AcDbDictionary
  3
CEPSNTYPE
350
1DF
  3
DIMSTYLEDATA
350
1F5
  3
FINGERPRINTGUID
350
1E0
  3
HYPERLINKBASE
350
1D9
  3
INSUNITS
350
1DE
  3
LAYOUTDICT
350
1DB
  3
LWETCUNION
350
1DD
  3
PLOTSETDICT
350
1DC
  3
PSVPSCALE
350
1E2
  3
PUCSBASE
350
1E5
  3
PUCSORGBACK
350
1EB
  3
PUCSORGBOTTOM
350
1E7
  3
PUCSORGFRONT
350
1EA
  3
PUCSORGLEFT
350
1E8
  3
PUCSORGRIGHT
350
1E9
  3
PUCSORGTOP
350
1E6
  3
PUCSORTHOREF
350
1E3
  3
PUCSORTHOVIEW
350
1E4
  3
STYLESHEET
350
1DA
  3
TSTACKALIGN
350
1D7
  3
TSTACKSIZE
350
1D8
  3
UCSBASE
350
1EE
  3
UCSORGBACK
350
1F4
  3
UCSORGBOTTOM
350
1F0
  3
UCSORGFRONT
350
1F3
  3
UCSORGLEFT
350
1F1
  3
UCSORGRIGHT
350
1F2
  3
UCSORGTOP
350
1EF
  3
UCSORTHOREF
350
1EC
  3
UCSORTHOVIEW
350
1ED
  3
VERSIONGUID
350
1E1
  0
DICTIONARY
  5
1F6
102
{ACAD_REACTORS
330
C
102
}
330
C
100
AcDbDictionary
  0
TCOPTIONALDATA
  5
53
102
{ACAD_REACTORS
330
52
102
}
330
52
100
TcOptionalData
 70
     1
 70
   128
 90
        1
  1
#$AUX@_ToolInfo Properties
 70
     8
  1
CMD_CENTERPTCIRCLE@
  0
TCOPTIONALDATA
  5
56
102
{ACAD_REACTORS
330
55
102
}
330
55
100
TcOptionalData
 70
     1
 70
   128
 90
        1
  1
#$AUX@_ToolInfo Properties
 70
     8
  1
CMD_CENTERPTCIRCLE@
  0
TCOPTIONALDATA
  5
59
102
{ACAD_REACTORS
330
58
102
}
330
58
100
TcOptionalData
 70
     1
 70
   128
 90
        1
  1
#$AUX@_ToolInfo Properties
 70
     8
  1
CMD_CENTERPTCIRCLE@
  0
TCOPTIONALDATA
  5
5C
102
{ACAD_REACTORS
330
5B
102
}
330
5B
100
TcOptionalData
 70
     1
 70
   128
 90
        1
  1
#$AUX@_ToolInfo Properties
 70
     8
  1
CMD_CENTERPTCIRCLE@
  0
TCOPTIONALDATA
  5
5F
102
{ACAD_REACTORS
330
5E
102
}
330
5E
100
TcOptionalData
 70
     1
 70
   128
 90
        1
  1
#$AUX@_ToolInfo Properties
 70
     8
  1
CMD_CENTERPTCIRCLE@
  0
TCOPTIONALDATA
  5
62
102
{ACAD_REACTORS
330
61
102
}
330
61
100
TcOptionalData
 70
     1
 70
   128
 90
        1
  1
#$AUX@_ToolInfo Properties
 70
     8
  1
CMD_CENTERPTCIRCLE@
  0
TCOPTIONALDATA
  5
65
102
{ACAD_REACTORS
330
64
102
}
330
64
100
TcOptionalData
 70
     1
 70
   128
 90
        1
  1
#$AUX@_ToolInfo Properties
 70
     8
  1
CMD_CENTERPTCIRCLE@
  0
TCOPTIONALDATA
  5
68
102
{ACAD_REACTORS
330
67
102
}
330
67
100
TcOptionalData
 70
     1
 70
   128
 90
        1
  1
#$AUX@_ToolInfo Properties
 70
     8
  1
CMD_CENTERPTCIRCLE@
  0
TCOPTIONALDATA
  5
8F
102
{ACAD_REACTORS
330
8E
102
}
330
8E
100
TcOptionalData
 70
     1
 70
    32
 40
0.0078740157186985
  0
TCOPTIONALDATA
  5
A5
102
{ACAD_REACTORS
330
A4
102
}
330
A4
100
TcOptionalData
 70
     1
 70
    32
 40
0.047244094312191
  0
TCOPTIONALDATA
  5
AA
102
{ACAD_REACTORS
330
A9
102
}
330
A9
100
TcOptionalData
 70
     1
 70
    32
 40
0.047244094312191
  0
TCOPTIONALDATA
  5
C2
102
{ACAD_REACTORS
330
C1
102
}
330
C1
100
TcOptionalData
 70
     1
 70
   128
 90
        1
  1
#$AUX@_ToolInfo Properties
 70
     8
  1
CMD_DOUBLEPTCIRCLE@
  0
TCOPTIONALDATA
  5
C5
102
{ACAD_REACTORS
330
C4
102
}
330
C4
100
TcOptionalData
 70
     1
 70
   128
 90
        1
  1
#$AUX@_ToolInfo Properties
 70
     8
  1
CMD_CENTERPTCIRCLE@
  0
TCOPTIONALDATA
  5
C8
102
{ACAD_REACTORS
330
C7
102
}
330
C7
100
TcOptionalData
 70
     1
 70
   128
 90
        1
  1
#$AUX@_ToolInfo Properties
 70
     8
  1
CMD_CENTERPTCIRCLE@
  0
TCOPTIONALDATA
  5
CB
102
{ACAD_REACTORS
330
CA
102
}
330
CA
100
TcOptionalData
 70
     1
 70
   128
 90
        1
  1
#$AUX@_ToolInfo Properties
 70
     8
  1
CMD_CENTERPTCIRCLE@
  0
TCOPTIONALDATA
  5
CE
102
{ACAD_REACTORS
330
CD
102
}
330
CD
100
TcOptionalData
 70
     1
 70
   128
 90
        1
  1
#$AUX@_ToolInfo Properties
 70
     8
  1
CMD_CENTERPTCIRCLE@
  0
TCOPTIONALDATA
  5
D1
102
{ACAD_REACTORS
330
D0
102
}
330
D0
100
TcOptionalData
 70
     1
 70
    32
 40
-3.0
  0
TCOPTIONALDATA
  5
D4
102
{ACAD_REACTORS
330
D3
102
}
330
D3
100
TcOptionalData
 70
     1
 70
    32
 40
-3.0
  0
TCOPTIONALDATA
  5
D7
102
{ACAD_REACTORS
330
D6
102
}
330
D6
100
TcOptionalData
 70
     1
 70
    32
 40
-3.0
  0
TCOPTIONALDATA
  5
DA
102
{ACAD_REACTORS
330
D9
102
}
330
D9
100
TcOptionalData
 70
     1
 70
    32
 40
-3.0
  0
TCOPTIONALDATA
  5
DD
102
{ACAD_REACTORS
330
DC
102
}
330
DC
100
TcOptionalData
 70
     1
 70
    32
 40
-3.0
  0
TCOPTIONALDATA
  5
E0
102
{ACAD_REACTORS
330
DF
102
}
330
DF
100
TcOptionalData
 70
     1
 70
    32
 40
-3.0
  0
TCOPTIONALDATA
  5
E3
102
{ACAD_REACTORS
330
E2
102
}
330
E2
100
TcOptionalData
 70
     1
 70
    32
 40
-3.0
  0
TCOPTIONALDATA
  5
E6
102
{ACAD_REACTORS
330
E5
102
}
330
E5
100
TcOptionalData
 70
     1
 70
    32
 40
-3.0
  0
TCOPTIONALDATA
  5
E9
102
{ACAD_REACTORS
330
E8
102
}
330
E8
100
TcOptionalData
 70
     1
 70
    32
 40
-3.0
  0
TCOPTIONALDATA
  5
EC
102
{ACAD_REACTORS
330
EB
102
}
330
EB
100
TcOptionalData
 70
     1
 70
    32
 40
-3.0
  0
TCOPTIONALDATA
  5
EF
102
{ACAD_REACTORS
330
EE
102
}
330
EE
100
TcOptionalData
 70
     1
 70
    32
 40
-3.0
  0
TCOPTIONALDATA
  5
F2
102
{ACAD_REACTORS
330
F1
102
}
330
F1
100
TcOptionalData
 70
     1
 70
    32
 40
-3.0
  0
TCOPTIONALDATA
  5
F5
102
{ACAD_REACTORS
330
F4
102
}
330
F4
100
TcOptionalData
 70
     1
 70
   128
 90
        1
  1
#$AUX@_ToolInfo Properties
 70
     8
  1
CMD_CENTERPTCIRCLE@
  0
TCOPTIONALDATA
  5
F8
102
{ACAD_REACTORS
330
F7
102
}
330
F7
100
TcOptionalData
 70
     1
 70
   128
 90
        1
  1
#$AUX@_ToolInfo Properties
 70
     8
  1
CMD_CENTERPTCIRCLE@
  0
TCOPTIONALDATA
  5
FB
102
{ACAD_REACTORS
330
FA
102
}
330
FA
100
TcOptionalData
 70
     1
 70
   128
 90
        1
  1
#$AUX@_ToolInfo Properties
 70
     8
  1
CMD_CENTERPTCIRCLE@
  0
TCOPTIONALDATA
  5
FE
102
{ACAD_REACTORS
330
FD
102
}
330
FD
100
TcOptionalData
 70
     1
 70
   128
 90
        1
  1
#$AUX@_ToolInfo Properties
 70
     8
  1
CMD_CENTERPTCIRCLE@
  0
TCOPTIONALDATA
  5
125
102
{ACAD_REACTORS
330
124
102
}
330
124
100
TcOptionalData
 70
     1
 70
    32
 40
0.0078740157186985
  0
TCOPTIONALDATA
  5
13B
102
{ACAD_REACTORS
330
13A
102
}
330
13A
100
TcOptionalData
 70
     1
 70
    32
 40
0.047244094312191
  0
TCOPTIONALDATA
  5
156
102
{ACAD_REACTORS
330
155
102
}
330
155
100
TcOptionalData
 70
     1
 70
   128
 90
        1
  1
#$AUX@_ToolInfo Properties
 70
     8
  1
CMD_DOUBLEPTCIRCLE@
  0
TCOPTIONALDATA
  5
159
102
{ACAD_REACTORS
330
158
102
}
330
158
100
TcOptionalData
 70
     1
 70
   128
 90
        1
  1
#$AUX@_ToolInfo Properties
 70
     8
  1
CMD_CENTERPTCIRCLE@
  0
TCOPTIONALDATA
  5
15C
102
{ACAD_REACTORS
330
15B
102
}
330
15B
100
TcOptionalData
 70
     1
 70
   128
 90
        1
  1
#$AUX@_ToolInfo Properties
 70
     8
  1
CMD_CENTERPTCIRCLE@
  0
TCOPTIONALDATA
  5
15F
102
{ACAD_REACTORS
330
15E
102
}
330
15E
100
TcOptionalData
 70
     1
 70
   128
 90
        1
  1
#$AUX@_ToolInfo Properties
 70
     8
  1
CMD_CENTERPTCIRCLE@
  0
TCOPTIONALDATA
  5
162
102
{ACAD_REACTORS
330
161
102
}
330
161
100
TcOptionalData
 70
     1
 70
   128
 90
        1
  1
#$AUX@_ToolInfo Properties
 70
     8
  1
CMD_CENTERPTCIRCLE@
  0
TCOPTIONALDATA
  5
165
102
{ACAD_REACTORS
330
164
102
}
330
164
100
TcOptionalData
 70
     1
 70
    32
 40
-3.0
  0
TCOPTIONALDATA
  5
168
102
{ACAD_REACTORS
330
167
102
}
330
167
100
TcOptionalData
 70
     1
 70
    32
 40
-3.0
  0
TCOPTIONALDATA
  5
16B
102
{ACAD_REACTORS
330
16A
102
}
330
16A
100
TcOptionalData
 70
     1
 70
    32
 40
-3.0
  0
TCOPTIONALDATA
  5
16E
102
{ACAD_REACTORS
330
16D
102
}
330
16D
100
TcOptionalData
 70
     1
 70
    32
 40
-3.0
  0
TCOPTIONALDATA
  5
171
102
{ACAD_REACTORS
330
170
102
}
330
170
100
TcOptionalData
 70
     1
 70
    32
 40
-3.0
  0
TCOPTIONALDATA
  5
174
102
{ACAD_REACTORS
330
173
102
}
330
173
100
TcOptionalData
 70
     1
 70
    32
 40
-3.0
  0
TCOPTIONALDATA
  5
177
102
{ACAD_REACTORS
330
176
102
}
330
176
100
TcOptionalData
 70
     1
 70
    32
 40
-3.0
  0
TCOPTIONALDATA
  5
17A
102
{ACAD_REACTORS
330
179
102
}
330
179
100
TcOptionalData
 70
     1
 70
    32
 40
-3.0
  0
TCOPTIONALDATA
  5
17D
102
{ACAD_REACTORS
330
17C
102
}
330
17C
100
TcOptionalData
 70
     1
 70
    32
 40
-3.0
  0
TCOPTIONALDATA
  5
180
102
{ACAD_REACTORS
330
17F
102
}
330
17F
100
TcOptionalData
 70
     1
 70
    32
 40
-3.0
  0
TCOPTIONALDATA
  5
183
102
{ACAD_REACTORS
330
182
102
}
330
182
100
TcOptionalData
 70
     1
 70
    32
 40
-3.0
  0
TCOPTIONALDATA
  5
186
102
{ACAD_REACTORS
330
185
102
}
330
185
100
TcOptionalData
 70
     1
 70
    32
 40
-3.0
  0
TCOPTIONALDATA
  5
189
102
{ACAD_REACTORS
330
188
102
}
330
188
100
TcOptionalData
 70
     1
 70
   128
 90
        1
  1
#$AUX@_ToolInfo Properties
 70
     8
  1
CMD_CENTERPTCIRCLE@
  0
TCOPTIONALDATA
  5
18C
102
{ACAD_REACTORS
330
18B
102
}
330
18B
100
TcOptionalData
 70
     1
 70
   128
 90
        1
  1
#$AUX@_ToolInfo Properties
 70
     8
  1
CMD_CENTERPTCIRCLE@
  0
TCOPTIONALDATA
  5
18F
102
{ACAD_REACTORS
330
18E
102
}
330
18E
100
TcOptionalData
 70
     1
 70
   128
 90
        1
  1
#$AUX@_ToolInfo Properties
 70
     8
  1
CMD_CENTERPTCIRCLE@
  0
TCOPTIONALDATA
  5
192
102
{ACAD_REACTORS
330
191
102
}
330
191
100
TcOptionalData
 70
     1
 70
   128
 90
        1
  1
#$AUX@_ToolInfo Properties
 70
     8
  1
CMD_CENTERPTCIRCLE@
  0
TCOPTIONALDATA
  5
195
102
{ACAD_REACTORS
330
194
102
}
330
194
100
TcOptionalData
 70
     1
 70
   128
 90
        1
  1
#$AUX@_ToolInfo Properties
 70
     8
  1
CMD_RECTANGLE@
  0
TCOPTIONALDATA
  5
198
102
{ACAD_REACTORS
330
197
102
}
330
197
100
TcOptionalData
 70
     1
 70
   128
 90
        1
  1
#$AUX@_ToolInfo Properties
 70
     8
  1
CMD_LINE@
  0
TCOPTIONALDATA
  5
19B
102
{ACAD_REACTORS
330
19A
102
}
330
19A
100
TcOptionalData
 70
     1
 70
   128
 90
        1
  1
#$AUX@_ToolInfo Properties
 70
     8
  1
CMD_DOUBLEPTCIRCLE@
  0
TCOPTIONALDATA
  5
19E
102
{ACAD_REACTORS
330
19D
102
}
330
19D
100
TcOptionalData
 70
     1
 70
   128
 90
        1
  1
#$AUX@_ToolInfo Properties
 70
     8
  1
CMD_DOUBLEPTCIRCLE@
  0
TCOPTIONALDATA
  5
1A1
102
{ACAD_REACTORS
330
1A0
102
}
330
1A0
100
TcOptionalData
 70
     1
 70
   128
 90
        1
  1
#$AUX@_ToolInfo Properties
 70
     8
  1
CMD_DOUBLEPTCIRCLE@
  0
TCOPTIONALDATA
  5
1A4
102
{ACAD_REACTORS
330
1A3
102
}
330
1A3
100
TcOptionalData
 70
     1
 70
   128
 90
        1
  1
#$AUX@_ToolInfo Properties
 70
     8
  1
CMD_DOUBLEPTCIRCLE@
  0
TCOPTIONALDATA
  5
1A7
102
{ACAD_REACTORS
330
1A6
102
}
330
1A6
100
TcOptionalData
 70
     1
 70
   128
 90
        1
  1
#$AUX@_ToolInfo Properties
 70
     8
  1
CMD_DOUBLEPTCIRCLE@
  0
TCOPTIONALDATA
  5
1AA
102
{ACAD_REACTORS
330
1A9
102
}
330
1A9
100
TcOptionalData
 70
     1
 70
   128
 90
        1
  1
#$AUX@_ToolInfo Properties
 70
     8
  1
CMD_DOUBLEPTCIRCLE@
  0
TCOPTIONALDATA
  5
1AD
102
{ACAD_REACTORS
330
1AC
102
}
330
1AC
100
TcOptionalData
 70
     1
 70
   128
 90
        1
  1
#$AUX@_ToolInfo Properties
 70
     8
  1
CMD_DOUBLEPTCIRCLE@
  0
TCOPTIONALDATA
  5
1B0
102
{ACAD_REACTORS
330
1AF
102
}
330
1AF
100
TcOptionalData
 70
     1
 70
   128
 90
        1
  1
#$AUX@_ToolInfo Properties
 70
     8
  1
CMD_DOUBLEPTCIRCLE@
  0
TCOPTIONALDATA
  5
1B3
102
{ACAD_REACTORS
330
1B2
102
}
330
1B2
100
TcOptionalData
 70
     1
 70
   128
 90
        1
  1
#$AUX@_ToolInfo Properties
 70
     8
  1
CMD_RECTANGLE@
  0
TCOPTIONALDATA
  5
1B6
102
{ACAD_REACTORS
330
1B5
102
}
330
1B5
100
TcOptionalData
 70
     1
 70
   128
 90
        1
  1
#$AUX@_ToolInfo Properties
 70
     8
  1
CMD_LINE@
  0
TCOPTIONALDATA
  5
1B9
102
{ACAD_REACTORS
330
1B8
102
}
330
1B8
100
TcOptionalData
 70
     1
 70
   128
 90
        1
  1
#$AUX@_ToolInfo Properties
 70
     8
  1
CMD_DOUBLEPTCIRCLE@
  0
TCOPTIONALDATA
  5
1BC
102
{ACAD_REACTORS
330
1BB
102
}
330
1BB
100
TcOptionalData
 70
     1
 70
   128
 90
        1
  1
#$AUX@_ToolInfo Properties
 70
     8
  1
CMD_DOUBLEPTCIRCLE@
  0
TCOPTIONALDATA
  5
1BF
102
{ACAD_REACTORS
330
1BE
102
}
330
1BE
100
TcOptionalData
 70
     1
 70
   128
 90
        1
  1
#$AUX@_ToolInfo Properties
 70
     8
  1
CMD_DOUBLEPTCIRCLE@
  0
TCOPTIONALDATA
  5
1C2
102
{ACAD_REACTORS
330
1C1
102
}
330
1C1
100
TcOptionalData
 70
     1
 70
   128
 90
        1
  1
#$AUX@_ToolInfo Properties
 70
     8
  1
CMD_DOUBLEPTCIRCLE@
  0
TCOPTIONALDATA
  5
1C5
102
{ACAD_REACTORS
330
1C4
102
}
330
1C4
100
TcOptionalData
 70
     1
 70
   128
 90
        1
  1
#$AUX@_ToolInfo Properties
 70
     8
  1
CMD_DOUBLEPTCIRCLE@
  0
TCOPTIONALDATA
  5
1C8
102
{ACAD_REACTORS
330
1C7
102
}
330
1C7
100
TcOptionalData
 70
     1
 70
   128
 90
        1
  1
#$AUX@_ToolInfo Properties
 70
     8
  1
CMD_DOUBLEPTCIRCLE@
  0
TCOPTIONALDATA
  5
1CB
102
{ACAD_REACTORS
330
1CA
102
}
330
1CA
100
TcOptionalData
 70
     1
 70
   128
 90
        1
  1
#$AUX@_ToolInfo Properties
 70
     8
  1
CMD_DOUBLEPTCIRCLE@
  0
TCOPTIONALDATA
  5
1CE
102
{ACAD_REACTORS
330
1CD
102
}
330
1CD
100
TcOptionalData
 70
     1
 70
   128
 90
        1
  1
#$AUX@_ToolInfo Properties
 70
     8
  1
CMD_DOUBLEPTCIRCLE@
  0
TCOPTIONALDATA
  5
1D1
102
{ACAD_REACTORS
330
1D0
102
}
330
1D0
100
TcOptionalData
 70
     1
 70
   128
 90
        1
  1
#$AUX@_ToolInfo Properties
 70
     8
  1
CMD_CENTERPTCIRCLE@
  0
TCOPTIONALDATA
  5
1D4
102
{ACAD_REACTORS
330
1D3
102
}
330
1D3
100
TcOptionalData
 70
     1
 70
   128
 90
        1
  1
#$AUX@_ToolInfo Properties
 70
     8
  1
CMD_CENTERPTCIRCLE@
  0
MLINESTYLE
  5
18
102
{ACAD_REACTORS
330
17
102
}
330
17
100
AcDbMlineStyle
  2
Standard
 70
     0
  3

 62
   256
 51
90.0
 52
90.0
 71
    16
 49
0.5
 62
   256
  6
BYLAYER
 49
-0.5
 62
   256
  6
BYLAYER
 49
0.5
 62
   256
  6
BYLAYER
 49
-0.5
 62
   256
  6
BYLAYER
 49
0.5
 62
   256
  6
BYLAYER
 49
-0.5
 62
   256
  6
BYLAYER
 49
0.5
 62
   256
  6
BYLAYER
 49
-0.5
 62
   256
  6
BYLAYER
 49
0.5
 62
   256
  6
BYLAYER
 49
-0.5
 62
   256
  6
BYLAYER
 49
0.5
 62
   256
  6
BYLAYER
 49
-0.5
 62
   256
  6
BYLAYER
 49
0.5
 62
   256
  6
BYLAYER
 49
-0.5
 62
   256
  6
BYLAYER
 49
0.5
 62
   256
  6
BYLAYER
 49
-0.5
 62
   256
  6
BYLAYER
  0
ACAD_PROXY_OBJECT
  5
2F
102
{ACAD_REACTORS
330
2A
102
}
330
2A
100
AcDbProxyObject
 90
      499
 91
      501
 93
      436
310
42CC9915DA5C99599C985B595049028333333333333E3BF0000000000000FB0107901411070040501600405405064090741402480A0340
1001
ACAD
1000
AcDbSavedByObjectVersion
1070
     0
  0
ACAD_PROXY_OBJECT
  5
31
102
{ACAD_REACTORS
330
2A
102
}
330
2A
100
AcDbProxyObject
 90
      499
 91
      501
 93
      500
310
424CD108121A5919195B90640502408333333333333E3BF0000000000000FB01079024090700405020000000000001110200405405064090740C02480A0340
1001
ACAD
1000
AcDbSavedByObjectVersion
1070
     0
  0
ACAD_PROXY_OBJECT
  5
30
102
{ACAD_REACTORS
330
2A
102
}
330
2A
100
AcDbProxyObject
 90
      499
 91
      501
 93
      436
310
42CCD915DA5C99599C985B595059028333333333333E3BF0000000000000FB0107901411070040501600405405064090741402480A0340
1001
ACAD
1000
AcDbSavedByObjectVersion
1070
     0
  0
ACAD_PROXY_OBJECT
  5
32
102
{ACAD_REACTORS
330
2A
102
}
330
2A
100
AcDbProxyObject
 90
      499
 91
      501
 93
      388
310
4150985CDA58D07406404333333333333E3BF0000000000000FB0107A41107004050150841D405064090741402480A0350
1001
ACAD
1000
AcDbSavedByObjectVersion
1070
     0
  0
ACAD_PROXY_OBJECT
  5
36
102
{ACAD_REACTORS
330
2A
102
}
330
2A
100
AcDbProxyObject
 90
      499
 91
      501
 93
      428
310
42109C9A59DA1D195B90C409028333333333333E3BF0000000000000FB010790141107004050150841D405064090741402480A029950
1001
ACAD
1000
AcDbSavedByObjectVersion
1070
     0
  0
ACAD_PROXY_OBJECT
  5
3A
102
{ACAD_REACTORS
330
2A
102
}
330
2A
100
AcDbProxyObject
 90
      499
 91
      501
 93
      452
310
42D0DBDB1BDC90DA185B99D95104090240C333333333333E3BF0000000000000FB0108901411070040501508421405064090741402480A0350
1001
ACAD
1000
AcDbSavedByObjectVersion
1070
     0
  0
ACAD_PROXY_OBJECT
  5
34
102
{ACAD_REACTORS
330
2A
102
}
330
2A
100
AcDbProxyObject
 90
      499
 91
      501
 93
      500
310
4290DBDB98D95C1D1D585B10940D028333333333333E3BF0000000000000FB0107902409070040501000000000000111010841D405064090740C02480A0340
1001
ACAD
1000
AcDbSavedByObjectVersion
1070
     0
  0
ACAD_PROXY_OBJECT
  5
35
102
{ACAD_REACTORS
330
2A
102
}
330
2A
100
AcDbProxyObject
 90
      499
 91
      501
 93
      412
310
40D11A5B50B409028333333333333E3BF0000000000000FB010790141107004050150841D405064090741402480A02677FFFFFD0
1001
ACAD
1000
AcDbSavedByObjectVersion
1070
     0
  0
ACAD_PROXY_OBJECT
  5
39
102
{ACAD_REACTORS
330
2A
102
}
330
2A
100
AcDbProxyObject
 90
      499
 91
      501
 93
      444
310
42D19858D95C185D1D195C9B90F409028333333333333E3BF0000000000000FB010790141107004050150841D405064090741402480A0350
1001
ACAD
1000
AcDbSavedByObjectVersion
1070
     0
  0
ACAD_PROXY_OBJECT
  5
2B
102
{ACAD_REACTORS
330
2A
102
}
330
2A
100
AcDbProxyObject
 90
      499
 91
      501
 93
      388
310
41119B185D240901404333333333333E3BF0000000000000F9010740A41107004050150841D405064090741402480A1B50
1001
ACAD
1000
AcDbSavedByObjectVersion
1070
     0
  0
ACAD_PROXY_OBJECT
  5
2C
102
{ACAD_REACTORS
330
2A
102
}
330
2A
100
AcDbProxyObject
 90
      499
 91
      501
 93
      476
310
43519B185D15DA5D1A115919D95CD0140901404333333333333E3BF0000000000000F9010740901411070040501600405405064090741402480A1B50
1001
ACAD
1000
AcDbSavedByObjectVersion
1070
     0
  0
ACAD_PROXY_OBJECT
  5
2D
102
{ACAD_REACTORS
330
2A
102
}
330
2A
100
AcDbProxyObject
 90
      499
 91
      501
 93
      412
310
41D1DBDD5C985D5910240902404333333333333E3BF0000000000000F9010740A411070040501641D405064090741402480A1B50
1001
ACAD
1000
AcDbSavedByObjectVersion
1070
     0
  0
ACAD_PROXY_OBJECT
  5
2E
102
{ACAD_REACTORS
330
2A
102
}
330
2A
100
AcDbProxyObject
 90
      499
 91
      501
 93
      500
310
4411DBDD5C985D5915DA5D1A115919D95CD0340902404333333333333E3BF0000000000000F9010740901411070040501600405405064090741402480A1B50
1001
ACAD
1000
AcDbSavedByObjectVersion
1070
     0
  0
ACAD_PROXY_OBJECT
  5
38
102
{ACAD_REACTORS
330
2A
102
}
330
2A
100
AcDbProxyObject
 90
      499
 91
      501
 93
      444
310
42D31A5B995C185D1D195C9B90E409028333333333333E3BF0000000000000FB010790141107004050750841D405064090741402483A0350
1001
ACAD
1000
AcDbSavedByObjectVersion
1070
     0
  0
ACAD_PROXY_OBJECT
  5
33
102
{ACAD_REACTORS
330
2A
102
}
330
2A
100
AcDbProxyObject
 90
      499
 91
      501
 93
      420
310
425499585B1A5CDD1A58D08409028333333333333E3BF0000000000000FB01079019070040501508421405064090741402480A1B40
1001
ACAD
1000
AcDbSavedByObjectVersion
1070
     0
  0
ACAD_PROXY_OBJECT
  5
37
102
{ACAD_REACTORS
330
2A
102
}
330
2A
100
AcDbProxyObject
 90
      499
 91
      501
 93
      412
310
41D51A1A58DAD95B90D409028333333333333E3BF0000000000000FB010790141107004050150C41D405064090741402480A0350
1001
ACAD
1000
AcDbSavedByObjectVersion
1070
     0
  0
ACAD_PROXY_OBJECT
  5
1DF
102
{ACAD_REACTORS
330
1D6
102
}
330
1D6
100
AcDbProxyObject
 90
      499
 91
      504
 93
       58
310
4196800000000000
  0
ACAD_PROXY_OBJECT
  5
1F5
102
{ACAD_REACTORS
330
1D6
102
}
330
1D6
100
AcDbProxyObject
 90
      499
 91
      504
 93
     2746
310
14C040003A00C180075114D51653117A80C040075ECB812AC0118000800B8123C00A000000000000003C0FCB8125000A001EC52B91F85EA10FCB810480518000800B810100004000C007481B5B4B810A400A0000000000000002100B8123400A0000000000000000000B812C00118001C00B812C40118001C00B812C801180
310
01C00B810AC00A0000000000000007900B810580518000000B810B000A0000000000000000100B810A800A000000000000003C0FCB810500518000800B8124C00A0000000000000000100B8100C0004000C007481B5B4B810B400A0026A666666666724FCB810400518000C00B811240118000400B8106C0518000400B8115
310
00550044400000000000000B8123000A0028E2CBAEBA2881D00B810700518000000B811380118000400B811640550045000000000000000B811680550045000000000000000B8116C0550045000000000000003A80C040075F40
  0
ACAD_PROXY_OBJECT
  5
1E0
102
{ACAD_REACTORS
330
1D6
102
}
330
1D6
100
AcDbProxyObject
 90
      499
 91
      504
 93
      354
310
4AC0400980075ED1114C8C0D0C4DCDCB4D908D118B4D108CCC4B4E4D8DCD0B4CCE4CD0D19191910D4E10D05F40
  0
ACAD_PROXY_OBJECT
  5
1D9
102
{ACAD_REACTORS
330
1D6
102
}
330
1D6
100
AcDbProxyObject
 90
      499
 91
      504
 93
       50
310
41404000000740
  0
ACAD_PROXY_OBJECT
  5
1DE
102
{ACAD_REACTORS
330
1D6
102
}
330
1D6
100
AcDbProxyObject
 90
      499
 91
      504
 93
       58
310
4196800040000000
  0
ACAD_PROXY_OBJECT
  5
1DB
102
{ACAD_REACTORS
330
1D6
102
}
330
1D6
100
AcDbProxyObject
 90
      499
 91
      504
 93
       90
310
429500468000000000000000
  0
ACAD_PROXY_OBJECT
  5
1DD
102
{ACAD_REACTORS
330
1D6
102
}
330
1D6
100
AcDbProxyObject
 90
      499
 91
      504
 93
       58
310
419680074A800000
  0
ACAD_PROXY_OBJECT
  5
1DC
102
{ACAD_REACTORS
330
1D6
102
}
330
1D6
100
AcDbProxyObject
 90
      499
 91
      504
 93
       90
310
429500464000000000000000
  0
ACAD_PROXY_OBJECT
  5
1E2
102
{ACAD_REACTORS
330
1D6
102
}
330
1D6
100
AcDbProxyObject
 90
      499
 91
      504
 93
       90
310
428A00000000000000000000
  0
ACAD_PROXY_OBJECT
  5
1E5
102
{ACAD_REACTORS
330
1D6
102
}
330
1D6
100
AcDbProxyObject
 90
      499
 91
      504
 93
       90
310
429500400000000000000000
  0
ACAD_PROXY_OBJECT
  5
1EB
102
{ACAD_REACTORS
330
1D6
102
}
330
1D6
100
AcDbProxyObject
 90
      499
 91
      504
 93
      218
310
46828000000000000000000000000000000000000000000000000000
  0
ACAD_PROXY_OBJECT
  5
1E7
102
{ACAD_REACTORS
330
1D6
102
}
330
1D6
100
AcDbProxyObject
 90
      499
 91
      504
 93
      218
310
46828000000000000000000000000000000000000000000000000000
  0
ACAD_PROXY_OBJECT
  5
1EA
102
{ACAD_REACTORS
330
1D6
102
}
330
1D6
100
AcDbProxyObject
 90
      499
 91
      504
 93
      218
310
46828000000000000000000000000000000000000000000000000000
  0
ACAD_PROXY_OBJECT
  5
1E8
102
{ACAD_REACTORS
330
1D6
102
}
330
1D6
100
AcDbProxyObject
 90
      499
 91
      504
 93
      218
310
46828000000000000000000000000000000000000000000000000000
  0
ACAD_PROXY_OBJECT
  5
1E9
102
{ACAD_REACTORS
330
1D6
102
}
330
1D6
100
AcDbProxyObject
 90
      499
 91
      504
 93
      218
310
46828000000000000000000000000000000000000000000000000000
  0
ACAD_PROXY_OBJECT
  5
1E6
102
{ACAD_REACTORS
330
1D6
102
}
330
1D6
100
AcDbProxyObject
 90
      499
 91
      504
 93
      218
310
46828000000000000000000000000000000000000000000000000000
  0
ACAD_PROXY_OBJECT
  5
1E3
102
{ACAD_REACTORS
330
1D6
102
}
330
1D6
100
AcDbProxyObject
 90
      499
 91
      504
 93
       90
310
429500400000000000000000
  0
ACAD_PROXY_OBJECT
  5
1E4
102
{ACAD_REACTORS
330
1D6
102
}
330
1D6
100
AcDbProxyObject
 90
      499
 91
      504
 93
       42
310
411180000000
  0
ACAD_PROXY_OBJECT
  5
1DA
102
{ACAD_REACTORS
330
1D6
102
}
330
1D6
100
AcDbProxyObject
 90
      499
 91
      504
 93
       50
310
41404000000740
  0
ACAD_PROXY_OBJECT
  5
1D7
102
{ACAD_REACTORS
330
1D6
102
}
330
1D6
100
AcDbProxyObject
 90
      499
 91
      504
 93
       58
310
4196800040000000
  0
ACAD_PROXY_OBJECT
  5
1D8
102
{ACAD_REACTORS
330
1D6
102
}
330
1D6
100
AcDbProxyObject
 90
      499
 91
      504
 93
       58
310
4196801180000000
  0
ACAD_PROXY_OBJECT
  5
1EE
102
{ACAD_REACTORS
330
1D6
102
}
330
1D6
100
AcDbProxyObject
 90
      499
 91
      504
 93
       90
310
429500400000000000000000
  0
ACAD_PROXY_OBJECT
  5
1F4
102
{ACAD_REACTORS
330
1D6
102
}
330
1D6
100
AcDbProxyObject
 90
      499
 91
      504
 93
      218
310
46828000000000000000000000000000000000000000000000000000
  0
ACAD_PROXY_OBJECT
  5
1F0
102
{ACAD_REACTORS
330
1D6
102
}
330
1D6
100
AcDbProxyObject
 90
      499
 91
      504
 93
      218
310
46828000000000000000000000000000000000000000000000000000
  0
ACAD_PROXY_OBJECT
  5
1F3
102
{ACAD_REACTORS
330
1D6
102
}
330
1D6
100
AcDbProxyObject
 90
      499
 91
      504
 93
      218
310
46828000000000000000000000000000000000000000000000000000
  0
ACAD_PROXY_OBJECT
  5
1F1
102
{ACAD_REACTORS
330
1D6
102
}
330
1D6
100
AcDbProxyObject
 90
      499
 91
      504
 93
      218
310
46828000000000000000000000000000000000000000000000000000
  0
ACAD_PROXY_OBJECT
  5
1F2
102
{ACAD_REACTORS
330
1D6
102
}
330
1D6
100
AcDbProxyObject
 90
      499
 91
      504
 93
      218
310
46828000000000000000000000000000000000000000000000000000
  0
ACAD_PROXY_OBJECT
  5
1EF
102
{ACAD_REACTORS
330
1D6
102
}
330
1D6
100
AcDbProxyObject
 90
      499
 91
      504
 93
      218
310
46828000000000000000000000000000000000000000000000000000
  0
ACAD_PROXY_OBJECT
  5
1EC
102
{ACAD_REACTORS
330
1D6
102
}
330
1D6
100
AcDbProxyObject
 90
      499
 91
      504
 93
       90
310
429500400000000000000000
  0
ACAD_PROXY_OBJECT
  5
1ED
102
{ACAD_REACTORS
330
1D6
102
}
330
1D6
100
AcDbProxyObject
 90
      499
 91
      504
 93
       42
310
411180000000
  0
ACAD_PROXY_OBJECT
  5
1E1
102
{ACAD_REACTORS
330
1D6
102
}
330
1D6
100
AcDbProxyObject
 90
      499
 91
      504
 93
      354
310
4AC0400980075ED19051508C50CCCC8B514C0C4E4B4C4C510D4B4E4C8E508B4C0C10CC11118C8D4D9150CD1F40
  0
ENDSEC
  0
EOF
