  0
SECTION
  2
HEADER
  9
$MEASUREMENT
  70
  1
  9
$INSUNITS
  70
  4
  0
ENDSEC
  0
SECTION
  2
TABLES
  0
TABLE
  2
LTYPE
 70
     1
  0
LTYPE
  2
CONTINUOUS
 70
    64
  3
Ausgezogene Linie
 72
    65
 73
     0
 40
0.0
  0
ENDTAB
  0
TABLE
  2
LAYER
 70
     3
  0
LAYER
  2
Kontur
 70
    64
 62
     7
  6
CONTINUOUS
  0
LAYER
  2
Gravur
 70
    64
 62
     7
  6
CONTINUOUS
  0
LAYER
  2
Bezugspunkte
 70
    64
 62
     1
  6
CONTINUOUS
  0
ENDTAB
  0
TABLE
  2
STYLE
 70
     1
  0
STYLE
  2
TXT
 70
    64
 40
0.0
 41
1.0
 50
0.0
 71
     0
 42
3.500000
  3
TXT
  0
ENDTAB
  0
ENDSEC
  0
SECTION
  2
BLOCKS
  0
ENDSEC
  0
SECTION
  2
ENTITIES
  0
LINE
  8
Kontur
 62
   7
 39
0.100
  6
CONTINUOUS
 10
483.00000
 20
132.50000
 30
 0
 11
0.00000
 21
132.50000
  0
LINE
  8
Kontur
 62
   7
 39
0.100
  6
CONTINUOUS
 10
0.00000
 20
132.50000
 30
 0
 11
0.00000
 21
132.50000
  0
LINE
  8
Kontur
 62
   7
 39
0.100
  6
CONTINUOUS
 10
0.00000
 20
132.50000
 30
 0
 11
0.00000
 21
0.00000
  0
LINE
  8
Kontur
 62
   7
 39
0.100
  6
CONTINUOUS
 10
0.00000
 20
0.00000
 30
 0
 11
0.00000
 21
0.00000
  0
LINE
  8
Kontur
 62
   7
 39
0.100
  6
CONTINUOUS
 10
0.00000
 20
0.00000
 30
 0
 11
483.00000
 21
0.00000
  0
LINE
  8
Kontur
 62
   7
 39
0.100
  6
CONTINUOUS
 10
483.00000
 20
0.00000
 30
 0
 11
483.00000
 21
0.00000
  0
LINE
  8
Kontur
 62
   7
 39
0.100
  6
CONTINUOUS
 10
483.00000
 20
0.00000
 30
 0
 11
483.00000
 21
132.50000
  0
LINE
  8
Kontur
 62
   7
 39
0.100
  6
CONTINUOUS
 10
483.00000
 20
132.50000
 30
 0
 11
483.00000
 21
132.50000
  0
ARC
  8
Kontur
 62
   7
 39
0.100
  6
CONTINUOUS
 10
126.09000
 20
74.54000
 30
 0
 40
0.50000
 50
316.05341
 51
133.94659
  0
LINE
  8
Kontur
 62
   7
 39
0.100
  6
CONTINUOUS
 10
126.45000
 20
74.19300
 30
 0
 11
126.45000
 21
55.80700
  0
ARC
  8
Kontur
 62
   7
 39
0.100
  6
CONTINUOUS
 10
126.09000
 20
55.46000
 30
 0
 40
0.50000
 50
226.05341
 51
43.94659
  0
LINE
  8
Kontur
 62
   7
 39
0.100
  6
CONTINUOUS
 10
125.74300
 20
55.10000
 30
 0
 11
114.25700
 21
55.10000
  0
ARC
  8
Kontur
 62
   7
 39
0.100
  6
CONTINUOUS
 10
113.91000
 20
55.46000
 30
 0
 40
0.50000
 50
136.05341
 51
-46.05341
  0
LINE
  8
Kontur
 62
   7
 39
0.100
  6
CONTINUOUS
 10
113.55000
 20
55.80700
 30
 0
 11
113.55000
 21
74.19300
  0
ARC
  8
Kontur
 62
   7
 39
0.100
  6
CONTINUOUS
 10
113.91000
 20
74.54000
 30
 0
 40
0.50000
 50
46.05341
 51
-136.05341
  0
LINE
  8
Kontur
 62
   7
 39
0.100
  6
CONTINUOUS
 10
114.25700
 20
74.90000
 30
 0
 11
125.74300
 21
74.90000
  0
LINE
  8
Bezugspunkte
 62
   1
 39
0.100
  6
CONTINUOUS
 10
-1.00000
 20
0.00000
 30
 0
 11
1.00000
 21
0.00000
  0
LINE
  8
Bezugspunkte
 62
   1
 39
0.100
  6
CONTINUOUS
 10
0.00000
 20
-1.00000
 30
 0
 11
0.00000
 21
1.00000
  0
LINE
  8
Bezugspunkte
 62
   1
 39
0.100
  6
CONTINUOUS
 10
119.00000
 20
65.00000
 30
 0
 11
121.00000
 21
65.00000
  0
LINE
  8
Bezugspunkte
 62
   1
 39
0.100
  6
CONTINUOUS
 10
120.00000
 20
64.00000
 30
 0
 11
120.00000
 21
66.00000
  0
ENDSEC
  0
EOF
