  0
SECTION
  2
HEADER
  9
$EXTMIN
 10
-0.227000
 20
-1.733000
  9
$EXTMAX
 10
2.706000
 20
1.865000
  9
$LIMMIN
 10
-0.227000
 20
-1.733000
  9
$LIMMAX
 10
2.706000
 20
1.865000
  9
$FILLMODE
 70
  1
  0
ENDSEC
  0
SECTION
  2
TABLES
  0
TABLE
  2
LTYPE
 70
  1
  0
LTYPE
  2
CONTINUOUS
 70
 64
  3
Solid line
 72
 65
 73
  0
 40
0.0
  0
ENDTAB
  0
TABLE
  2
LAYER
 70
 1
  0
LAYER
  2
0
 70
  0
 62
7
  6
CONTINUOUS
  0
LAYER
  2
gg1
 70
  0
 62
1
  6
CONTINUOUS
  0
ENDTAB
  0
TABLE
  2
STYLE
 70
  1
  0
STYLE
  2
STANDARD
 70
  0
 40
0.0
 41
1.0
 50
0.0
 71
  0
 42
0.2
  3
txt
  4

  0
ENDTAB
  0
ENDSEC
  0
SECTION
  2
BLOCKS
  0
BLOCK
  8
0
  2
D10
 70
64
 10
0.0
 20
0.0
  3
D10
  0
CIRCLE
  8
0
 10
0.000000
 20
0.000000
 40
0.005000
 0
ENDBLK
  8
0
  0
BLOCK
  8
0
  2
D11
 70
64
 10
0.0
 20
0.0
  3
D11
  0
CIRCLE
  8
0
 10
0.000000
 20
0.000000
 40
0.003000
 0
ENDBLK
  8
0
  0
ENDSEC
  0
SECTION
  2
ENTITIES
  0
POLYLINE
  8
gg1
 62
1
 40
0.000000
 41
0.000000
 66
  1
  0
VERTEX
  8
gg1
 10
-0.210000
 20
1.860000
  0
VERTEX
  8
gg1
 10
-0.015000
 20
1.860000
  0
SEQEND
  8
gg1
  0
POLYLINE
  8
gg1
 62
1
 40
0.000000
 41
0.000000
 66
  1
  0
VERTEX
  8
gg1
 10
-0.210000
 20
0.000000
  0
VERTEX
  8
gg1
 10
-0.015000
 20
0.000000
  0
SEQEND
  8
gg1
  0
POLYLINE
  8
gg1
 62
1
 40
0.000000
 41
0.000000
 66
  1
  0
VERTEX
  8
gg1
 10
-0.200000
 20
1.189900
  0
VERTEX
  8
gg1
 10
-0.200000
 20
1.860000
  0
SEQEND
  8
gg1
  0
POLYLINE
  8
gg1
 62
1
 40
0.000000
 41
0.000000
 66
  1
  0
VERTEX
  8
gg1
 10
-0.200000
 20
0.000000
  0
VERTEX
  8
gg1
 10
-0.200000
 20
0.638100
  0
SEQEND
  8
gg1
  0
POLYLINE
  8
gg1
 62
1
 40
0.000000
 41
0.000000
 66
  1
  0
VERTEX
  8
gg1
 10
-0.220000
 20
1.800000
  0
VERTEX
  8
gg1
 10
-0.200000
 20
1.860000
  0
VERTEX
  8
gg1
 10
-0.180000
 20
1.800000
  0
SEQEND
  8
gg1
  0
POLYLINE
  8
gg1
 62
1
 40
0.000000
 41
0.000000
 66
  1
  0
VERTEX
  8
gg1
 10
-0.200000
 20
0.000000
  0
VERTEX
  8
gg1
 10
-0.180000
 20
0.060000
  0
SEQEND
  8
gg1
  0
POLYLINE
  8
gg1
 62
1
 40
0.000000
 41
0.000000
 66
  1
  0
VERTEX
  8
gg1
 10
-0.220000
 20
0.060000
  0
VERTEX
  8
gg1
 10
-0.200000
 20
0.000000
  0
SEQEND
  8
gg1
  0
POLYLINE
  8
gg1
 62
1
 40
0.000000
 41
0.000000
 66
  1
  0
VERTEX
  8
gg1
 10
1.860000
 20
-0.185000
  0
VERTEX
  8
gg1
 10
1.860000
 20
-0.015000
  0
SEQEND
  8
gg1
  0
POLYLINE
  8
gg1
 62
1
 40
0.000000
 41
0.000000
 66
  1
  0
VERTEX
  8
gg1
 10
0.000000
 20
-0.185000
  0
VERTEX
  8
gg1
 10
0.000000
 20
-0.015000
  0
SEQEND
  8
gg1
  0
POLYLINE
  8
gg1
 62
1
 40
0.000000
 41
0.000000
 66
  1
  0
VERTEX
  8
gg1
 10
1.189900
 20
-0.175000
  0
VERTEX
  8
gg1
 10
1.860000
 20
-0.175000
  0
SEQEND
  8
gg1
  0
POLYLINE
  8
gg1
 62
1
 40
0.000000
 41
0.000000
 66
  1
  0
VERTEX
  8
gg1
 10
0.000000
 20
-0.175000
  0
VERTEX
  8
gg1
 10
0.638100
 20
-0.175000
  0
SEQEND
  8
gg1
  0
POLYLINE
  8
gg1
 62
1
 40
0.000000
 41
0.000000
 66
  1
  0
VERTEX
  8
gg1
 10
1.800000
 20
-0.155000
  0
VERTEX
  8
gg1
 10
1.860000
 20
-0.175000
  0
SEQEND
  8
gg1
  0
POLYLINE
  8
gg1
 62
1
 40
0.000000
 41
0.000000
 66
  1
  0
VERTEX
  8
gg1
 10
1.800000
 20
-0.195000
  0
VERTEX
  8
gg1
 10
1.860000
 20
-0.175000
  0
SEQEND
  8
gg1
  0
POLYLINE
  8
gg1
 62
1
 40
0.000000
 41
0.000000
 66
  1
  0
VERTEX
  8
gg1
 10
0.000000
 20
-0.175000
  0
VERTEX
  8
gg1
 10
0.060000
 20
-0.195000
  0
SEQEND
  8
gg1
  0
POLYLINE
  8
gg1
 62
1
 40
0.000000
 41
0.000000
 66
  1
  0
VERTEX
  8
gg1
 10
0.000000
 20
-0.175000
  0
VERTEX
  8
gg1
 10
0.060000
 20
-0.155000
  0
SEQEND
  8
gg1
  0
POLYLINE
  8
gg1
 62
1
 40
0.000000
 41
0.000000
 66
  1
  0
VERTEX
  8
gg1
 10
1.860000
 20
0.000000
  0
VERTEX
  8
gg1
 10
1.860000
 20
1.860000
  0
SEQEND
  8
gg1
  0
POLYLINE
  8
gg1
 62
1
 40
0.000000
 41
0.000000
 66
  1
  0
VERTEX
  8
gg1
 10
0.000000
 20
1.860000
  0
VERTEX
  8
gg1
 10
1.860000
 20
1.860000
  0
SEQEND
  8
gg1
  0
POLYLINE
  8
gg1
 62
1
 40
0.000000
 41
0.000000
 66
  1
  0
VERTEX
  8
gg1
 10
0.000000
 20
0.000000
  0
VERTEX
  8
gg1
 10
0.000000
 20
1.860000
  0
SEQEND
  8
gg1
  0
POLYLINE
  8
gg1
 62
1
 40
0.000000
 41
0.000000
 66
  1
  0
VERTEX
  8
gg1
 10
0.000000
 20
0.000000
  0
VERTEX
  8
gg1
 10
1.860000
 20
0.000000
  0
SEQEND
  8
gg1
  0
POLYLINE
  8
gg1
 62
1
 40
0.000000
 41
0.000000
 66
  1
  0
VERTEX
  8
gg1
 10
0.175000
 20
-1.594800
  0
VERTEX
  8
gg1
 10
0.175000
 20
-1.694700
  0
SEQEND
  8
gg1
  0
POLYLINE
  8
gg1
 62
1
 40
0.000000
 41
0.000000
 66
  1
  0
VERTEX
  8
gg1
 10
0.175000
 20
-1.594800
  0
VERTEX
  8
gg1
 10
0.208300
 20
-1.594800
  0
VERTEX
  8
gg1
 10
0.222600
 20
-1.599500
  0
VERTEX
  8
gg1
 10
0.232100
 20
-1.609000
  0
VERTEX
  8
gg1
 10
0.236900
 20
-1.618600
  0
VERTEX
  8
gg1
 10
0.241700
 20
-1.632800
  0
VERTEX
  8
gg1
 10
0.241700
 20
-1.656700
  0
VERTEX
  8
gg1
 10
0.236900
 20
-1.670900
  0
VERTEX
  8
gg1
 10
0.232100
 20
-1.680500
  0
VERTEX
  8
gg1
 10
0.222600
 20
-1.690000
  0
VERTEX
  8
gg1
 10
0.208300
 20
-1.694700
  0
VERTEX
  8
gg1
 10
0.175000
 20
-1.694700
  0
SEQEND
  8
gg1
  0
POLYLINE
  8
gg1
 62
1
 40
0.000000
 41
0.000000
 66
  1
  0
VERTEX
  8
gg1
 10
0.264000
 20
-1.656700
  0
VERTEX
  8
gg1
 10
0.321200
 20
-1.656700
  0
VERTEX
  8
gg1
 10
0.321200
 20
-1.647100
  0
VERTEX
  8
gg1
 10
0.316400
 20
-1.637600
  0
VERTEX
  8
gg1
 10
0.311600
 20
-1.632800
  0
VERTEX
  8
gg1
 10
0.302100
 20
-1.628100
  0
VERTEX
  8
gg1
 10
0.287800
 20
-1.628100
  0
VERTEX
  8
gg1
 10
0.278300
 20
-1.632800
  0
VERTEX
  8
gg1
 10
0.268800
 20
-1.642400
  0
VERTEX
  8
gg1
 10
0.264000
 20
-1.656700
  0
VERTEX
  8
gg1
 10
0.264000
 20
-1.666200
  0
VERTEX
  8
gg1
 10
0.268800
 20
-1.680500
  0
VERTEX
  8
gg1
 10
0.278300
 20
-1.690000
  0
VERTEX
  8
gg1
 10
0.287800
 20
-1.694700
  0
VERTEX
  8
gg1
 10
0.302100
 20
-1.694700
  0
VERTEX
  8
gg1
 10
0.311600
 20
-1.690000
  0
VERTEX
  8
gg1
 10
0.321200
 20
-1.680500
  0
SEQEND
  8
gg1
  0
POLYLINE
  8
gg1
 62
1
 40
0.000000
 41
0.000000
 66
  1
  0
VERTEX
  8
gg1
 10
0.380700
 20
-1.594800
  0
VERTEX
  8
gg1
 10
0.371100
 20
-1.594800
  0
VERTEX
  8
gg1
 10
0.361600
 20
-1.599500
  0
VERTEX
  8
gg1
 10
0.356900
 20
-1.613800
  0
VERTEX
  8
gg1
 10
0.356900
 20
-1.694700
  0
SEQEND
  8
gg1
  0
POLYLINE
  8
gg1
 62
1
 40
0.000000
 41
0.000000
 66
  1
  0
VERTEX
  8
gg1
 10
0.342600
 20
-1.628100
  0
VERTEX
  8
gg1
 10
0.375900
 20
-1.628100
  0
SEQEND
  8
gg1
  0
POLYLINE
  8
gg1
 62
1
 40
0.000000
 41
0.000000
 66
  1
  0
VERTEX
  8
gg1
 10
0.452100
 20
-1.628100
  0
VERTEX
  8
gg1
 10
0.452100
 20
-1.694700
  0
SEQEND
  8
gg1
  0
POLYLINE
  8
gg1
 62
1
 40
0.000000
 41
0.000000
 66
  1
  0
VERTEX
  8
gg1
 10
0.452100
 20
-1.642400
  0
VERTEX
  8
gg1
 10
0.442600
 20
-1.632800
  0
VERTEX
  8
gg1
 10
0.433000
 20
-1.628100
  0
VERTEX
  8
gg1
 10
0.418800
 20
-1.628100
  0
VERTEX
  8
gg1
 10
0.409200
 20
-1.632800
  0
VERTEX
  8
gg1
 10
0.399700
 20
-1.642400
  0
VERTEX
  8
gg1
 10
0.395000
 20
-1.656700
  0
VERTEX
  8
gg1
 10
0.395000
 20
-1.666200
  0
VERTEX
  8
gg1
 10
0.399700
 20
-1.680500
  0
VERTEX
  8
gg1
 10
0.409200
 20
-1.690000
  0
VERTEX
  8
gg1
 10
0.418800
 20
-1.694700
  0
VERTEX
  8
gg1
 10
0.433000
 20
-1.694700
  0
VERTEX
  8
gg1
 10
0.442600
 20
-1.690000
  0
VERTEX
  8
gg1
 10
0.452100
 20
-1.680500
  0
SEQEND
  8
gg1
  0
POLYLINE
  8
gg1
 62
1
 40
0.000000
 41
0.000000
 66
  1
  0
VERTEX
  8
gg1
 10
0.478700
 20
-1.628100
  0
VERTEX
  8
gg1
 10
0.478700
 20
-1.675700
  0
VERTEX
  8
gg1
 10
0.483500
 20
-1.690000
  0
VERTEX
  8
gg1
 10
0.493000
 20
-1.694700
  0
VERTEX
  8
gg1
 10
0.507300
 20
-1.694700
  0
VERTEX
  8
gg1
 10
0.516800
 20
-1.690000
  0
VERTEX
  8
gg1
 10
0.531100
 20
-1.675700
  0
SEQEND
  8
gg1
  0
POLYLINE
  8
gg1
 62
1
 40
0.000000
 41
0.000000
 66
  1
  0
VERTEX
  8
gg1
 10
0.531100
 20
-1.628100
  0
VERTEX
  8
gg1
 10
0.531100
 20
-1.694700
  0
SEQEND
  8
gg1
  0
POLYLINE
  8
gg1
 62
1
 40
0.000000
 41
0.000000
 66
  1
  0
VERTEX
  8
gg1
 10
0.557300
 20
-1.594800
  0
VERTEX
  8
gg1
 10
0.557300
 20
-1.694700
  0
SEQEND
  8
gg1
  0
POLYLINE
  8
gg1
 62
1
 40
0.000000
 41
0.000000
 66
  1
  0
VERTEX
  8
gg1
 10
0.592500
 20
-1.594800
  0
VERTEX
  8
gg1
 10
0.592500
 20
-1.675700
  0
VERTEX
  8
gg1
 10
0.597300
 20
-1.690000
  0
VERTEX
  8
gg1
 10
0.606800
 20
-1.694700
  0
VERTEX
  8
gg1
 10
0.616300
 20
-1.694700
  0
SEQEND
  8
gg1
  0
POLYLINE
  8
gg1
 62
1
 40
0.000000
 41
0.000000
 66
  1
  0
VERTEX
  8
gg1
 10
0.578200
 20
-1.628100
  0
VERTEX
  8
gg1
 10
0.611600
 20
-1.628100
  0
SEQEND
  8
gg1
  0
POLYLINE
  8
gg1
 62
1
 40
0.000000
 41
0.000000
 66
  1
  0
VERTEX
  8
gg1
 10
0.742500
 20
-1.575700
  0
VERTEX
  8
gg1
 10
0.733000
 20
-1.585200
  0
VERTEX
  8
gg1
 10
0.723500
 20
-1.599500
  0
VERTEX
  8
gg1
 10
0.713900
 20
-1.618600
  0
VERTEX
  8
gg1
 10
0.709200
 20
-1.642400
  0
VERTEX
  8
gg1
 10
0.709200
 20
-1.661400
  0
VERTEX
  8
gg1
 10
0.713900
 20
-1.685200
  0
VERTEX
  8
gg1
 10
0.723500
 20
-1.704300
  0
VERTEX
  8
gg1
 10
0.733000
 20
-1.718500
  0
VERTEX
  8
gg1
 10
0.742500
 20
-1.728100
  0
SEQEND
  8
gg1
  0
POLYLINE
  8
gg1
 62
1
 40
0.000000
 41
0.000000
 66
  1
  0
VERTEX
  8
gg1
 10
0.733000
 20
-1.585200
  0
VERTEX
  8
gg1
 10
0.723500
 20
-1.604300
  0
VERTEX
  8
gg1
 10
0.718700
 20
-1.618600
  0
VERTEX
  8
gg1
 10
0.713900
 20
-1.642400
  0
VERTEX
  8
gg1
 10
0.713900
 20
-1.661400
  0
VERTEX
  8
gg1
 10
0.718700
 20
-1.685200
  0
VERTEX
  8
gg1
 10
0.723500
 20
-1.699500
  0
VERTEX
  8
gg1
 10
0.733000
 20
-1.718500
  0
SEQEND
  8
gg1
  0
POLYLINE
  8
gg1
 62
1
 40
0.000000
 41
0.000000
 66
  1
  0
VERTEX
  8
gg1
 10
0.804400
 20
-1.609000
  0
VERTEX
  8
gg1
 10
0.804400
 20
-1.694700
  0
SEQEND
  8
gg1
  0
POLYLINE
  8
gg1
 62
1
 40
0.000000
 41
0.000000
 66
  1
  0
VERTEX
  8
gg1
 10
0.761500
 20
-1.651900
  0
VERTEX
  8
gg1
 10
0.847200
 20
-1.651900
  0
SEQEND
  8
gg1
  0
POLYLINE
  8
gg1
 62
1
 40
0.000000
 41
0.000000
 66
  1
  0
VERTEX
  8
gg1
 10
0.876800
 20
-1.709000
  0
VERTEX
  8
gg1
 10
0.943400
 20
-1.594800
  0
SEQEND
  8
gg1
  0
POLYLINE
  8
gg1
 62
1
 40
0.000000
 41
0.000000
 66
  1
  0
VERTEX
  8
gg1
 10
0.950100
 20
-1.651900
  0
VERTEX
  8
gg1
 10
1.035800
 20
-1.651900
  0
SEQEND
  8
gg1
  0
POLYLINE
  8
gg1
 62
1
 40
0.000000
 41
0.000000
 66
  1
  0
VERTEX
  8
gg1
 10
1.070000
 20
-1.685200
  0
VERTEX
  8
gg1
 10
1.065300
 20
-1.690000
  0
VERTEX
  8
gg1
 10
1.070000
 20
-1.694700
  0
VERTEX
  8
gg1
 10
1.074800
 20
-1.690000
  0
VERTEX
  8
gg1
 10
1.070000
 20
-1.685200
  0
SEQEND
  8
gg1
  0
POLYLINE
  8
gg1
 62
1
 40
0.000000
 41
0.000000
 66
  1
  0
VERTEX
  8
gg1
 10
1.125300
 20
-1.594800
  0
VERTEX
  8
gg1
 10
1.111000
 20
-1.599500
  0
VERTEX
  8
gg1
 10
1.101500
 20
-1.613800
  0
VERTEX
  8
gg1
 10
1.096700
 20
-1.637600
  0
VERTEX
  8
gg1
 10
1.096700
 20
-1.651900
  0
VERTEX
  8
gg1
 10
1.101500
 20
-1.675700
  0
VERTEX
  8
gg1
 10
1.111000
 20
-1.690000
  0
VERTEX
  8
gg1
 10
1.125300
 20
-1.694700
  0
VERTEX
  8
gg1
 10
1.134800
 20
-1.694700
  0
VERTEX
  8
gg1
 10
1.149100
 20
-1.690000
  0
VERTEX
  8
gg1
 10
1.158600
 20
-1.675700
  0
VERTEX
  8
gg1
 10
1.163400
 20
-1.651900
  0
VERTEX
  8
gg1
 10
1.163400
 20
-1.637600
  0
VERTEX
  8
gg1
 10
1.158600
 20
-1.613800
  0
VERTEX
  8
gg1
 10
1.149100
 20
-1.599500
  0
VERTEX
  8
gg1
 10
1.134800
 20
-1.594800
  0
VERTEX
  8
gg1
 10
1.125300
 20
-1.594800
  0
SEQEND
  8
gg1
  0
POLYLINE
  8
gg1
 62
1
 40
0.000000
 41
0.000000
 66
  1
  0
VERTEX
  8
gg1
 10
1.214300
 20
-1.594800
  0
VERTEX
  8
gg1
 10
1.200000
 20
-1.599500
  0
VERTEX
  8
gg1
 10
1.190500
 20
-1.613800
  0
VERTEX
  8
gg1
 10
1.185700
 20
-1.637600
  0
VERTEX
  8
gg1
 10
1.185700
 20
-1.651900
  0
VERTEX
  8
gg1
 10
1.190500
 20
-1.675700
  0
VERTEX
  8
gg1
 10
1.200000
 20
-1.690000
  0
VERTEX
  8
gg1
 10
1.214300
 20
-1.694700
  0
VERTEX
  8
gg1
 10
1.223800
 20
-1.694700
  0
VERTEX
  8
gg1
 10
1.238100
 20
-1.690000
  0
VERTEX
  8
gg1
 10
1.247600
 20
-1.675700
  0
VERTEX
  8
gg1
 10
1.252400
 20
-1.651900
  0
VERTEX
  8
gg1
 10
1.252400
 20
-1.637600
  0
VERTEX
  8
gg1
 10
1.247600
 20
-1.613800
  0
VERTEX
  8
gg1
 10
1.238100
 20
-1.599500
  0
VERTEX
  8
gg1
 10
1.223800
 20
-1.594800
  0
VERTEX
  8
gg1
 10
1.214300
 20
-1.594800
  0
SEQEND
  8
gg1
  0
POLYLINE
  8
gg1
 62
1
 40
0.000000
 41
0.000000
 66
  1
  0
VERTEX
  8
gg1
 10
1.331900
 20
-1.594800
  0
VERTEX
  8
gg1
 10
1.284300
 20
-1.594800
  0
VERTEX
  8
gg1
 10
1.279500
 20
-1.637600
  0
VERTEX
  8
gg1
 10
1.284300
 20
-1.632800
  0
VERTEX
  8
gg1
 10
1.298600
 20
-1.628100
  0
VERTEX
  8
gg1
 10
1.312900
 20
-1.628100
  0
VERTEX
  8
gg1
 10
1.327100
 20
-1.632800
  0
VERTEX
  8
gg1
 10
1.336700
 20
-1.642400
  0
VERTEX
  8
gg1
 10
1.341400
 20
-1.656700
  0
VERTEX
  8
gg1
 10
1.341400
 20
-1.666200
  0
VERTEX
  8
gg1
 10
1.336700
 20
-1.680500
  0
VERTEX
  8
gg1
 10
1.327100
 20
-1.690000
  0
VERTEX
  8
gg1
 10
1.312900
 20
-1.694700
  0
VERTEX
  8
gg1
 10
1.298600
 20
-1.694700
  0
VERTEX
  8
gg1
 10
1.284300
 20
-1.690000
  0
VERTEX
  8
gg1
 10
1.279500
 20
-1.685200
  0
VERTEX
  8
gg1
 10
1.274800
 20
-1.675700
  0
SEQEND
  8
gg1
  0
POLYLINE
  8
gg1
 62
1
 40
0.000000
 41
0.000000
 66
  1
  0
VERTEX
  8
gg1
 10
1.442300
 20
-1.594800
  0
VERTEX
  8
gg1
 10
1.442300
 20
-1.694700
  0
SEQEND
  8
gg1
  0
POLYLINE
  8
gg1
 62
1
 40
0.000000
 41
0.000000
 66
  1
  0
VERTEX
  8
gg1
 10
1.442300
 20
-1.594800
  0
VERTEX
  8
gg1
 10
1.475700
 20
-1.594800
  0
VERTEX
  8
gg1
 10
1.490000
 20
-1.599500
  0
VERTEX
  8
gg1
 10
1.499500
 20
-1.609000
  0
VERTEX
  8
gg1
 10
1.504200
 20
-1.618600
  0
VERTEX
  8
gg1
 10
1.509000
 20
-1.632800
  0
VERTEX
  8
gg1
 10
1.509000
 20
-1.656700
  0
VERTEX
  8
gg1
 10
1.504200
 20
-1.670900
  0
VERTEX
  8
gg1
 10
1.499500
 20
-1.680500
  0
VERTEX
  8
gg1
 10
1.490000
 20
-1.690000
  0
VERTEX
  8
gg1
 10
1.475700
 20
-1.694700
  0
VERTEX
  8
gg1
 10
1.442300
 20
-1.694700
  0
SEQEND
  8
gg1
  0
POLYLINE
  8
gg1
 62
1
 40
0.000000
 41
0.000000
 66
  1
  0
VERTEX
  8
gg1
 10
1.531400
 20
-1.628100
  0
VERTEX
  8
gg1
 10
1.531400
 20
-1.694700
  0
SEQEND
  8
gg1
  0
POLYLINE
  8
gg1
 62
1
 40
0.000000
 41
0.000000
 66
  1
  0
VERTEX
  8
gg1
 10
1.531400
 20
-1.656700
  0
VERTEX
  8
gg1
 10
1.536100
 20
-1.642400
  0
VERTEX
  8
gg1
 10
1.545700
 20
-1.632800
  0
VERTEX
  8
gg1
 10
1.555200
 20
-1.628100
  0
VERTEX
  8
gg1
 10
1.569500
 20
-1.628100
  0
SEQEND
  8
gg1
  0
POLYLINE
  8
gg1
 62
1
 40
0.000000
 41
0.000000
 66
  1
  0
VERTEX
  8
gg1
 10
1.588000
 20
-1.594800
  0
VERTEX
  8
gg1
 10
1.592800
 20
-1.599500
  0
VERTEX
  8
gg1
 10
1.597600
 20
-1.594800
  0
VERTEX
  8
gg1
 10
1.592800
 20
-1.590000
  0
VERTEX
  8
gg1
 10
1.588000
 20
-1.594800
  0
SEQEND
  8
gg1
  0
POLYLINE
  8
gg1
 62
1
 40
0.000000
 41
0.000000
 66
  1
  0
VERTEX
  8
gg1
 10
1.592800
 20
-1.628100
  0
VERTEX
  8
gg1
 10
1.592800
 20
-1.694700
  0
SEQEND
  8
gg1
  0
POLYLINE
  8
gg1
 62
1
 40
0.000000
 41
0.000000
 66
  1
  0
VERTEX
  8
gg1
 10
1.615200
 20
-1.594800
  0
VERTEX
  8
gg1
 10
1.615200
 20
-1.694700
  0
SEQEND
  8
gg1
  0
POLYLINE
  8
gg1
 62
1
 40
0.000000
 41
0.000000
 66
  1
  0
VERTEX
  8
gg1
 10
1.636100
 20
-1.594800
  0
VERTEX
  8
gg1
 10
1.636100
 20
-1.694700
  0
SEQEND
  8
gg1
  0
POLYLINE
  8
gg1
 62
1
 40
0.000000
 41
0.000000
 66
  1
  0
VERTEX
  8
gg1
 10
1.666600
 20
-1.690000
  0
VERTEX
  8
gg1
 10
1.661800
 20
-1.694700
  0
VERTEX
  8
gg1
 10
1.657100
 20
-1.690000
  0
VERTEX
  8
gg1
 10
1.661800
 20
-1.685200
  0
VERTEX
  8
gg1
 10
1.666600
 20
-1.690000
  0
VERTEX
  8
gg1
 10
1.666600
 20
-1.699500
  0
VERTEX
  8
gg1
 10
1.661800
 20
-1.709000
  0
VERTEX
  8
gg1
 10
1.657100
 20
-1.713800
  0
SEQEND
  8
gg1
  0
POLYLINE
  8
gg1
 62
1
 40
0.000000
 41
0.000000
 66
  1
  0
VERTEX
  8
gg1
 10
1.809900
 20
-1.609000
  0
VERTEX
  8
gg1
 10
1.809900
 20
-1.694700
  0
SEQEND
  8
gg1
  0
POLYLINE
  8
gg1
 62
1
 40
0.000000
 41
0.000000
 66
  1
  0
VERTEX
  8
gg1
 10
1.767000
 20
-1.651900
  0
VERTEX
  8
gg1
 10
1.852700
 20
-1.651900
  0
SEQEND
  8
gg1
  0
POLYLINE
  8
gg1
 62
1
 40
0.000000
 41
0.000000
 66
  1
  0
VERTEX
  8
gg1
 10
1.882300
 20
-1.709000
  0
VERTEX
  8
gg1
 10
1.948900
 20
-1.594800
  0
SEQEND
  8
gg1
  0
POLYLINE
  8
gg1
 62
1
 40
0.000000
 41
0.000000
 66
  1
  0
VERTEX
  8
gg1
 10
1.955600
 20
-1.651900
  0
VERTEX
  8
gg1
 10
2.041300
 20
-1.651900
  0
SEQEND
  8
gg1
  0
POLYLINE
  8
gg1
 62
1
 40
0.000000
 41
0.000000
 66
  1
  0
VERTEX
  8
gg1
 10
2.075500
 20
-1.685200
  0
VERTEX
  8
gg1
 10
2.070800
 20
-1.690000
  0
VERTEX
  8
gg1
 10
2.075500
 20
-1.694700
  0
VERTEX
  8
gg1
 10
2.080300
 20
-1.690000
  0
VERTEX
  8
gg1
 10
2.075500
 20
-1.685200
  0
SEQEND
  8
gg1
  0
POLYLINE
  8
gg1
 62
1
 40
0.000000
 41
0.000000
 66
  1
  0
VERTEX
  8
gg1
 10
2.130800
 20
-1.594800
  0
VERTEX
  8
gg1
 10
2.116500
 20
-1.599500
  0
VERTEX
  8
gg1
 10
2.107000
 20
-1.613800
  0
VERTEX
  8
gg1
 10
2.102200
 20
-1.637600
  0
VERTEX
  8
gg1
 10
2.102200
 20
-1.651900
  0
VERTEX
  8
gg1
 10
2.107000
 20
-1.675700
  0
VERTEX
  8
gg1
 10
2.116500
 20
-1.690000
  0
VERTEX
  8
gg1
 10
2.130800
 20
-1.694700
  0
VERTEX
  8
gg1
 10
2.140300
 20
-1.694700
  0
VERTEX
  8
gg1
 10
2.154600
 20
-1.690000
  0
VERTEX
  8
gg1
 10
2.164100
 20
-1.675700
  0
VERTEX
  8
gg1
 10
2.168900
 20
-1.651900
  0
VERTEX
  8
gg1
 10
2.168900
 20
-1.637600
  0
VERTEX
  8
gg1
 10
2.164100
 20
-1.613800
  0
VERTEX
  8
gg1
 10
2.154600
 20
-1.599500
  0
VERTEX
  8
gg1
 10
2.140300
 20
-1.594800
  0
VERTEX
  8
gg1
 10
2.130800
 20
-1.594800
  0
SEQEND
  8
gg1
  0
POLYLINE
  8
gg1
 62
1
 40
0.000000
 41
0.000000
 66
  1
  0
VERTEX
  8
gg1
 10
2.191200
 20
-1.613800
  0
VERTEX
  8
gg1
 10
2.200800
 20
-1.609000
  0
VERTEX
  8
gg1
 10
2.215000
 20
-1.594800
  0
VERTEX
  8
gg1
 10
2.215000
 20
-1.694700
  0
SEQEND
  8
gg1
  0
POLYLINE
  8
gg1
 62
1
 40
0.000000
 41
0.000000
 66
  1
  0
VERTEX
  8
gg1
 10
2.293100
 20
-1.594800
  0
VERTEX
  8
gg1
 10
2.278800
 20
-1.599500
  0
VERTEX
  8
gg1
 10
2.269300
 20
-1.613800
  0
VERTEX
  8
gg1
 10
2.264600
 20
-1.637600
  0
VERTEX
  8
gg1
 10
2.264600
 20
-1.651900
  0
VERTEX
  8
gg1
 10
2.269300
 20
-1.675700
  0
VERTEX
  8
gg1
 10
2.278800
 20
-1.690000
  0
VERTEX
  8
gg1
 10
2.293100
 20
-1.694700
  0
VERTEX
  8
gg1
 10
2.302600
 20
-1.694700
  0
VERTEX
  8
gg1
 10
2.316900
 20
-1.690000
  0
VERTEX
  8
gg1
 10
2.326400
 20
-1.675700
  0
VERTEX
  8
gg1
 10
2.331200
 20
-1.651900
  0
VERTEX
  8
gg1
 10
2.331200
 20
-1.637600
  0
VERTEX
  8
gg1
 10
2.326400
 20
-1.613800
  0
VERTEX
  8
gg1
 10
2.316900
 20
-1.599500
  0
VERTEX
  8
gg1
 10
2.302600
 20
-1.594800
  0
VERTEX
  8
gg1
 10
2.293100
 20
-1.594800
  0
SEQEND
  8
gg1
  0
POLYLINE
  8
gg1
 62
1
 40
0.000000
 41
0.000000
 66
  1
  0
VERTEX
  8
gg1
 10
2.432100
 20
-1.594800
  0
VERTEX
  8
gg1
 10
2.432100
 20
-1.694700
  0
SEQEND
  8
gg1
  0
POLYLINE
  8
gg1
 62
1
 40
0.000000
 41
0.000000
 66
  1
  0
VERTEX
  8
gg1
 10
2.432100
 20
-1.594800
  0
VERTEX
  8
gg1
 10
2.494000
 20
-1.594800
  0
SEQEND
  8
gg1
  0
POLYLINE
  8
gg1
 62
1
 40
0.000000
 41
0.000000
 66
  1
  0
VERTEX
  8
gg1
 10
2.432100
 20
-1.642400
  0
VERTEX
  8
gg1
 10
2.470200
 20
-1.642400
  0
SEQEND
  8
gg1
  0
POLYLINE
  8
gg1
 62
1
 40
0.000000
 41
0.000000
 66
  1
  0
VERTEX
  8
gg1
 10
2.562600
 20
-1.628100
  0
VERTEX
  8
gg1
 10
2.562600
 20
-1.694700
  0
SEQEND
  8
gg1
  0
POLYLINE
  8
gg1
 62
1
 40
0.000000
 41
0.000000
 66
  1
  0
VERTEX
  8
gg1
 10
2.562600
 20
-1.642400
  0
VERTEX
  8
gg1
 10
2.553100
 20
-1.632800
  0
VERTEX
  8
gg1
 10
2.543500
 20
-1.628100
  0
VERTEX
  8
gg1
 10
2.529300
 20
-1.628100
  0
VERTEX
  8
gg1
 10
2.519700
 20
-1.632800
  0
VERTEX
  8
gg1
 10
2.510200
 20
-1.642400
  0
VERTEX
  8
gg1
 10
2.505500
 20
-1.656700
  0
VERTEX
  8
gg1
 10
2.505500
 20
-1.666200
  0
VERTEX
  8
gg1
 10
2.510200
 20
-1.680500
  0
VERTEX
  8
gg1
 10
2.519700
 20
-1.690000
  0
VERTEX
  8
gg1
 10
2.529300
 20
-1.694700
  0
VERTEX
  8
gg1
 10
2.543500
 20
-1.694700
  0
VERTEX
  8
gg1
 10
2.553100
 20
-1.690000
  0
VERTEX
  8
gg1
 10
2.562600
 20
-1.680500
  0
SEQEND
  8
gg1
  0
POLYLINE
  8
gg1
 62
1
 40
0.000000
 41
0.000000
 66
  1
  0
VERTEX
  8
gg1
 10
2.589200
 20
-1.594800
  0
VERTEX
  8
gg1
 10
2.589200
 20
-1.694700
  0
SEQEND
  8
gg1
  0
POLYLINE
  8
gg1
 62
1
 40
0.000000
 41
0.000000
 66
  1
  0
VERTEX
  8
gg1
 10
2.589200
 20
-1.642400
  0
VERTEX
  8
gg1
 10
2.598800
 20
-1.632800
  0
VERTEX
  8
gg1
 10
2.608300
 20
-1.628100
  0
VERTEX
  8
gg1
 10
2.622600
 20
-1.628100
  0
VERTEX
  8
gg1
 10
2.632100
 20
-1.632800
  0
VERTEX
  8
gg1
 10
2.641600
 20
-1.642400
  0
VERTEX
  8
gg1
 10
2.646400
 20
-1.656700
  0
VERTEX
  8
gg1
 10
2.646400
 20
-1.666200
  0
VERTEX
  8
gg1
 10
2.641600
 20
-1.680500
  0
VERTEX
  8
gg1
 10
2.632100
 20
-1.690000
  0
VERTEX
  8
gg1
 10
2.622600
 20
-1.694700
  0
VERTEX
  8
gg1
 10
2.608300
 20
-1.694700
  0
VERTEX
  8
gg1
 10
2.598800
 20
-1.690000
  0
VERTEX
  8
gg1
 10
2.589200
 20
-1.680500
  0
SEQEND
  8
gg1
  0
POLYLINE
  8
gg1
 62
1
 40
0.000000
 41
0.000000
 66
  1
  0
VERTEX
  8
gg1
 10
2.667800
 20
-1.575700
  0
VERTEX
  8
gg1
 10
2.677300
 20
-1.585200
  0
VERTEX
  8
gg1
 10
2.686800
 20
-1.599500
  0
VERTEX
  8
gg1
 10
2.696400
 20
-1.618600
  0
VERTEX
  8
gg1
 10
2.701100
 20
-1.642400
  0
VERTEX
  8
gg1
 10
2.701100
 20
-1.661400
  0
VERTEX
  8
gg1
 10
2.696400
 20
-1.685200
  0
VERTEX
  8
gg1
 10
2.686800
 20
-1.704300
  0
VERTEX
  8
gg1
 10
2.677300
 20
-1.718500
  0
VERTEX
  8
gg1
 10
2.667800
 20
-1.728100
  0
SEQEND
  8
gg1
  0
POLYLINE
  8
gg1
 62
1
 40
0.000000
 41
0.000000
 66
  1
  0
VERTEX
  8
gg1
 10
2.677300
 20
-1.585200
  0
VERTEX
  8
gg1
 10
2.686800
 20
-1.604300
  0
VERTEX
  8
gg1
 10
2.691600
 20
-1.618600
  0
VERTEX
  8
gg1
 10
2.696400
 20
-1.642400
  0
VERTEX
  8
gg1
 10
2.696400
 20
-1.661400
  0
VERTEX
  8
gg1
 10
2.691600
 20
-1.685200
  0
VERTEX
  8
gg1
 10
2.686800
 20
-1.699500
  0
VERTEX
  8
gg1
 10
2.677300
 20
-1.718500
  0
SEQEND
  8
gg1
  0
POLYLINE
  8
gg1
 62
1
 40
0.000000
 41
0.000000
 66
  1
  0
VERTEX
  8
gg1
 10
0.058300
 20
-1.394800
  0
VERTEX
  8
gg1
 10
0.058300
 20
-1.494700
  0
SEQEND
  8
gg1
  0
POLYLINE
  8
gg1
 62
1
 40
0.000000
 41
0.000000
 66
  1
  0
VERTEX
  8
gg1
 10
0.025000
 20
-1.394800
  0
VERTEX
  8
gg1
 10
0.091700
 20
-1.394800
  0
SEQEND
  8
gg1
  0
POLYLINE
  8
gg1
 62
1
 40
0.000000
 41
0.000000
 66
  1
  0
VERTEX
  8
gg1
 10
0.127400
 20
-1.428100
  0
VERTEX
  8
gg1
 10
0.117800
 20
-1.432800
  0
VERTEX
  8
gg1
 10
0.108300
 20
-1.442400
  0
VERTEX
  8
gg1
 10
0.103600
 20
-1.456700
  0
VERTEX
  8
gg1
 10
0.103600
 20
-1.466200
  0
VERTEX
  8
gg1
 10
0.108300
 20
-1.480500
  0
VERTEX
  8
gg1
 10
0.117800
 20
-1.490000
  0
VERTEX
  8
gg1
 10
0.127400
 20
-1.494700
  0
VERTEX
  8
gg1
 10
0.141600
 20
-1.494700
  0
VERTEX
  8
gg1
 10
0.151200
 20
-1.490000
  0
VERTEX
  8
gg1
 10
0.160700
 20
-1.480500
  0
VERTEX
  8
gg1
 10
0.165400
 20
-1.466200
  0
VERTEX
  8
gg1
 10
0.165400
 20
-1.456700
  0
VERTEX
  8
gg1
 10
0.160700
 20
-1.442400
  0
VERTEX
  8
gg1
 10
0.151200
 20
-1.432800
  0
VERTEX
  8
gg1
 10
0.141600
 20
-1.428100
  0
VERTEX
  8
gg1
 10
0.127400
 20
-1.428100
  0
SEQEND
  8
gg1
  0
POLYLINE
  8
gg1
 62
1
 40
0.000000
 41
0.000000
 66
  1
  0
VERTEX
  8
gg1
 10
0.187300
 20
-1.394800
  0
VERTEX
  8
gg1
 10
0.187300
 20
-1.494700
  0
SEQEND
  8
gg1
  0
POLYLINE
  8
gg1
 62
1
 40
0.000000
 41
0.000000
 66
  1
  0
VERTEX
  8
gg1
 10
0.208300
 20
-1.456700
  0
VERTEX
  8
gg1
 10
0.265400
 20
-1.456700
  0
VERTEX
  8
gg1
 10
0.265400
 20
-1.447100
  0
VERTEX
  8
gg1
 10
0.260700
 20
-1.437600
  0
VERTEX
  8
gg1
 10
0.255900
 20
-1.432800
  0
VERTEX
  8
gg1
 10
0.246400
 20
-1.428100
  0
VERTEX
  8
gg1
 10
0.232100
 20
-1.428100
  0
VERTEX
  8
gg1
 10
0.222600
 20
-1.432800
  0
VERTEX
  8
gg1
 10
0.213100
 20
-1.442400
  0
VERTEX
  8
gg1
 10
0.208300
 20
-1.456700
  0
VERTEX
  8
gg1
 10
0.208300
 20
-1.466200
  0
VERTEX
  8
gg1
 10
0.213100
 20
-1.480500
  0
VERTEX
  8
gg1
 10
0.222600
 20
-1.490000
  0
VERTEX
  8
gg1
 10
0.232100
 20
-1.494700
  0
VERTEX
  8
gg1
 10
0.246400
 20
-1.494700
  0
VERTEX
  8
gg1
 10
0.255900
 20
-1.490000
  0
VERTEX
  8
gg1
 10
0.265400
 20
-1.480500
  0
SEQEND
  8
gg1
  0
POLYLINE
  8
gg1
 62
1
 40
0.000000
 41
0.000000
 66
  1
  0
VERTEX
  8
gg1
 10
0.286800
 20
-1.428100
  0
VERTEX
  8
gg1
 10
0.286800
 20
-1.494700
  0
SEQEND
  8
gg1
  0
POLYLINE
  8
gg1
 62
1
 40
0.000000
 41
0.000000
 66
  1
  0
VERTEX
  8
gg1
 10
0.286800
 20
-1.456700
  0
VERTEX
  8
gg1
 10
0.291600
 20
-1.442400
  0
VERTEX
  8
gg1
 10
0.301100
 20
-1.432800
  0
VERTEX
  8
gg1
 10
0.310700
 20
-1.428100
  0
VERTEX
  8
gg1
 10
0.324900
 20
-1.428100
  0
SEQEND
  8
gg1
  0
POLYLINE
  8
gg1
 62
1
 40
0.000000
 41
0.000000
 66
  1
  0
VERTEX
  8
gg1
 10
0.391100
 20
-1.428100
  0
VERTEX
  8
gg1
 10
0.391100
 20
-1.494700
  0
SEQEND
  8
gg1
  0
POLYLINE
  8
gg1
 62
1
 40
0.000000
 41
0.000000
 66
  1
  0
VERTEX
  8
gg1
 10
0.391100
 20
-1.442400
  0
VERTEX
  8
gg1
 10
0.381600
 20
-1.432800
  0
VERTEX
  8
gg1
 10
0.372100
 20
-1.428100
  0
VERTEX
  8
gg1
 10
0.357800
 20
-1.428100
  0
VERTEX
  8
gg1
 10
0.348300
 20
-1.432800
  0
VERTEX
  8
gg1
 10
0.338700
 20
-1.442400
  0
VERTEX
  8
gg1
 10
0.334000
 20
-1.456700
  0
VERTEX
  8
gg1
 10
0.334000
 20
-1.466200
  0
VERTEX
  8
gg1
 10
0.338700
 20
-1.480500
  0
VERTEX
  8
gg1
 10
0.348300
 20
-1.490000
  0
VERTEX
  8
gg1
 10
0.357800
 20
-1.494700
  0
VERTEX
  8
gg1
 10
0.372100
 20
-1.494700
  0
VERTEX
  8
gg1
 10
0.381600
 20
-1.490000
  0
VERTEX
  8
gg1
 10
0.391100
 20
-1.480500
  0
SEQEND
  8
gg1
  0
POLYLINE
  8
gg1
 62
1
 40
0.000000
 41
0.000000
 66
  1
  0
VERTEX
  8
gg1
 10
0.417800
 20
-1.428100
  0
VERTEX
  8
gg1
 10
0.417800
 20
-1.494700
  0
SEQEND
  8
gg1
  0
POLYLINE
  8
gg1
 62
1
 40
0.000000
 41
0.000000
 66
  1
  0
VERTEX
  8
gg1
 10
0.417800
 20
-1.447100
  0
VERTEX
  8
gg1
 10
0.432100
 20
-1.432800
  0
VERTEX
  8
gg1
 10
0.441600
 20
-1.428100
  0
VERTEX
  8
gg1
 10
0.455900
 20
-1.428100
  0
VERTEX
  8
gg1
 10
0.465400
 20
-1.432800
  0
VERTEX
  8
gg1
 10
0.470100
 20
-1.447100
  0
VERTEX
  8
gg1
 10
0.470100
 20
-1.494700
  0
SEQEND
  8
gg1
  0
POLYLINE
  8
gg1
 62
1
 40
0.000000
 41
0.000000
 66
  1
  0
VERTEX
  8
gg1
 10
0.553500
 20
-1.442400
  0
VERTEX
  8
gg1
 10
0.543900
 20
-1.432800
  0
VERTEX
  8
gg1
 10
0.534400
 20
-1.428100
  0
VERTEX
  8
gg1
 10
0.520100
 20
-1.428100
  0
VERTEX
  8
gg1
 10
0.510600
 20
-1.432800
  0
VERTEX
  8
gg1
 10
0.501100
 20
-1.442400
  0
VERTEX
  8
gg1
 10
0.496300
 20
-1.456700
  0
VERTEX
  8
gg1
 10
0.496300
 20
-1.466200
  0
VERTEX
  8
gg1
 10
0.501100
 20
-1.480500
  0
VERTEX
  8
gg1
 10
0.510600
 20
-1.490000
  0
VERTEX
  8
gg1
 10
0.520100
 20
-1.494700
  0
VERTEX
  8
gg1
 10
0.534400
 20
-1.494700
  0
VERTEX
  8
gg1
 10
0.543900
 20
-1.490000
  0
VERTEX
  8
gg1
 10
0.553500
 20
-1.480500
  0
SEQEND
  8
gg1
  0
POLYLINE
  8
gg1
 62
1
 40
0.000000
 41
0.000000
 66
  1
  0
VERTEX
  8
gg1
 10
0.574900
 20
-1.456700
  0
VERTEX
  8
gg1
 10
0.632000
 20
-1.456700
  0
VERTEX
  8
gg1
 10
0.632000
 20
-1.447100
  0
VERTEX
  8
gg1
 10
0.627300
 20
-1.437600
  0
VERTEX
  8
gg1
 10
0.622500
 20
-1.432800
  0
VERTEX
  8
gg1
 10
0.613000
 20
-1.428100
  0
VERTEX
  8
gg1
 10
0.598700
 20
-1.428100
  0
VERTEX
  8
gg1
 10
0.589200
 20
-1.432800
  0
VERTEX
  8
gg1
 10
0.579600
 20
-1.442400
  0
VERTEX
  8
gg1
 10
0.574900
 20
-1.456700
  0
VERTEX
  8
gg1
 10
0.574900
 20
-1.466200
  0
VERTEX
  8
gg1
 10
0.579600
 20
-1.480500
  0
VERTEX
  8
gg1
 10
0.589200
 20
-1.490000
  0
VERTEX
  8
gg1
 10
0.598700
 20
-1.494700
  0
VERTEX
  8
gg1
 10
0.613000
 20
-1.494700
  0
VERTEX
  8
gg1
 10
0.622500
 20
-1.490000
  0
VERTEX
  8
gg1
 10
0.632000
 20
-1.480500
  0
SEQEND
  8
gg1
  0
POLYLINE
  8
gg1
 62
1
 40
0.000000
 41
0.000000
 66
  1
  0
VERTEX
  8
gg1
 10
0.784400
 20
-1.442400
  0
VERTEX
  8
gg1
 10
0.779600
 20
-1.432800
  0
VERTEX
  8
gg1
 10
0.765300
 20
-1.428100
  0
VERTEX
  8
gg1
 10
0.751000
 20
-1.428100
  0
VERTEX
  8
gg1
 10
0.736800
 20
-1.432800
  0
VERTEX
  8
gg1
 10
0.732000
 20
-1.442400
  0
VERTEX
  8
gg1
 10
0.736800
 20
-1.451900
  0
VERTEX
  8
gg1
 10
0.746300
 20
-1.456700
  0
VERTEX
  8
gg1
 10
0.770100
 20
-1.461400
  0
VERTEX
  8
gg1
 10
0.779600
 20
-1.466200
  0
VERTEX
  8
gg1
 10
0.784400
 20
-1.475700
  0
VERTEX
  8
gg1
 10
0.784400
 20
-1.480500
  0
VERTEX
  8
gg1
 10
0.779600
 20
-1.490000
  0
VERTEX
  8
gg1
 10
0.765300
 20
-1.494700
  0
VERTEX
  8
gg1
 10
0.751000
 20
-1.494700
  0
VERTEX
  8
gg1
 10
0.736800
 20
-1.490000
  0
VERTEX
  8
gg1
 10
0.732000
 20
-1.480500
  0
SEQEND
  8
gg1
  0
POLYLINE
  8
gg1
 62
1
 40
0.000000
 41
0.000000
 66
  1
  0
VERTEX
  8
gg1
 10
0.805300
 20
-1.428100
  0
VERTEX
  8
gg1
 10
0.805300
 20
-1.528100
  0
SEQEND
  8
gg1
  0
POLYLINE
  8
gg1
 62
1
 40
0.000000
 41
0.000000
 66
  1
  0
VERTEX
  8
gg1
 10
0.805300
 20
-1.442400
  0
VERTEX
  8
gg1
 10
0.814800
 20
-1.432800
  0
VERTEX
  8
gg1
 10
0.824400
 20
-1.428100
  0
VERTEX
  8
gg1
 10
0.838600
 20
-1.428100
  0
VERTEX
  8
gg1
 10
0.848200
 20
-1.432800
  0
VERTEX
  8
gg1
 10
0.857700
 20
-1.442400
  0
VERTEX
  8
gg1
 10
0.862400
 20
-1.456700
  0
VERTEX
  8
gg1
 10
0.862400
 20
-1.466200
  0
VERTEX
  8
gg1
 10
0.857700
 20
-1.480500
  0
VERTEX
  8
gg1
 10
0.848200
 20
-1.490000
  0
VERTEX
  8
gg1
 10
0.838600
 20
-1.494700
  0
VERTEX
  8
gg1
 10
0.824400
 20
-1.494700
  0
VERTEX
  8
gg1
 10
0.814800
 20
-1.490000
  0
VERTEX
  8
gg1
 10
0.805300
 20
-1.480500
  0
SEQEND
  8
gg1
  0
POLYLINE
  8
gg1
 62
1
 40
0.000000
 41
0.000000
 66
  1
  0
VERTEX
  8
gg1
 10
0.883900
 20
-1.456700
  0
VERTEX
  8
gg1
 10
0.941000
 20
-1.456700
  0
VERTEX
  8
gg1
 10
0.941000
 20
-1.447100
  0
VERTEX
  8
gg1
 10
0.936200
 20
-1.437600
  0
VERTEX
  8
gg1
 10
0.931500
 20
-1.432800
  0
VERTEX
  8
gg1
 10
0.922000
 20
-1.428100
  0
VERTEX
  8
gg1
 10
0.907700
 20
-1.428100
  0
VERTEX
  8
gg1
 10
0.898100
 20
-1.432800
  0
VERTEX
  8
gg1
 10
0.888600
 20
-1.442400
  0
VERTEX
  8
gg1
 10
0.883900
 20
-1.456700
  0
VERTEX
  8
gg1
 10
0.883900
 20
-1.466200
  0
VERTEX
  8
gg1
 10
0.888600
 20
-1.480500
  0
VERTEX
  8
gg1
 10
0.898100
 20
-1.490000
  0
VERTEX
  8
gg1
 10
0.907700
 20
-1.494700
  0
VERTEX
  8
gg1
 10
0.922000
 20
-1.494700
  0
VERTEX
  8
gg1
 10
0.931500
 20
-1.490000
  0
VERTEX
  8
gg1
 10
0.941000
 20
-1.480500
  0
SEQEND
  8
gg1
  0
POLYLINE
  8
gg1
 62
1
 40
0.000000
 41
0.000000
 66
  1
  0
VERTEX
  8
gg1
 10
1.019500
 20
-1.442400
  0
VERTEX
  8
gg1
 10
1.010000
 20
-1.432800
  0
VERTEX
  8
gg1
 10
1.000500
 20
-1.428100
  0
VERTEX
  8
gg1
 10
0.986200
 20
-1.428100
  0
VERTEX
  8
gg1
 10
0.976700
 20
-1.432800
  0
VERTEX
  8
gg1
 10
0.967200
 20
-1.442400
  0
VERTEX
  8
gg1
 10
0.962400
 20
-1.456700
  0
VERTEX
  8
gg1
 10
0.962400
 20
-1.466200
  0
VERTEX
  8
gg1
 10
0.967200
 20
-1.480500
  0
VERTEX
  8
gg1
 10
0.976700
 20
-1.490000
  0
VERTEX
  8
gg1
 10
0.986200
 20
-1.494700
  0
VERTEX
  8
gg1
 10
1.000500
 20
-1.494700
  0
VERTEX
  8
gg1
 10
1.010000
 20
-1.490000
  0
VERTEX
  8
gg1
 10
1.019500
 20
-1.480500
  0
SEQEND
  8
gg1
  0
POLYLINE
  8
gg1
 62
1
 40
0.000000
 41
0.000000
 66
  1
  0
VERTEX
  8
gg1
 10
1.050500
 20
-1.394800
  0
VERTEX
  8
gg1
 10
1.055300
 20
-1.399500
  0
VERTEX
  8
gg1
 10
1.060000
 20
-1.394800
  0
VERTEX
  8
gg1
 10
1.055300
 20
-1.390000
  0
VERTEX
  8
gg1
 10
1.050500
 20
-1.394800
  0
SEQEND
  8
gg1
  0
POLYLINE
  8
gg1
 62
1
 40
0.000000
 41
0.000000
 66
  1
  0
VERTEX
  8
gg1
 10
1.055300
 20
-1.428100
  0
VERTEX
  8
gg1
 10
1.055300
 20
-1.494700
  0
SEQEND
  8
gg1
  0
POLYLINE
  8
gg1
 62
1
 40
0.000000
 41
0.000000
 66
  1
  0
VERTEX
  8
gg1
 10
1.115700
 20
-1.394800
  0
VERTEX
  8
gg1
 10
1.106200
 20
-1.394800
  0
VERTEX
  8
gg1
 10
1.096700
 20
-1.399500
  0
VERTEX
  8
gg1
 10
1.091900
 20
-1.413800
  0
VERTEX
  8
gg1
 10
1.091900
 20
-1.494700
  0
SEQEND
  8
gg1
  0
POLYLINE
  8
gg1
 62
1
 40
0.000000
 41
0.000000
 66
  1
  0
VERTEX
  8
gg1
 10
1.077600
 20
-1.428100
  0
VERTEX
  8
gg1
 10
1.111000
 20
-1.428100
  0
SEQEND
  8
gg1
  0
POLYLINE
  8
gg1
 62
1
 40
0.000000
 41
0.000000
 66
  1
  0
VERTEX
  8
gg1
 10
1.139500
 20
-1.394800
  0
VERTEX
  8
gg1
 10
1.144300
 20
-1.399500
  0
VERTEX
  8
gg1
 10
1.149000
 20
-1.394800
  0
VERTEX
  8
gg1
 10
1.144300
 20
-1.390000
  0
VERTEX
  8
gg1
 10
1.139500
 20
-1.394800
  0
SEQEND
  8
gg1
  0
POLYLINE
  8
gg1
 62
1
 40
0.000000
 41
0.000000
 66
  1
  0
VERTEX
  8
gg1
 10
1.144300
 20
-1.428100
  0
VERTEX
  8
gg1
 10
1.144300
 20
-1.494700
  0
SEQEND
  8
gg1
  0
POLYLINE
  8
gg1
 62
1
 40
0.000000
 41
0.000000
 66
  1
  0
VERTEX
  8
gg1
 10
1.223800
 20
-1.442400
  0
VERTEX
  8
gg1
 10
1.214300
 20
-1.432800
  0
VERTEX
  8
gg1
 10
1.204700
 20
-1.428100
  0
VERTEX
  8
gg1
 10
1.190500
 20
-1.428100
  0
VERTEX
  8
gg1
 10
1.180900
 20
-1.432800
  0
VERTEX
  8
gg1
 10
1.171400
 20
-1.442400
  0
VERTEX
  8
gg1
 10
1.166700
 20
-1.456700
  0
VERTEX
  8
gg1
 10
1.166700
 20
-1.466200
  0
VERTEX
  8
gg1
 10
1.171400
 20
-1.480500
  0
VERTEX
  8
gg1
 10
1.180900
 20
-1.490000
  0
VERTEX
  8
gg1
 10
1.190500
 20
-1.494700
  0
VERTEX
  8
gg1
 10
1.204700
 20
-1.494700
  0
VERTEX
  8
gg1
 10
1.214300
 20
-1.490000
  0
VERTEX
  8
gg1
 10
1.223800
 20
-1.480500
  0
SEQEND
  8
gg1
  0
POLYLINE
  8
gg1
 62
1
 40
0.000000
 41
0.000000
 66
  1
  0
VERTEX
  8
gg1
 10
1.302300
 20
-1.428100
  0
VERTEX
  8
gg1
 10
1.302300
 20
-1.494700
  0
SEQEND
  8
gg1
  0
POLYLINE
  8
gg1
 62
1
 40
0.000000
 41
0.000000
 66
  1
  0
VERTEX
  8
gg1
 10
1.302300
 20
-1.442400
  0
VERTEX
  8
gg1
 10
1.292800
 20
-1.432800
  0
VERTEX
  8
gg1
 10
1.283300
 20
-1.428100
  0
VERTEX
  8
gg1
 10
1.269000
 20
-1.428100
  0
VERTEX
  8
gg1
 10
1.259500
 20
-1.432800
  0
VERTEX
  8
gg1
 10
1.250000
 20
-1.442400
  0
VERTEX
  8
gg1
 10
1.245200
 20
-1.456700
  0
VERTEX
  8
gg1
 10
1.245200
 20
-1.466200
  0
VERTEX
  8
gg1
 10
1.250000
 20
-1.480500
  0
VERTEX
  8
gg1
 10
1.259500
 20
-1.490000
  0
VERTEX
  8
gg1
 10
1.269000
 20
-1.494700
  0
VERTEX
  8
gg1
 10
1.283300
 20
-1.494700
  0
VERTEX
  8
gg1
 10
1.292800
 20
-1.490000
  0
VERTEX
  8
gg1
 10
1.302300
 20
-1.480500
  0
SEQEND
  8
gg1
  0
POLYLINE
  8
gg1
 62
1
 40
0.000000
 41
0.000000
 66
  1
  0
VERTEX
  8
gg1
 10
1.343300
 20
-1.394800
  0
VERTEX
  8
gg1
 10
1.343300
 20
-1.475700
  0
VERTEX
  8
gg1
 10
1.348000
 20
-1.490000
  0
VERTEX
  8
gg1
 10
1.357600
 20
-1.494700
  0
VERTEX
  8
gg1
 10
1.367100
 20
-1.494700
  0
SEQEND
  8
gg1
  0
POLYLINE
  8
gg1
 62
1
 40
0.000000
 41
0.000000
 66
  1
  0
VERTEX
  8
gg1
 10
1.329000
 20
-1.428100
  0
VERTEX
  8
gg1
 10
1.362300
 20
-1.428100
  0
SEQEND
  8
gg1
  0
POLYLINE
  8
gg1
 62
1
 40
0.000000
 41
0.000000
 66
  1
  0
VERTEX
  8
gg1
 10
1.390900
 20
-1.394800
  0
VERTEX
  8
gg1
 10
1.395700
 20
-1.399500
  0
VERTEX
  8
gg1
 10
1.400400
 20
-1.394800
  0
VERTEX
  8
gg1
 10
1.395700
 20
-1.390000
  0
VERTEX
  8
gg1
 10
1.390900
 20
-1.394800
  0
SEQEND
  8
gg1
  0
POLYLINE
  8
gg1
 62
1
 40
0.000000
 41
0.000000
 66
  1
  0
VERTEX
  8
gg1
 10
1.395700
 20
-1.428100
  0
VERTEX
  8
gg1
 10
1.395700
 20
-1.494700
  0
SEQEND
  8
gg1
  0
POLYLINE
  8
gg1
 62
1
 40
0.000000
 41
0.000000
 66
  1
  0
VERTEX
  8
gg1
 10
1.441800
 20
-1.428100
  0
VERTEX
  8
gg1
 10
1.432300
 20
-1.432800
  0
VERTEX
  8
gg1
 10
1.422800
 20
-1.442400
  0
VERTEX
  8
gg1
 10
1.418000
 20
-1.456700
  0
VERTEX
  8
gg1
 10
1.418000
 20
-1.466200
  0
VERTEX
  8
gg1
 10
1.422800
 20
-1.480500
  0
VERTEX
  8
gg1
 10
1.432300
 20
-1.490000
  0
VERTEX
  8
gg1
 10
1.441800
 20
-1.494700
  0
VERTEX
  8
gg1
 10
1.456100
 20
-1.494700
  0
VERTEX
  8
gg1
 10
1.465600
 20
-1.490000
  0
VERTEX
  8
gg1
 10
1.475200
 20
-1.480500
  0
VERTEX
  8
gg1
 10
1.479900
 20
-1.466200
  0
VERTEX
  8
gg1
 10
1.479900
 20
-1.456700
  0
VERTEX
  8
gg1
 10
1.475200
 20
-1.442400
  0
VERTEX
  8
gg1
 10
1.465600
 20
-1.432800
  0
VERTEX
  8
gg1
 10
1.456100
 20
-1.428100
  0
VERTEX
  8
gg1
 10
1.441800
 20
-1.428100
  0
SEQEND
  8
gg1
  0
POLYLINE
  8
gg1
 62
1
 40
0.000000
 41
0.000000
 66
  1
  0
VERTEX
  8
gg1
 10
1.501800
 20
-1.428100
  0
VERTEX
  8
gg1
 10
1.501800
 20
-1.494700
  0
SEQEND
  8
gg1
  0
POLYLINE
  8
gg1
 62
1
 40
0.000000
 41
0.000000
 66
  1
  0
VERTEX
  8
gg1
 10
1.501800
 20
-1.447100
  0
VERTEX
  8
gg1
 10
1.516100
 20
-1.432800
  0
VERTEX
  8
gg1
 10
1.525600
 20
-1.428100
  0
VERTEX
  8
gg1
 10
1.539900
 20
-1.428100
  0
VERTEX
  8
gg1
 10
1.549400
 20
-1.432800
  0
VERTEX
  8
gg1
 10
1.554200
 20
-1.447100
  0
VERTEX
  8
gg1
 10
1.554200
 20
-1.494700
  0
SEQEND
  8
gg1
  0
POLYLINE
  8
gg1
 62
1
 40
0.000000
 41
0.000000
 66
  1
  0
VERTEX
  8
gg1
 10
1.632800
 20
-1.442400
  0
VERTEX
  8
gg1
 10
1.628000
 20
-1.432800
  0
VERTEX
  8
gg1
 10
1.613700
 20
-1.428100
  0
VERTEX
  8
gg1
 10
1.599400
 20
-1.428100
  0
VERTEX
  8
gg1
 10
1.585100
 20
-1.432800
  0
VERTEX
  8
gg1
 10
1.580400
 20
-1.442400
  0
VERTEX
  8
gg1
 10
1.585100
 20
-1.451900
  0
VERTEX
  8
gg1
 10
1.594700
 20
-1.456700
  0
VERTEX
  8
gg1
 10
1.618500
 20
-1.461400
  0
VERTEX
  8
gg1
 10
1.628000
 20
-1.466200
  0
VERTEX
  8
gg1
 10
1.632800
 20
-1.475700
  0
VERTEX
  8
gg1
 10
1.632800
 20
-1.480500
  0
VERTEX
  8
gg1
 10
1.628000
 20
-1.490000
  0
VERTEX
  8
gg1
 10
1.613700
 20
-1.494700
  0
VERTEX
  8
gg1
 10
1.599400
 20
-1.494700
  0
VERTEX
  8
gg1
 10
1.585100
 20
-1.490000
  0
VERTEX
  8
gg1
 10
1.580400
 20
-1.480500
  0
SEQEND
  8
gg1
  0
POLYLINE
  8
gg1
 62
1
 40
0.000000
 41
0.000000
 66
  1
  0
VERTEX
  8
gg1
 10
1.658500
 20
-1.428100
  0
VERTEX
  8
gg1
 10
1.653700
 20
-1.432800
  0
VERTEX
  8
gg1
 10
1.658500
 20
-1.437600
  0
VERTEX
  8
gg1
 10
1.663200
 20
-1.432800
  0
VERTEX
  8
gg1
 10
1.658500
 20
-1.428100
  0
SEQEND
  8
gg1
  0
POLYLINE
  8
gg1
 62
1
 40
0.000000
 41
0.000000
 66
  1
  0
VERTEX
  8
gg1
 10
1.658500
 20
-1.485200
  0
VERTEX
  8
gg1
 10
1.653700
 20
-1.490000
  0
VERTEX
  8
gg1
 10
1.658500
 20
-1.494700
  0
VERTEX
  8
gg1
 10
1.663200
 20
-1.490000
  0
VERTEX
  8
gg1
 10
1.658500
 20
-1.485200
  0
SEQEND
  8
gg1
  0
POLYLINE
  8
gg1
 62
1
 40
0.000000
 41
0.000000
 66
  1
  0
VERTEX
  8
gg1
 10
0.121400
 20
-1.243600
  0
VERTEX
  8
gg1
 10
0.116700
 20
-1.234000
  0
VERTEX
  8
gg1
 10
0.107100
 20
-1.224500
  0
VERTEX
  8
gg1
 10
0.097600
 20
-1.219800
  0
VERTEX
  8
gg1
 10
0.078600
 20
-1.219800
  0
VERTEX
  8
gg1
 10
0.069000
 20
-1.224500
  0
VERTEX
  8
gg1
 10
0.059500
 20
-1.234000
  0
VERTEX
  8
gg1
 10
0.054800
 20
-1.243600
  0
VERTEX
  8
gg1
 10
0.050000
 20
-1.257800
  0
VERTEX
  8
gg1
 10
0.050000
 20
-1.281700
  0
VERTEX
  8
gg1
 10
0.054800
 20
-1.295900
  0
VERTEX
  8
gg1
 10
0.059500
 20
-1.305500
  0
VERTEX
  8
gg1
 10
0.069000
 20
-1.315000
  0
VERTEX
  8
gg1
 10
0.078600
 20
-1.319700
  0
VERTEX
  8
gg1
 10
0.097600
 20
-1.319700
  0
VERTEX
  8
gg1
 10
0.107100
 20
-1.315000
  0
VERTEX
  8
gg1
 10
0.116700
 20
-1.305500
  0
VERTEX
  8
gg1
 10
0.121400
 20
-1.295900
  0
SEQEND
  8
gg1
  0
POLYLINE
  8
gg1
 62
1
 40
0.000000
 41
0.000000
 66
  1
  0
VERTEX
  8
gg1
 10
0.173300
 20
-1.253100
  0
VERTEX
  8
gg1
 10
0.163800
 20
-1.257800
  0
VERTEX
  8
gg1
 10
0.154300
 20
-1.267400
  0
VERTEX
  8
gg1
 10
0.149500
 20
-1.281700
  0
VERTEX
  8
gg1
 10
0.149500
 20
-1.291200
  0
VERTEX
  8
gg1
 10
0.154300
 20
-1.305500
  0
VERTEX
  8
gg1
 10
0.163800
 20
-1.315000
  0
VERTEX
  8
gg1
 10
0.173300
 20
-1.319700
  0
VERTEX
  8
gg1
 10
0.187600
 20
-1.319700
  0
VERTEX
  8
gg1
 10
0.197100
 20
-1.315000
  0
VERTEX
  8
gg1
 10
0.206600
 20
-1.305500
  0
VERTEX
  8
gg1
 10
0.211400
 20
-1.291200
  0
VERTEX
  8
gg1
 10
0.211400
 20
-1.281700
  0
VERTEX
  8
gg1
 10
0.206600
 20
-1.267400
  0
VERTEX
  8
gg1
 10
0.197100
 20
-1.257800
  0
VERTEX
  8
gg1
 10
0.187600
 20
-1.253100
  0
VERTEX
  8
gg1
 10
0.173300
 20
-1.253100
  0
SEQEND
  8
gg1
  0
POLYLINE
  8
gg1
 62
1
 40
0.000000
 41
0.000000
 66
  1
  0
VERTEX
  8
gg1
 10
0.233300
 20
-1.253100
  0
VERTEX
  8
gg1
 10
0.233300
 20
-1.353100
  0
SEQEND
  8
gg1
  0
POLYLINE
  8
gg1
 62
1
 40
0.000000
 41
0.000000
 66
  1
  0
VERTEX
  8
gg1
 10
0.233300
 20
-1.267400
  0
VERTEX
  8
gg1
 10
0.242800
 20
-1.257800
  0
VERTEX
  8
gg1
 10
0.252300
 20
-1.253100
  0
VERTEX
  8
gg1
 10
0.266600
 20
-1.253100
  0
VERTEX
  8
gg1
 10
0.276100
 20
-1.257800
  0
VERTEX
  8
gg1
 10
0.285700
 20
-1.267400
  0
VERTEX
  8
gg1
 10
0.290400
 20
-1.281700
  0
VERTEX
  8
gg1
 10
0.290400
 20
-1.291200
  0
VERTEX
  8
gg1
 10
0.285700
 20
-1.305500
  0
VERTEX
  8
gg1
 10
0.276100
 20
-1.315000
  0
VERTEX
  8
gg1
 10
0.266600
 20
-1.319700
  0
VERTEX
  8
gg1
 10
0.252300
 20
-1.319700
  0
VERTEX
  8
gg1
 10
0.242800
 20
-1.315000
  0
VERTEX
  8
gg1
 10
0.233300
 20
-1.305500
  0
SEQEND
  8
gg1
  0
POLYLINE
  8
gg1
 62
1
 40
0.000000
 41
0.000000
 66
  1
  0
VERTEX
  8
gg1
 10
0.311800
 20
-1.253100
  0
VERTEX
  8
gg1
 10
0.311800
 20
-1.353100
  0
SEQEND
  8
gg1
  0
POLYLINE
  8
gg1
 62
1
 40
0.000000
 41
0.000000
 66
  1
  0
VERTEX
  8
gg1
 10
0.311800
 20
-1.267400
  0
VERTEX
  8
gg1
 10
0.321400
 20
-1.257800
  0
VERTEX
  8
gg1
 10
0.330900
 20
-1.253100
  0
VERTEX
  8
gg1
 10
0.345200
 20
-1.253100
  0
VERTEX
  8
gg1
 10
0.354700
 20
-1.257800
  0
VERTEX
  8
gg1
 10
0.364200
 20
-1.267400
  0
VERTEX
  8
gg1
 10
0.369000
 20
-1.281700
  0
VERTEX
  8
gg1
 10
0.369000
 20
-1.291200
  0
VERTEX
  8
gg1
 10
0.364200
 20
-1.305500
  0
VERTEX
  8
gg1
 10
0.354700
 20
-1.315000
  0
VERTEX
  8
gg1
 10
0.345200
 20
-1.319700
  0
VERTEX
  8
gg1
 10
0.330900
 20
-1.319700
  0
VERTEX
  8
gg1
 10
0.321400
 20
-1.315000
  0
VERTEX
  8
gg1
 10
0.311800
 20
-1.305500
  0
SEQEND
  8
gg1
  0
POLYLINE
  8
gg1
 62
1
 40
0.000000
 41
0.000000
 66
  1
  0
VERTEX
  8
gg1
 10
0.390400
 20
-1.281700
  0
VERTEX
  8
gg1
 10
0.447500
 20
-1.281700
  0
VERTEX
  8
gg1
 10
0.447500
 20
-1.272100
  0
VERTEX
  8
gg1
 10
0.442800
 20
-1.262600
  0
VERTEX
  8
gg1
 10
0.438000
 20
-1.257800
  0
VERTEX
  8
gg1
 10
0.428500
 20
-1.253100
  0
VERTEX
  8
gg1
 10
0.414200
 20
-1.253100
  0
VERTEX
  8
gg1
 10
0.404700
 20
-1.257800
  0
VERTEX
  8
gg1
 10
0.395200
 20
-1.267400
  0
VERTEX
  8
gg1
 10
0.390400
 20
-1.281700
  0
VERTEX
  8
gg1
 10
0.390400
 20
-1.291200
  0
VERTEX
  8
gg1
 10
0.395200
 20
-1.305500
  0
VERTEX
  8
gg1
 10
0.404700
 20
-1.315000
  0
VERTEX
  8
gg1
 10
0.414200
 20
-1.319700
  0
VERTEX
  8
gg1
 10
0.428500
 20
-1.319700
  0
VERTEX
  8
gg1
 10
0.438000
 20
-1.315000
  0
VERTEX
  8
gg1
 10
0.447500
 20
-1.305500
  0
SEQEND
  8
gg1
  0
POLYLINE
  8
gg1
 62
1
 40
0.000000
 41
0.000000
 66
  1
  0
VERTEX
  8
gg1
 10
0.469000
 20
-1.253100
  0
VERTEX
  8
gg1
 10
0.469000
 20
-1.319700
  0
SEQEND
  8
gg1
  0
POLYLINE
  8
gg1
 62
1
 40
0.000000
 41
0.000000
 66
  1
  0
VERTEX
  8
gg1
 10
0.469000
 20
-1.281700
  0
VERTEX
  8
gg1
 10
0.473700
 20
-1.267400
  0
VERTEX
  8
gg1
 10
0.483200
 20
-1.257800
  0
VERTEX
  8
gg1
 10
0.492800
 20
-1.253100
  0
VERTEX
  8
gg1
 10
0.507000
 20
-1.253100
  0
SEQEND
  8
gg1
  0
POLYLINE
  8
gg1
 62
1
 40
0.000000
 41
0.000000
 66
  1
  0
VERTEX
  8
gg1
 10
0.594600
 20
-1.219800
  0
VERTEX
  8
gg1
 10
0.618400
 20
-1.319700
  0
SEQEND
  8
gg1
  0
POLYLINE
  8
gg1
 62
1
 40
0.000000
 41
0.000000
 66
  1
  0
VERTEX
  8
gg1
 10
0.642300
 20
-1.219800
  0
VERTEX
  8
gg1
 10
0.618400
 20
-1.319700
  0
SEQEND
  8
gg1
  0
POLYLINE
  8
gg1
 62
1
 40
0.000000
 41
0.000000
 66
  1
  0
VERTEX
  8
gg1
 10
0.642300
 20
-1.219800
  0
VERTEX
  8
gg1
 10
0.666100
 20
-1.319700
  0
SEQEND
  8
gg1
  0
POLYLINE
  8
gg1
 62
1
 40
0.000000
 41
0.000000
 66
  1
  0
VERTEX
  8
gg1
 10
0.689900
 20
-1.219800
  0
VERTEX
  8
gg1
 10
0.666100
 20
-1.319700
  0
SEQEND
  8
gg1
  0
POLYLINE
  8
gg1
 62
1
 40
0.000000
 41
0.000000
 66
  1
  0
VERTEX
  8
gg1
 10
0.709900
 20
-1.281700
  0
VERTEX
  8
gg1
 10
0.767000
 20
-1.281700
  0
VERTEX
  8
gg1
 10
0.767000
 20
-1.272100
  0
VERTEX
  8
gg1
 10
0.762200
 20
-1.262600
  0
VERTEX
  8
gg1
 10
0.757500
 20
-1.257800
  0
VERTEX
  8
gg1
 10
0.747900
 20
-1.253100
  0
VERTEX
  8
gg1
 10
0.733700
 20
-1.253100
  0
VERTEX
  8
gg1
 10
0.724100
 20
-1.257800
  0
VERTEX
  8
gg1
 10
0.714600
 20
-1.267400
  0
VERTEX
  8
gg1
 10
0.709900
 20
-1.281700
  0
VERTEX
  8
gg1
 10
0.709900
 20
-1.291200
  0
VERTEX
  8
gg1
 10
0.714600
 20
-1.305500
  0
VERTEX
  8
gg1
 10
0.724100
 20
-1.315000
  0
VERTEX
  8
gg1
 10
0.733700
 20
-1.319700
  0
VERTEX
  8
gg1
 10
0.747900
 20
-1.319700
  0
VERTEX
  8
gg1
 10
0.757500
 20
-1.315000
  0
VERTEX
  8
gg1
 10
0.767000
 20
-1.305500
  0
SEQEND
  8
gg1
  0
POLYLINE
  8
gg1
 62
1
 40
0.000000
 41
0.000000
 66
  1
  0
VERTEX
  8
gg1
 10
0.797900
 20
-1.219800
  0
VERTEX
  8
gg1
 10
0.802700
 20
-1.224500
  0
VERTEX
  8
gg1
 10
0.807500
 20
-1.219800
  0
VERTEX
  8
gg1
 10
0.802700
 20
-1.215000
  0
VERTEX
  8
gg1
 10
0.797900
 20
-1.219800
  0
SEQEND
  8
gg1
  0
POLYLINE
  8
gg1
 62
1
 40
0.000000
 41
0.000000
 66
  1
  0
VERTEX
  8
gg1
 10
0.802700
 20
-1.253100
  0
VERTEX
  8
gg1
 10
0.802700
 20
-1.319700
  0
SEQEND
  8
gg1
  0
POLYLINE
  8
gg1
 62
1
 40
0.000000
 41
0.000000
 66
  1
  0
VERTEX
  8
gg1
 10
0.882200
 20
-1.253100
  0
VERTEX
  8
gg1
 10
0.882200
 20
-1.329300
  0
VERTEX
  8
gg1
 10
0.877400
 20
-1.343500
  0
VERTEX
  8
gg1
 10
0.872700
 20
-1.348300
  0
VERTEX
  8
gg1
 10
0.863200
 20
-1.353100
  0
VERTEX
  8
gg1
 10
0.848900
 20
-1.353100
  0
VERTEX
  8
gg1
 10
0.839400
 20
-1.348300
  0
SEQEND
  8
gg1
  0
POLYLINE
  8
gg1
 62
1
 40
0.000000
 41
0.000000
 66
  1
  0
VERTEX
  8
gg1
 10
0.882200
 20
-1.267400
  0
VERTEX
  8
gg1
 10
0.872700
 20
-1.257800
  0
VERTEX
  8
gg1
 10
0.863200
 20
-1.253100
  0
VERTEX
  8
gg1
 10
0.848900
 20
-1.253100
  0
VERTEX
  8
gg1
 10
0.839400
 20
-1.257800
  0
VERTEX
  8
gg1
 10
0.829800
 20
-1.267400
  0
VERTEX
  8
gg1
 10
0.825100
 20
-1.281700
  0
VERTEX
  8
gg1
 10
0.825100
 20
-1.291200
  0
VERTEX
  8
gg1
 10
0.829800
 20
-1.305500
  0
VERTEX
  8
gg1
 10
0.839400
 20
-1.315000
  0
VERTEX
  8
gg1
 10
0.848900
 20
-1.319700
  0
VERTEX
  8
gg1
 10
0.863200
 20
-1.319700
  0
VERTEX
  8
gg1
 10
0.872700
 20
-1.315000
  0
VERTEX
  8
gg1
 10
0.882200
 20
-1.305500
  0
SEQEND
  8
gg1
  0
POLYLINE
  8
gg1
 62
1
 40
0.000000
 41
0.000000
 66
  1
  0
VERTEX
  8
gg1
 10
0.908900
 20
-1.219800
  0
VERTEX
  8
gg1
 10
0.908900
 20
-1.319700
  0
SEQEND
  8
gg1
  0
POLYLINE
  8
gg1
 62
1
 40
0.000000
 41
0.000000
 66
  1
  0
VERTEX
  8
gg1
 10
0.908900
 20
-1.272100
  0
VERTEX
  8
gg1
 10
0.923100
 20
-1.257800
  0
VERTEX
  8
gg1
 10
0.932700
 20
-1.253100
  0
VERTEX
  8
gg1
 10
0.947000
 20
-1.253100
  0
VERTEX
  8
gg1
 10
0.956500
 20
-1.257800
  0
VERTEX
  8
gg1
 10
0.961200
 20
-1.272100
  0
VERTEX
  8
gg1
 10
0.961200
 20
-1.319700
  0
SEQEND
  8
gg1
  0
POLYLINE
  8
gg1
 62
1
 40
0.000000
 41
0.000000
 66
  1
  0
VERTEX
  8
gg1
 10
1.001700
 20
-1.219800
  0
VERTEX
  8
gg1
 10
1.001700
 20
-1.300700
  0
VERTEX
  8
gg1
 10
1.006500
 20
-1.315000
  0
VERTEX
  8
gg1
 10
1.016000
 20
-1.319700
  0
VERTEX
  8
gg1
 10
1.025500
 20
-1.319700
  0
SEQEND
  8
gg1
  0
POLYLINE
  8
gg1
 62
1
 40
0.000000
 41
0.000000
 66
  1
  0
VERTEX
  8
gg1
 10
0.987400
 20
-1.253100
  0
VERTEX
  8
gg1
 10
1.020700
 20
-1.253100
  0
SEQEND
  8
gg1
  0
POLYLINE
  8
gg1
 62
1
 40
0.000000
 41
0.000000
 66
  1
  0
VERTEX
  8
gg1
 10
1.044500
 20
-1.253100
  0
VERTEX
  8
gg1
 10
1.039800
 20
-1.257800
  0
VERTEX
  8
gg1
 10
1.044500
 20
-1.262600
  0
VERTEX
  8
gg1
 10
1.049300
 20
-1.257800
  0
VERTEX
  8
gg1
 10
1.044500
 20
-1.253100
  0
SEQEND
  8
gg1
  0
POLYLINE
  8
gg1
 62
1
 40
0.000000
 41
0.000000
 66
  1
  0
VERTEX
  8
gg1
 10
1.044500
 20
-1.310200
  0
VERTEX
  8
gg1
 10
1.039800
 20
-1.315000
  0
VERTEX
  8
gg1
 10
1.044500
 20
-1.319700
  0
VERTEX
  8
gg1
 10
1.049300
 20
-1.315000
  0
VERTEX
  8
gg1
 10
1.044500
 20
-1.310200
  0
SEQEND
  8
gg1
  0
POLYLINE
  8
gg1
 62
1
 40
0.000000
 41
0.000000
 66
  1
  0
VERTEX
  8
gg1
 10
1.154500
 20
-1.243600
  0
VERTEX
  8
gg1
 10
1.154500
 20
-1.238800
  0
VERTEX
  8
gg1
 10
1.159300
 20
-1.229300
  0
VERTEX
  8
gg1
 10
1.164000
 20
-1.224500
  0
VERTEX
  8
gg1
 10
1.173600
 20
-1.219800
  0
VERTEX
  8
gg1
 10
1.192600
 20
-1.219800
  0
VERTEX
  8
gg1
 10
1.202100
 20
-1.224500
  0
VERTEX
  8
gg1
 10
1.206900
 20
-1.229300
  0
VERTEX
  8
gg1
 10
1.211700
 20
-1.238800
  0
VERTEX
  8
gg1
 10
1.211700
 20
-1.248300
  0
VERTEX
  8
gg1
 10
1.206900
 20
-1.257800
  0
VERTEX
  8
gg1
 10
1.197400
 20
-1.272100
  0
VERTEX
  8
gg1
 10
1.149800
 20
-1.319700
  0
VERTEX
  8
gg1
 10
1.216400
 20
-1.319700
  0
SEQEND
  8
gg1
  0
POLYLINE
  8
gg1
 62
1
 40
0.000000
 41
0.000000
 66
  1
  0
VERTEX
  8
gg1
 10
1.341200
 20
-1.253100
  0
VERTEX
  8
gg1
 10
1.331600
 20
-1.257800
  0
VERTEX
  8
gg1
 10
1.322100
 20
-1.267400
  0
VERTEX
  8
gg1
 10
1.317300
 20
-1.281700
  0
VERTEX
  8
gg1
 10
1.317300
 20
-1.291200
  0
VERTEX
  8
gg1
 10
1.322100
 20
-1.305500
  0
VERTEX
  8
gg1
 10
1.331600
 20
-1.315000
  0
VERTEX
  8
gg1
 10
1.341200
 20
-1.319700
  0
VERTEX
  8
gg1
 10
1.355400
 20
-1.319700
  0
VERTEX
  8
gg1
 10
1.365000
 20
-1.315000
  0
VERTEX
  8
gg1
 10
1.374500
 20
-1.305500
  0
VERTEX
  8
gg1
 10
1.379200
 20
-1.291200
  0
VERTEX
  8
gg1
 10
1.379200
 20
-1.281700
  0
VERTEX
  8
gg1
 10
1.374500
 20
-1.267400
  0
VERTEX
  8
gg1
 10
1.365000
 20
-1.257800
  0
VERTEX
  8
gg1
 10
1.355400
 20
-1.253100
  0
VERTEX
  8
gg1
 10
1.341200
 20
-1.253100
  0
SEQEND
  8
gg1
  0
POLYLINE
  8
gg1
 62
1
 40
0.000000
 41
0.000000
 66
  1
  0
VERTEX
  8
gg1
 10
1.453500
 20
-1.253100
  0
VERTEX
  8
gg1
 10
1.401100
 20
-1.319700
  0
SEQEND
  8
gg1
  0
POLYLINE
  8
gg1
 62
1
 40
0.000000
 41
0.000000
 66
  1
  0
VERTEX
  8
gg1
 10
1.401100
 20
-1.253100
  0
VERTEX
  8
gg1
 10
1.453500
 20
-1.253100
  0
SEQEND
  8
gg1
  0
POLYLINE
  8
gg1
 62
1
 40
0.000000
 41
0.000000
 66
  1
  0
VERTEX
  8
gg1
 10
1.401100
 20
-1.319700
  0
VERTEX
  8
gg1
 10
1.453500
 20
-1.319700
  0
SEQEND
  8
gg1
  0
POLYLINE
  8
gg1
 62
1
 40
0.000000
 41
0.000000
 66
  1
  0
VERTEX
  8
gg1
 10
1.479200
 20
-1.310200
  0
VERTEX
  8
gg1
 10
1.474500
 20
-1.315000
  0
VERTEX
  8
gg1
 10
1.479200
 20
-1.319700
  0
VERTEX
  8
gg1
 10
1.484000
 20
-1.315000
  0
VERTEX
  8
gg1
 10
1.479200
 20
-1.310200
  0
SEQEND
  8
gg1
  0
POLYLINE
  8
gg1
 62
1
 40
0.000000
 41
0.000000
 66
  1
  0
VERTEX
  8
gg1
 10
0.050000
 20
-1.019800
  0
VERTEX
  8
gg1
 10
0.050000
 20
-1.119700
  0
SEQEND
  8
gg1
  0
POLYLINE
  8
gg1
 62
1
 40
0.000000
 41
0.000000
 66
  1
  0
VERTEX
  8
gg1
 10
0.050000
 20
-1.019800
  0
VERTEX
  8
gg1
 10
0.088100
 20
-1.119700
  0
SEQEND
  8
gg1
  0
POLYLINE
  8
gg1
 62
1
 40
0.000000
 41
0.000000
 66
  1
  0
VERTEX
  8
gg1
 10
0.126200
 20
-1.019800
  0
VERTEX
  8
gg1
 10
0.088100
 20
-1.119700
  0
SEQEND
  8
gg1
  0
POLYLINE
  8
gg1
 62
1
 40
0.000000
 41
0.000000
 66
  1
  0
VERTEX
  8
gg1
 10
0.126200
 20
-1.019800
  0
VERTEX
  8
gg1
 10
0.126200
 20
-1.119700
  0
SEQEND
  8
gg1
  0
POLYLINE
  8
gg1
 62
1
 40
0.000000
 41
0.000000
 66
  1
  0
VERTEX
  8
gg1
 10
0.211900
 20
-1.053100
  0
VERTEX
  8
gg1
 10
0.211900
 20
-1.119700
  0
SEQEND
  8
gg1
  0
POLYLINE
  8
gg1
 62
1
 40
0.000000
 41
0.000000
 66
  1
  0
VERTEX
  8
gg1
 10
0.211900
 20
-1.067400
  0
VERTEX
  8
gg1
 10
0.202300
 20
-1.057800
  0
VERTEX
  8
gg1
 10
0.192800
 20
-1.053100
  0
VERTEX
  8
gg1
 10
0.178500
 20
-1.053100
  0
VERTEX
  8
gg1
 10
0.169000
 20
-1.057800
  0
VERTEX
  8
gg1
 10
0.159500
 20
-1.067400
  0
VERTEX
  8
gg1
 10
0.154700
 20
-1.081700
  0
VERTEX
  8
gg1
 10
0.154700
 20
-1.091200
  0
VERTEX
  8
gg1
 10
0.159500
 20
-1.105500
  0
VERTEX
  8
gg1
 10
0.169000
 20
-1.115000
  0
VERTEX
  8
gg1
 10
0.178500
 20
-1.119700
  0
VERTEX
  8
gg1
 10
0.192800
 20
-1.119700
  0
VERTEX
  8
gg1
 10
0.202300
 20
-1.115000
  0
VERTEX
  8
gg1
 10
0.211900
 20
-1.105500
  0
SEQEND
  8
gg1
  0
POLYLINE
  8
gg1
 62
1
 40
0.000000
 41
0.000000
 66
  1
  0
VERTEX
  8
gg1
 10
0.252800
 20
-1.019800
  0
VERTEX
  8
gg1
 10
0.252800
 20
-1.100700
  0
VERTEX
  8
gg1
 10
0.257600
 20
-1.115000
  0
VERTEX
  8
gg1
 10
0.267100
 20
-1.119700
  0
VERTEX
  8
gg1
 10
0.276600
 20
-1.119700
  0
SEQEND
  8
gg1
  0
POLYLINE
  8
gg1
 62
1
 40
0.000000
 41
0.000000
 66
  1
  0
VERTEX
  8
gg1
 10
0.238500
 20
-1.053100
  0
VERTEX
  8
gg1
 10
0.271900
 20
-1.053100
  0
SEQEND
  8
gg1
  0
POLYLINE
  8
gg1
 62
1
 40
0.000000
 41
0.000000
 66
  1
  0
VERTEX
  8
gg1
 10
0.290900
 20
-1.081700
  0
VERTEX
  8
gg1
 10
0.348000
 20
-1.081700
  0
VERTEX
  8
gg1
 10
0.348000
 20
-1.072100
  0
VERTEX
  8
gg1
 10
0.343300
 20
-1.062600
  0
VERTEX
  8
gg1
 10
0.338500
 20
-1.057800
  0
VERTEX
  8
gg1
 10
0.329000
 20
-1.053100
  0
VERTEX
  8
gg1
 10
0.314700
 20
-1.053100
  0
VERTEX
  8
gg1
 10
0.305200
 20
-1.057800
  0
VERTEX
  8
gg1
 10
0.295700
 20
-1.067400
  0
VERTEX
  8
gg1
 10
0.290900
 20
-1.081700
  0
VERTEX
  8
gg1
 10
0.290900
 20
-1.091200
  0
VERTEX
  8
gg1
 10
0.295700
 20
-1.105500
  0
VERTEX
  8
gg1
 10
0.305200
 20
-1.115000
  0
VERTEX
  8
gg1
 10
0.314700
 20
-1.119700
  0
VERTEX
  8
gg1
 10
0.329000
 20
-1.119700
  0
VERTEX
  8
gg1
 10
0.338500
 20
-1.115000
  0
VERTEX
  8
gg1
 10
0.348000
 20
-1.105500
  0
SEQEND
  8
gg1
  0
POLYLINE
  8
gg1
 62
1
 40
0.000000
 41
0.000000
 66
  1
  0
VERTEX
  8
gg1
 10
0.369500
 20
-1.053100
  0
VERTEX
  8
gg1
 10
0.369500
 20
-1.119700
  0
SEQEND
  8
gg1
  0
POLYLINE
  8
gg1
 62
1
 40
0.000000
 41
0.000000
 66
  1
  0
VERTEX
  8
gg1
 10
0.369500
 20
-1.081700
  0
VERTEX
  8
gg1
 10
0.374200
 20
-1.067400
  0
VERTEX
  8
gg1
 10
0.383700
 20
-1.057800
  0
VERTEX
  8
gg1
 10
0.393300
 20
-1.053100
  0
VERTEX
  8
gg1
 10
0.407500
 20
-1.053100
  0
SEQEND
  8
gg1
  0
POLYLINE
  8
gg1
 62
1
 40
0.000000
 41
0.000000
 66
  1
  0
VERTEX
  8
gg1
 10
0.426100
 20
-1.019800
  0
VERTEX
  8
gg1
 10
0.430900
 20
-1.024500
  0
VERTEX
  8
gg1
 10
0.435600
 20
-1.019800
  0
VERTEX
  8
gg1
 10
0.430900
 20
-1.015000
  0
VERTEX
  8
gg1
 10
0.426100
 20
-1.019800
  0
SEQEND
  8
gg1
  0
POLYLINE
  8
gg1
 62
1
 40
0.000000
 41
0.000000
 66
  1
  0
VERTEX
  8
gg1
 10
0.430900
 20
-1.053100
  0
VERTEX
  8
gg1
 10
0.430900
 20
-1.119700
  0
SEQEND
  8
gg1
  0
POLYLINE
  8
gg1
 62
1
 40
0.000000
 41
0.000000
 66
  1
  0
VERTEX
  8
gg1
 10
0.510400
 20
-1.053100
  0
VERTEX
  8
gg1
 10
0.510400
 20
-1.119700
  0
SEQEND
  8
gg1
  0
POLYLINE
  8
gg1
 62
1
 40
0.000000
 41
0.000000
 66
  1
  0
VERTEX
  8
gg1
 10
0.510400
 20
-1.067400
  0
VERTEX
  8
gg1
 10
0.500900
 20
-1.057800
  0
VERTEX
  8
gg1
 10
0.491300
 20
-1.053100
  0
VERTEX
  8
gg1
 10
0.477100
 20
-1.053100
  0
VERTEX
  8
gg1
 10
0.467500
 20
-1.057800
  0
VERTEX
  8
gg1
 10
0.458000
 20
-1.067400
  0
VERTEX
  8
gg1
 10
0.453200
 20
-1.081700
  0
VERTEX
  8
gg1
 10
0.453200
 20
-1.091200
  0
VERTEX
  8
gg1
 10
0.458000
 20
-1.105500
  0
VERTEX
  8
gg1
 10
0.467500
 20
-1.115000
  0
VERTEX
  8
gg1
 10
0.477100
 20
-1.119700
  0
VERTEX
  8
gg1
 10
0.491300
 20
-1.119700
  0
VERTEX
  8
gg1
 10
0.500900
 20
-1.115000
  0
VERTEX
  8
gg1
 10
0.510400
 20
-1.105500
  0
SEQEND
  8
gg1
  0
POLYLINE
  8
gg1
 62
1
 40
0.000000
 41
0.000000
 66
  1
  0
VERTEX
  8
gg1
 10
0.537000
 20
-1.019800
  0
VERTEX
  8
gg1
 10
0.537000
 20
-1.119700
  0
SEQEND
  8
gg1
  0
POLYLINE
  8
gg1
 62
1
 40
0.000000
 41
0.000000
 66
  1
  0
VERTEX
  8
gg1
 10
0.650800
 20
-1.019800
  0
VERTEX
  8
gg1
 10
0.650800
 20
-1.100700
  0
VERTEX
  8
gg1
 10
0.655600
 20
-1.115000
  0
VERTEX
  8
gg1
 10
0.665100
 20
-1.119700
  0
VERTEX
  8
gg1
 10
0.674600
 20
-1.119700
  0
SEQEND
  8
gg1
  0
POLYLINE
  8
gg1
 62
1
 40
0.000000
 41
0.000000
 66
  1
  0
VERTEX
  8
gg1
 10
0.636500
 20
-1.053100
  0
VERTEX
  8
gg1
 10
0.669900
 20
-1.053100
  0
SEQEND
  8
gg1
  0
POLYLINE
  8
gg1
 62
1
 40
0.000000
 41
0.000000
 66
  1
  0
VERTEX
  8
gg1
 10
0.693700
 20
-1.053100
  0
VERTEX
  8
gg1
 10
0.722200
 20
-1.119700
  0
SEQEND
  8
gg1
  0
POLYLINE
  8
gg1
 62
1
 40
0.000000
 41
0.000000
 66
  1
  0
VERTEX
  8
gg1
 10
0.750800
 20
-1.053100
  0
VERTEX
  8
gg1
 10
0.722200
 20
-1.119700
  0
VERTEX
  8
gg1
 10
0.712700
 20
-1.138800
  0
VERTEX
  8
gg1
 10
0.703200
 20
-1.148300
  0
VERTEX
  8
gg1
 10
0.693700
 20
-1.153100
  0
VERTEX
  8
gg1
 10
0.688900
 20
-1.153100
  0
SEQEND
  8
gg1
  0
POLYLINE
  8
gg1
 62
1
 40
0.000000
 41
0.000000
 66
  1
  0
VERTEX
  8
gg1
 10
0.767500
 20
-1.053100
  0
VERTEX
  8
gg1
 10
0.767500
 20
-1.153100
  0
SEQEND
  8
gg1
  0
POLYLINE
  8
gg1
 62
1
 40
0.000000
 41
0.000000
 66
  1
  0
VERTEX
  8
gg1
 10
0.767500
 20
-1.067400
  0
VERTEX
  8
gg1
 10
0.777000
 20
-1.057800
  0
VERTEX
  8
gg1
 10
0.786500
 20
-1.053100
  0
VERTEX
  8
gg1
 10
0.800800
 20
-1.053100
  0
VERTEX
  8
gg1
 10
0.810300
 20
-1.057800
  0
VERTEX
  8
gg1
 10
0.819800
 20
-1.067400
  0
VERTEX
  8
gg1
 10
0.824600
 20
-1.081700
  0
VERTEX
  8
gg1
 10
0.824600
 20
-1.091200
  0
VERTEX
  8
gg1
 10
0.819800
 20
-1.105500
  0
VERTEX
  8
gg1
 10
0.810300
 20
-1.115000
  0
VERTEX
  8
gg1
 10
0.800800
 20
-1.119700
  0
VERTEX
  8
gg1
 10
0.786500
 20
-1.119700
  0
VERTEX
  8
gg1
 10
0.777000
 20
-1.115000
  0
VERTEX
  8
gg1
 10
0.767500
 20
-1.105500
  0
SEQEND
  8
gg1
  0
POLYLINE
  8
gg1
 62
1
 40
0.000000
 41
0.000000
 66
  1
  0
VERTEX
  8
gg1
 10
0.846000
 20
-1.081700
  0
VERTEX
  8
gg1
 10
0.903200
 20
-1.081700
  0
VERTEX
  8
gg1
 10
0.903200
 20
-1.072100
  0
VERTEX
  8
gg1
 10
0.898400
 20
-1.062600
  0
VERTEX
  8
gg1
 10
0.893600
 20
-1.057800
  0
VERTEX
  8
gg1
 10
0.884100
 20
-1.053100
  0
VERTEX
  8
gg1
 10
0.869800
 20
-1.053100
  0
VERTEX
  8
gg1
 10
0.860300
 20
-1.057800
  0
VERTEX
  8
gg1
 10
0.850800
 20
-1.067400
  0
VERTEX
  8
gg1
 10
0.846000
 20
-1.081700
  0
VERTEX
  8
gg1
 10
0.846000
 20
-1.091200
  0
VERTEX
  8
gg1
 10
0.850800
 20
-1.105500
  0
VERTEX
  8
gg1
 10
0.860300
 20
-1.115000
  0
VERTEX
  8
gg1
 10
0.869800
 20
-1.119700
  0
VERTEX
  8
gg1
 10
0.884100
 20
-1.119700
  0
VERTEX
  8
gg1
 10
0.893600
 20
-1.115000
  0
VERTEX
  8
gg1
 10
0.903200
 20
-1.105500
  0
SEQEND
  8
gg1
  0
POLYLINE
  8
gg1
 62
1
 40
0.000000
 41
0.000000
 66
  1
  0
VERTEX
  8
gg1
 10
0.929300
 20
-1.053100
  0
VERTEX
  8
gg1
 10
0.924600
 20
-1.057800
  0
VERTEX
  8
gg1
 10
0.929300
 20
-1.062600
  0
VERTEX
  8
gg1
 10
0.934100
 20
-1.057800
  0
VERTEX
  8
gg1
 10
0.929300
 20
-1.053100
  0
SEQEND
  8
gg1
  0
POLYLINE
  8
gg1
 62
1
 40
0.000000
 41
0.000000
 66
  1
  0
VERTEX
  8
gg1
 10
0.929300
 20
-1.110200
  0
VERTEX
  8
gg1
 10
0.924600
 20
-1.115000
  0
VERTEX
  8
gg1
 10
0.929300
 20
-1.119700
  0
VERTEX
  8
gg1
 10
0.934100
 20
-1.115000
  0
VERTEX
  8
gg1
 10
0.929300
 20
-1.110200
  0
SEQEND
  8
gg1
  0
POLYLINE
  8
gg1
 62
1
 40
0.000000
 41
0.000000
 66
  1
  0
VERTEX
  8
gg1
 10
1.034600
 20
-1.019800
  0
VERTEX
  8
gg1
 10
1.034600
 20
-1.119700
  0
SEQEND
  8
gg1
  0
POLYLINE
  8
gg1
 62
1
 40
0.000000
 41
0.000000
 66
  1
  0
VERTEX
  8
gg1
 10
1.034600
 20
-1.019800
  0
VERTEX
  8
gg1
 10
1.096400
 20
-1.019800
  0
SEQEND
  8
gg1
  0
POLYLINE
  8
gg1
 62
1
 40
0.000000
 41
0.000000
 66
  1
  0
VERTEX
  8
gg1
 10
1.034600
 20
-1.067400
  0
VERTEX
  8
gg1
 10
1.072600
 20
-1.067400
  0
SEQEND
  8
gg1
  0
POLYLINE
  8
gg1
 62
1
 40
0.000000
 41
0.000000
 66
  1
  0
VERTEX
  8
gg1
 10
1.107900
 20
-1.019800
  0
VERTEX
  8
gg1
 10
1.107900
 20
-1.119700
  0
SEQEND
  8
gg1
  0
POLYLINE
  8
gg1
 62
1
 40
0.000000
 41
0.000000
 66
  1
  0
VERTEX
  8
gg1
 10
1.107900
 20
-1.019800
  0
VERTEX
  8
gg1
 10
1.150700
 20
-1.019800
  0
VERTEX
  8
gg1
 10
1.165000
 20
-1.024500
  0
VERTEX
  8
gg1
 10
1.169800
 20
-1.029300
  0
VERTEX
  8
gg1
 10
1.174500
 20
-1.038800
  0
VERTEX
  8
gg1
 10
1.174500
 20
-1.048300
  0
VERTEX
  8
gg1
 10
1.169800
 20
-1.057800
  0
VERTEX
  8
gg1
 10
1.165000
 20
-1.062600
  0
VERTEX
  8
gg1
 10
1.150700
 20
-1.067400
  0
VERTEX
  8
gg1
 10
1.107900
 20
-1.067400
  0
SEQEND
  8
gg1
  0
POLYLINE
  8
gg1
 62
1
 40
0.000000
 41
0.000000
 66
  1
  0
VERTEX
  8
gg1
 10
1.141200
 20
-1.067400
  0
VERTEX
  8
gg1
 10
1.174500
 20
-1.119700
  0
SEQEND
  8
gg1
  0
POLYLINE
  8
gg1
 62
1
 40
0.000000
 41
0.000000
 66
  1
  0
VERTEX
  8
gg1
 10
1.244500
 20
-1.019800
  0
VERTEX
  8
gg1
 10
1.196900
 20
-1.086400
  0
VERTEX
  8
gg1
 10
1.268300
 20
-1.086400
  0
SEQEND
  8
gg1
  0
POLYLINE
  8
gg1
 62
1
 40
0.000000
 41
0.000000
 66
  1
  0
VERTEX
  8
gg1
 10
1.244500
 20
-1.019800
  0
VERTEX
  8
gg1
 10
1.244500
 20
-1.119700
  0
SEQEND
  8
gg1
  0
POLYLINE
  8
gg1
 62
1
 40
0.000000
 41
0.000000
 66
  1
  0
VERTEX
  8
gg1
 10
1.393000
 20
-1.019800
  0
VERTEX
  8
gg1
 10
1.378800
 20
-1.024500
  0
VERTEX
  8
gg1
 10
1.369200
 20
-1.038800
  0
VERTEX
  8
gg1
 10
1.364500
 20
-1.062600
  0
VERTEX
  8
gg1
 10
1.364500
 20
-1.076900
  0
VERTEX
  8
gg1
 10
1.369200
 20
-1.100700
  0
VERTEX
  8
gg1
 10
1.378800
 20
-1.115000
  0
VERTEX
  8
gg1
 10
1.393000
 20
-1.119700
  0
VERTEX
  8
gg1
 10
1.402600
 20
-1.119700
  0
VERTEX
  8
gg1
 10
1.416800
 20
-1.115000
  0
VERTEX
  8
gg1
 10
1.426400
 20
-1.100700
  0
VERTEX
  8
gg1
 10
1.431100
 20
-1.076900
  0
VERTEX
  8
gg1
 10
1.431100
 20
-1.062600
  0
VERTEX
  8
gg1
 10
1.426400
 20
-1.038800
  0
VERTEX
  8
gg1
 10
1.416800
 20
-1.024500
  0
VERTEX
  8
gg1
 10
1.402600
 20
-1.019800
  0
VERTEX
  8
gg1
 10
1.393000
 20
-1.019800
  0
SEQEND
  8
gg1
  0
POLYLINE
  8
gg1
 62
1
 40
0.000000
 41
0.000000
 66
  1
  0
VERTEX
  8
gg1
 10
1.458300
 20
-1.110200
  0
VERTEX
  8
gg1
 10
1.453500
 20
-1.115000
  0
VERTEX
  8
gg1
 10
1.458300
 20
-1.119700
  0
VERTEX
  8
gg1
 10
1.463000
 20
-1.115000
  0
VERTEX
  8
gg1
 10
1.458300
 20
-1.110200
  0
SEQEND
  8
gg1
  0
POLYLINE
  8
gg1
 62
1
 40
0.000000
 41
0.000000
 66
  1
  0
VERTEX
  8
gg1
 10
1.513500
 20
-1.019800
  0
VERTEX
  8
gg1
 10
1.499200
 20
-1.024500
  0
VERTEX
  8
gg1
 10
1.489700
 20
-1.038800
  0
VERTEX
  8
gg1
 10
1.484900
 20
-1.062600
  0
VERTEX
  8
gg1
 10
1.484900
 20
-1.076900
  0
VERTEX
  8
gg1
 10
1.489700
 20
-1.100700
  0
VERTEX
  8
gg1
 10
1.499200
 20
-1.115000
  0
VERTEX
  8
gg1
 10
1.513500
 20
-1.119700
  0
VERTEX
  8
gg1
 10
1.523000
 20
-1.119700
  0
VERTEX
  8
gg1
 10
1.537300
 20
-1.115000
  0
VERTEX
  8
gg1
 10
1.546800
 20
-1.100700
  0
VERTEX
  8
gg1
 10
1.551600
 20
-1.076900
  0
VERTEX
  8
gg1
 10
1.551600
 20
-1.062600
  0
VERTEX
  8
gg1
 10
1.546800
 20
-1.038800
  0
VERTEX
  8
gg1
 10
1.537300
 20
-1.024500
  0
VERTEX
  8
gg1
 10
1.523000
 20
-1.019800
  0
VERTEX
  8
gg1
 10
1.513500
 20
-1.019800
  0
SEQEND
  8
gg1
  0
POLYLINE
  8
gg1
 62
1
 40
0.000000
 41
0.000000
 66
  1
  0
VERTEX
  8
gg1
 10
1.631100
 20
-1.034000
  0
VERTEX
  8
gg1
 10
1.626300
 20
-1.024500
  0
VERTEX
  8
gg1
 10
1.612000
 20
-1.019800
  0
VERTEX
  8
gg1
 10
1.602500
 20
-1.019800
  0
VERTEX
  8
gg1
 10
1.588200
 20
-1.024500
  0
VERTEX
  8
gg1
 10
1.578700
 20
-1.038800
  0
VERTEX
  8
gg1
 10
1.574000
 20
-1.062600
  0
VERTEX
  8
gg1
 10
1.574000
 20
-1.086400
  0
VERTEX
  8
gg1
 10
1.578700
 20
-1.105500
  0
VERTEX
  8
gg1
 10
1.588200
 20
-1.115000
  0
VERTEX
  8
gg1
 10
1.602500
 20
-1.119700
  0
VERTEX
  8
gg1
 10
1.607300
 20
-1.119700
  0
VERTEX
  8
gg1
 10
1.621600
 20
-1.115000
  0
VERTEX
  8
gg1
 10
1.631100
 20
-1.105500
  0
VERTEX
  8
gg1
 10
1.635900
 20
-1.091200
  0
VERTEX
  8
gg1
 10
1.635900
 20
-1.086400
  0
VERTEX
  8
gg1
 10
1.631100
 20
-1.072100
  0
VERTEX
  8
gg1
 10
1.621600
 20
-1.062600
  0
VERTEX
  8
gg1
 10
1.607300
 20
-1.057800
  0
VERTEX
  8
gg1
 10
1.602500
 20
-1.057800
  0
VERTEX
  8
gg1
 10
1.588200
 20
-1.062600
  0
VERTEX
  8
gg1
 10
1.578700
 20
-1.072100
  0
VERTEX
  8
gg1
 10
1.574000
 20
-1.086400
  0
SEQEND
  8
gg1
  0
POLYLINE
  8
gg1
 62
1
 40
0.000000
 41
0.000000
 66
  1
  0
VERTEX
  8
gg1
 10
1.662500
 20
-1.043600
  0
VERTEX
  8
gg1
 10
1.662500
 20
-1.038800
  0
VERTEX
  8
gg1
 10
1.667300
 20
-1.029300
  0
VERTEX
  8
gg1
 10
1.672000
 20
-1.024500
  0
VERTEX
  8
gg1
 10
1.681600
 20
-1.019800
  0
VERTEX
  8
gg1
 10
1.700600
 20
-1.019800
  0
VERTEX
  8
gg1
 10
1.710100
 20
-1.024500
  0
VERTEX
  8
gg1
 10
1.714900
 20
-1.029300
  0
VERTEX
  8
gg1
 10
1.719600
 20
-1.038800
  0
VERTEX
  8
gg1
 10
1.719600
 20
-1.048300
  0
VERTEX
  8
gg1
 10
1.714900
 20
-1.057800
  0
VERTEX
  8
gg1
 10
1.705400
 20
-1.072100
  0
VERTEX
  8
gg1
 10
1.657800
 20
-1.119700
  0
VERTEX
  8
gg1
 10
1.724400
 20
-1.119700
  0
SEQEND
  8
gg1
  0
POLYLINE
  8
gg1
 62
1
 40
0.000000
 41
0.000000
 66
  1
  0
VERTEX
  8
gg1
 10
1.751500
 20
-1.019800
  0
VERTEX
  8
gg1
 10
1.746800
 20
-1.024500
  0
VERTEX
  8
gg1
 10
1.746800
 20
-1.053100
  0
SEQEND
  8
gg1
  0
POLYLINE
  8
gg1
 62
1
 40
0.000000
 41
0.000000
 66
  1
  0
VERTEX
  8
gg1
 10
1.751500
 20
-1.024500
  0
VERTEX
  8
gg1
 10
1.746800
 20
-1.053100
  0
SEQEND
  8
gg1
  0
POLYLINE
  8
gg1
 62
1
 40
0.000000
 41
0.000000
 66
  1
  0
VERTEX
  8
gg1
 10
1.751500
 20
-1.019800
  0
VERTEX
  8
gg1
 10
1.756300
 20
-1.024500
  0
VERTEX
  8
gg1
 10
1.746800
 20
-1.053100
  0
SEQEND
  8
gg1
  0
POLYLINE
  8
gg1
 62
1
 40
0.000000
 41
0.000000
 66
  1
  0
VERTEX
  8
gg1
 10
1.794400
 20
-1.019800
  0
VERTEX
  8
gg1
 10
1.789600
 20
-1.024500
  0
VERTEX
  8
gg1
 10
1.789600
 20
-1.053100
  0
SEQEND
  8
gg1
  0
POLYLINE
  8
gg1
 62
1
 40
0.000000
 41
0.000000
 66
  1
  0
VERTEX
  8
gg1
 10
1.794400
 20
-1.024500
  0
VERTEX
  8
gg1
 10
1.789600
 20
-1.053100
  0
SEQEND
  8
gg1
  0
POLYLINE
  8
gg1
 62
1
 40
0.000000
 41
0.000000
 66
  1
  0
VERTEX
  8
gg1
 10
1.794400
 20
-1.019800
  0
VERTEX
  8
gg1
 10
1.799100
 20
-1.024500
  0
VERTEX
  8
gg1
 10
1.789600
 20
-1.053100
  0
SEQEND
  8
gg1
  0
POLYLINE
  8
gg1
 62
1
 40
0.000000
 41
0.000000
 66
  1
  0
VERTEX
  8
gg1
 10
0.121400
 20
-0.843600
  0
VERTEX
  8
gg1
 10
0.116700
 20
-0.834000
  0
VERTEX
  8
gg1
 10
0.107100
 20
-0.824500
  0
VERTEX
  8
gg1
 10
0.097600
 20
-0.819800
  0
VERTEX
  8
gg1
 10
0.078600
 20
-0.819800
  0
VERTEX
  8
gg1
 10
0.069000
 20
-0.824500
  0
VERTEX
  8
gg1
 10
0.059500
 20
-0.834000
  0
VERTEX
  8
gg1
 10
0.054800
 20
-0.843600
  0
VERTEX
  8
gg1
 10
0.050000
 20
-0.857800
  0
VERTEX
  8
gg1
 10
0.050000
 20
-0.881700
  0
VERTEX
  8
gg1
 10
0.054800
 20
-0.895900
  0
VERTEX
  8
gg1
 10
0.059500
 20
-0.905500
  0
VERTEX
  8
gg1
 10
0.069000
 20
-0.915000
  0
VERTEX
  8
gg1
 10
0.078600
 20
-0.919700
  0
VERTEX
  8
gg1
 10
0.097600
 20
-0.919700
  0
VERTEX
  8
gg1
 10
0.107100
 20
-0.915000
  0
VERTEX
  8
gg1
 10
0.116700
 20
-0.905500
  0
VERTEX
  8
gg1
 10
0.121400
 20
-0.895900
  0
SEQEND
  8
gg1
  0
POLYLINE
  8
gg1
 62
1
 40
0.000000
 41
0.000000
 66
  1
  0
VERTEX
  8
gg1
 10
0.173300
 20
-0.853100
  0
VERTEX
  8
gg1
 10
0.163800
 20
-0.857800
  0
VERTEX
  8
gg1
 10
0.154300
 20
-0.867400
  0
VERTEX
  8
gg1
 10
0.149500
 20
-0.881700
  0
VERTEX
  8
gg1
 10
0.149500
 20
-0.891200
  0
VERTEX
  8
gg1
 10
0.154300
 20
-0.905500
  0
VERTEX
  8
gg1
 10
0.163800
 20
-0.915000
  0
VERTEX
  8
gg1
 10
0.173300
 20
-0.919700
  0
VERTEX
  8
gg1
 10
0.187600
 20
-0.919700
  0
VERTEX
  8
gg1
 10
0.197100
 20
-0.915000
  0
VERTEX
  8
gg1
 10
0.206600
 20
-0.905500
  0
VERTEX
  8
gg1
 10
0.211400
 20
-0.891200
  0
VERTEX
  8
gg1
 10
0.211400
 20
-0.881700
  0
VERTEX
  8
gg1
 10
0.206600
 20
-0.867400
  0
VERTEX
  8
gg1
 10
0.197100
 20
-0.857800
  0
VERTEX
  8
gg1
 10
0.187600
 20
-0.853100
  0
VERTEX
  8
gg1
 10
0.173300
 20
-0.853100
  0
SEQEND
  8
gg1
  0
POLYLINE
  8
gg1
 62
1
 40
0.000000
 41
0.000000
 66
  1
  0
VERTEX
  8
gg1
 10
0.233300
 20
-0.853100
  0
VERTEX
  8
gg1
 10
0.233300
 20
-0.953100
  0
SEQEND
  8
gg1
  0
POLYLINE
  8
gg1
 62
1
 40
0.000000
 41
0.000000
 66
  1
  0
VERTEX
  8
gg1
 10
0.233300
 20
-0.867400
  0
VERTEX
  8
gg1
 10
0.242800
 20
-0.857800
  0
VERTEX
  8
gg1
 10
0.252300
 20
-0.853100
  0
VERTEX
  8
gg1
 10
0.266600
 20
-0.853100
  0
VERTEX
  8
gg1
 10
0.276100
 20
-0.857800
  0
VERTEX
  8
gg1
 10
0.285700
 20
-0.867400
  0
VERTEX
  8
gg1
 10
0.290400
 20
-0.881700
  0
VERTEX
  8
gg1
 10
0.290400
 20
-0.891200
  0
VERTEX
  8
gg1
 10
0.285700
 20
-0.905500
  0
VERTEX
  8
gg1
 10
0.276100
 20
-0.915000
  0
VERTEX
  8
gg1
 10
0.266600
 20
-0.919700
  0
VERTEX
  8
gg1
 10
0.252300
 20
-0.919700
  0
VERTEX
  8
gg1
 10
0.242800
 20
-0.915000
  0
VERTEX
  8
gg1
 10
0.233300
 20
-0.905500
  0
SEQEND
  8
gg1
  0
POLYLINE
  8
gg1
 62
1
 40
0.000000
 41
0.000000
 66
  1
  0
VERTEX
  8
gg1
 10
0.316600
 20
-0.853100
  0
VERTEX
  8
gg1
 10
0.345200
 20
-0.919700
  0
SEQEND
  8
gg1
  0
POLYLINE
  8
gg1
 62
1
 40
0.000000
 41
0.000000
 66
  1
  0
VERTEX
  8
gg1
 10
0.373700
 20
-0.853100
  0
VERTEX
  8
gg1
 10
0.345200
 20
-0.919700
  0
VERTEX
  8
gg1
 10
0.335700
 20
-0.938800
  0
VERTEX
  8
gg1
 10
0.326100
 20
-0.948300
  0
VERTEX
  8
gg1
 10
0.316600
 20
-0.953100
  0
VERTEX
  8
gg1
 10
0.311800
 20
-0.953100
  0
SEQEND
  8
gg1
  0
POLYLINE
  8
gg1
 62
1
 40
0.000000
 41
0.000000
 66
  1
  0
VERTEX
  8
gg1
 10
0.390400
 20
-0.853100
  0
VERTEX
  8
gg1
 10
0.390400
 20
-0.919700
  0
SEQEND
  8
gg1
  0
POLYLINE
  8
gg1
 62
1
 40
0.000000
 41
0.000000
 66
  1
  0
VERTEX
  8
gg1
 10
0.390400
 20
-0.881700
  0
VERTEX
  8
gg1
 10
0.395200
 20
-0.867400
  0
VERTEX
  8
gg1
 10
0.404700
 20
-0.857800
  0
VERTEX
  8
gg1
 10
0.414200
 20
-0.853100
  0
VERTEX
  8
gg1
 10
0.428500
 20
-0.853100
  0
SEQEND
  8
gg1
  0
POLYLINE
  8
gg1
 62
1
 40
0.000000
 41
0.000000
 66
  1
  0
VERTEX
  8
gg1
 10
0.447100
 20
-0.819800
  0
VERTEX
  8
gg1
 10
0.451800
 20
-0.824500
  0
VERTEX
  8
gg1
 10
0.456600
 20
-0.819800
  0
VERTEX
  8
gg1
 10
0.451800
 20
-0.815000
  0
VERTEX
  8
gg1
 10
0.447100
 20
-0.819800
  0
SEQEND
  8
gg1
  0
POLYLINE
  8
gg1
 62
1
 40
0.000000
 41
0.000000
 66
  1
  0
VERTEX
  8
gg1
 10
0.451800
 20
-0.853100
  0
VERTEX
  8
gg1
 10
0.451800
 20
-0.919700
  0
SEQEND
  8
gg1
  0
POLYLINE
  8
gg1
 62
1
 40
0.000000
 41
0.000000
 66
  1
  0
VERTEX
  8
gg1
 10
0.531300
 20
-0.853100
  0
VERTEX
  8
gg1
 10
0.531300
 20
-0.929300
  0
VERTEX
  8
gg1
 10
0.526600
 20
-0.943500
  0
VERTEX
  8
gg1
 10
0.521800
 20
-0.948300
  0
VERTEX
  8
gg1
 10
0.512300
 20
-0.953100
  0
VERTEX
  8
gg1
 10
0.498000
 20
-0.953100
  0
VERTEX
  8
gg1
 10
0.488500
 20
-0.948300
  0
SEQEND
  8
gg1
  0
POLYLINE
  8
gg1
 62
1
 40
0.000000
 41
0.000000
 66
  1
  0
VERTEX
  8
gg1
 10
0.531300
 20
-0.867400
  0
VERTEX
  8
gg1
 10
0.521800
 20
-0.857800
  0
VERTEX
  8
gg1
 10
0.512300
 20
-0.853100
  0
VERTEX
  8
gg1
 10
0.498000
 20
-0.853100
  0
VERTEX
  8
gg1
 10
0.488500
 20
-0.857800
  0
VERTEX
  8
gg1
 10
0.479000
 20
-0.867400
  0
VERTEX
  8
gg1
 10
0.474200
 20
-0.881700
  0
VERTEX
  8
gg1
 10
0.474200
 20
-0.891200
  0
VERTEX
  8
gg1
 10
0.479000
 20
-0.905500
  0
VERTEX
  8
gg1
 10
0.488500
 20
-0.915000
  0
VERTEX
  8
gg1
 10
0.498000
 20
-0.919700
  0
VERTEX
  8
gg1
 10
0.512300
 20
-0.919700
  0
VERTEX
  8
gg1
 10
0.521800
 20
-0.915000
  0
VERTEX
  8
gg1
 10
0.531300
 20
-0.905500
  0
SEQEND
  8
gg1
  0
POLYLINE
  8
gg1
 62
1
 40
0.000000
 41
0.000000
 66
  1
  0
VERTEX
  8
gg1
 10
0.558000
 20
-0.819800
  0
VERTEX
  8
gg1
 10
0.558000
 20
-0.919700
  0
SEQEND
  8
gg1
  0
POLYLINE
  8
gg1
 62
1
 40
0.000000
 41
0.000000
 66
  1
  0
VERTEX
  8
gg1
 10
0.558000
 20
-0.872100
  0
VERTEX
  8
gg1
 10
0.572300
 20
-0.857800
  0
VERTEX
  8
gg1
 10
0.581800
 20
-0.853100
  0
VERTEX
  8
gg1
 10
0.596100
 20
-0.853100
  0
VERTEX
  8
gg1
 10
0.605600
 20
-0.857800
  0
VERTEX
  8
gg1
 10
0.610400
 20
-0.872100
  0
VERTEX
  8
gg1
 10
0.610400
 20
-0.919700
  0
SEQEND
  8
gg1
  0
POLYLINE
  8
gg1
 62
1
 40
0.000000
 41
0.000000
 66
  1
  0
VERTEX
  8
gg1
 10
0.650800
 20
-0.819800
  0
VERTEX
  8
gg1
 10
0.650800
 20
-0.900700
  0
VERTEX
  8
gg1
 10
0.655600
 20
-0.915000
  0
VERTEX
  8
gg1
 10
0.665100
 20
-0.919700
  0
VERTEX
  8
gg1
 10
0.674600
 20
-0.919700
  0
SEQEND
  8
gg1
  0
POLYLINE
  8
gg1
 62
1
 40
0.000000
 41
0.000000
 66
  1
  0
VERTEX
  8
gg1
 10
0.636500
 20
-0.853100
  0
VERTEX
  8
gg1
 10
0.669900
 20
-0.853100
  0
SEQEND
  8
gg1
  0
POLYLINE
  8
gg1
 62
1
 40
0.000000
 41
0.000000
 66
  1
  0
VERTEX
  8
gg1
 10
0.772200
 20
-0.843600
  0
VERTEX
  8
gg1
 10
0.772200
 20
-0.838800
  0
VERTEX
  8
gg1
 10
0.777000
 20
-0.829300
  0
VERTEX
  8
gg1
 10
0.781700
 20
-0.824500
  0
VERTEX
  8
gg1
 10
0.791300
 20
-0.819800
  0
VERTEX
  8
gg1
 10
0.810300
 20
-0.819800
  0
VERTEX
  8
gg1
 10
0.819800
 20
-0.824500
  0
VERTEX
  8
gg1
 10
0.824600
 20
-0.829300
  0
VERTEX
  8
gg1
 10
0.829400
 20
-0.838800
  0
VERTEX
  8
gg1
 10
0.829400
 20
-0.848300
  0
VERTEX
  8
gg1
 10
0.824600
 20
-0.857800
  0
VERTEX
  8
gg1
 10
0.815100
 20
-0.872100
  0
VERTEX
  8
gg1
 10
0.767500
 20
-0.919700
  0
VERTEX
  8
gg1
 10
0.834100
 20
-0.919700
  0
SEQEND
  8
gg1
  0
POLYLINE
  8
gg1
 62
1
 40
0.000000
 41
0.000000
 66
  1
  0
VERTEX
  8
gg1
 10
0.885100
 20
-0.819800
  0
VERTEX
  8
gg1
 10
0.870800
 20
-0.824500
  0
VERTEX
  8
gg1
 10
0.861300
 20
-0.838800
  0
VERTEX
  8
gg1
 10
0.856500
 20
-0.862600
  0
VERTEX
  8
gg1
 10
0.856500
 20
-0.876900
  0
VERTEX
  8
gg1
 10
0.861300
 20
-0.900700
  0
VERTEX
  8
gg1
 10
0.870800
 20
-0.915000
  0
VERTEX
  8
gg1
 10
0.885100
 20
-0.919700
  0
VERTEX
  8
gg1
 10
0.894600
 20
-0.919700
  0
VERTEX
  8
gg1
 10
0.908900
 20
-0.915000
  0
VERTEX
  8
gg1
 10
0.918400
 20
-0.900700
  0
VERTEX
  8
gg1
 10
0.923100
 20
-0.876900
  0
VERTEX
  8
gg1
 10
0.923100
 20
-0.862600
  0
VERTEX
  8
gg1
 10
0.918400
 20
-0.838800
  0
VERTEX
  8
gg1
 10
0.908900
 20
-0.824500
  0
VERTEX
  8
gg1
 10
0.894600
 20
-0.819800
  0
VERTEX
  8
gg1
 10
0.885100
 20
-0.819800
  0
SEQEND
  8
gg1
  0
POLYLINE
  8
gg1
 62
1
 40
0.000000
 41
0.000000
 66
  1
  0
VERTEX
  8
gg1
 10
0.974100
 20
-0.819800
  0
VERTEX
  8
gg1
 10
0.959800
 20
-0.824500
  0
VERTEX
  8
gg1
 10
0.950300
 20
-0.838800
  0
VERTEX
  8
gg1
 10
0.945500
 20
-0.862600
  0
VERTEX
  8
gg1
 10
0.945500
 20
-0.876900
  0
VERTEX
  8
gg1
 10
0.950300
 20
-0.900700
  0
VERTEX
  8
gg1
 10
0.959800
 20
-0.915000
  0
VERTEX
  8
gg1
 10
0.974100
 20
-0.919700
  0
VERTEX
  8
gg1
 10
0.983600
 20
-0.919700
  0
VERTEX
  8
gg1
 10
0.997900
 20
-0.915000
  0
VERTEX
  8
gg1
 10
1.007400
 20
-0.900700
  0
VERTEX
  8
gg1
 10
1.012200
 20
-0.876900
  0
VERTEX
  8
gg1
 10
1.012200
 20
-0.862600
  0
VERTEX
  8
gg1
 10
1.007400
 20
-0.838800
  0
VERTEX
  8
gg1
 10
0.997900
 20
-0.824500
  0
VERTEX
  8
gg1
 10
0.983600
 20
-0.819800
  0
VERTEX
  8
gg1
 10
0.974100
 20
-0.819800
  0
SEQEND
  8
gg1
  0
POLYLINE
  8
gg1
 62
1
 40
0.000000
 41
0.000000
 66
  1
  0
VERTEX
  8
gg1
 10
1.091700
 20
-0.834000
  0
VERTEX
  8
gg1
 10
1.086900
 20
-0.824500
  0
VERTEX
  8
gg1
 10
1.072600
 20
-0.819800
  0
VERTEX
  8
gg1
 10
1.063100
 20
-0.819800
  0
VERTEX
  8
gg1
 10
1.048800
 20
-0.824500
  0
VERTEX
  8
gg1
 10
1.039300
 20
-0.838800
  0
VERTEX
  8
gg1
 10
1.034600
 20
-0.862600
  0
VERTEX
  8
gg1
 10
1.034600
 20
-0.886400
  0
VERTEX
  8
gg1
 10
1.039300
 20
-0.905500
  0
VERTEX
  8
gg1
 10
1.048800
 20
-0.915000
  0
VERTEX
  8
gg1
 10
1.063100
 20
-0.919700
  0
VERTEX
  8
gg1
 10
1.067900
 20
-0.919700
  0
VERTEX
  8
gg1
 10
1.082200
 20
-0.915000
  0
VERTEX
  8
gg1
 10
1.091700
 20
-0.905500
  0
VERTEX
  8
gg1
 10
1.096400
 20
-0.891200
  0
VERTEX
  8
gg1
 10
1.096400
 20
-0.886400
  0
VERTEX
  8
gg1
 10
1.091700
 20
-0.872100
  0
VERTEX
  8
gg1
 10
1.082200
 20
-0.862600
  0
VERTEX
  8
gg1
 10
1.067900
 20
-0.857800
  0
VERTEX
  8
gg1
 10
1.063100
 20
-0.857800
  0
VERTEX
  8
gg1
 10
1.048800
 20
-0.862600
  0
VERTEX
  8
gg1
 10
1.039300
 20
-0.872100
  0
VERTEX
  8
gg1
 10
1.034600
 20
-0.886400
  0
SEQEND
  8
gg1
  0
POLYLINE
  8
gg1
 62
1
 40
0.000000
 41
0.000000
 66
  1
  0
VERTEX
  8
gg1
 10
1.196900
 20
-0.872100
  0
VERTEX
  8
gg1
 10
1.239700
 20
-0.872100
  0
VERTEX
  8
gg1
 10
1.254000
 20
-0.867400
  0
VERTEX
  8
gg1
 10
1.258800
 20
-0.862600
  0
VERTEX
  8
gg1
 10
1.263600
 20
-0.853100
  0
VERTEX
  8
gg1
 10
1.263600
 20
-0.838800
  0
VERTEX
  8
gg1
 10
1.258800
 20
-0.829300
  0
VERTEX
  8
gg1
 10
1.254000
 20
-0.824500
  0
VERTEX
  8
gg1
 10
1.239700
 20
-0.819800
  0
VERTEX
  8
gg1
 10
1.196900
 20
-0.819800
  0
VERTEX
  8
gg1
 10
1.196900
 20
-0.919700
  0
SEQEND
  8
gg1
  0
POLYLINE
  8
gg1
 62
1
 40
0.000000
 41
0.000000
 66
  1
  0
VERTEX
  8
gg1
 10
1.309700
 20
-0.853100
  0
VERTEX
  8
gg1
 10
1.300200
 20
-0.857800
  0
VERTEX
  8
gg1
 10
1.290700
 20
-0.867400
  0
VERTEX
  8
gg1
 10
1.285900
 20
-0.881700
  0
VERTEX
  8
gg1
 10
1.285900
 20
-0.891200
  0
VERTEX
  8
gg1
 10
1.290700
 20
-0.905500
  0
VERTEX
  8
gg1
 10
1.300200
 20
-0.915000
  0
VERTEX
  8
gg1
 10
1.309700
 20
-0.919700
  0
VERTEX
  8
gg1
 10
1.324000
 20
-0.919700
  0
VERTEX
  8
gg1
 10
1.333500
 20
-0.915000
  0
VERTEX
  8
gg1
 10
1.343100
 20
-0.905500
  0
VERTEX
  8
gg1
 10
1.347800
 20
-0.891200
  0
VERTEX
  8
gg1
 10
1.347800
 20
-0.881700
  0
VERTEX
  8
gg1
 10
1.343100
 20
-0.867400
  0
VERTEX
  8
gg1
 10
1.333500
 20
-0.857800
  0
VERTEX
  8
gg1
 10
1.324000
 20
-0.853100
  0
VERTEX
  8
gg1
 10
1.309700
 20
-0.853100
  0
SEQEND
  8
gg1
  0
POLYLINE
  8
gg1
 62
1
 40
0.000000
 41
0.000000
 66
  1
  0
VERTEX
  8
gg1
 10
1.369700
 20
-0.819800
  0
VERTEX
  8
gg1
 10
1.369700
 20
-0.919700
  0
SEQEND
  8
gg1
  0
POLYLINE
  8
gg1
 62
1
 40
0.000000
 41
0.000000
 66
  1
  0
VERTEX
  8
gg1
 10
1.414500
 20
-0.853100
  0
VERTEX
  8
gg1
 10
1.404900
 20
-0.857800
  0
VERTEX
  8
gg1
 10
1.395400
 20
-0.867400
  0
VERTEX
  8
gg1
 10
1.390700
 20
-0.881700
  0
VERTEX
  8
gg1
 10
1.390700
 20
-0.891200
  0
VERTEX
  8
gg1
 10
1.395400
 20
-0.905500
  0
VERTEX
  8
gg1
 10
1.404900
 20
-0.915000
  0
VERTEX
  8
gg1
 10
1.414500
 20
-0.919700
  0
VERTEX
  8
gg1
 10
1.428800
 20
-0.919700
  0
VERTEX
  8
gg1
 10
1.438300
 20
-0.915000
  0
VERTEX
  8
gg1
 10
1.447800
 20
-0.905500
  0
VERTEX
  8
gg1
 10
1.452600
 20
-0.891200
  0
VERTEX
  8
gg1
 10
1.452600
 20
-0.881700
  0
VERTEX
  8
gg1
 10
1.447800
 20
-0.867400
  0
VERTEX
  8
gg1
 10
1.438300
 20
-0.857800
  0
VERTEX
  8
gg1
 10
1.428800
 20
-0.853100
  0
VERTEX
  8
gg1
 10
1.414500
 20
-0.853100
  0
SEQEND
  8
gg1
  0
POLYLINE
  8
gg1
 62
1
 40
0.000000
 41
0.000000
 66
  1
  0
VERTEX
  8
gg1
 10
1.474500
 20
-0.819800
  0
VERTEX
  8
gg1
 10
1.474500
 20
-0.919700
  0
SEQEND
  8
gg1
  0
POLYLINE
  8
gg1
 62
1
 40
0.000000
 41
0.000000
 66
  1
  0
VERTEX
  8
gg1
 10
1.495400
 20
-0.853100
  0
VERTEX
  8
gg1
 10
1.495400
 20
-0.900700
  0
VERTEX
  8
gg1
 10
1.500200
 20
-0.915000
  0
VERTEX
  8
gg1
 10
1.509700
 20
-0.919700
  0
VERTEX
  8
gg1
 10
1.524000
 20
-0.919700
  0
VERTEX
  8
gg1
 10
1.533500
 20
-0.915000
  0
VERTEX
  8
gg1
 10
1.547800
 20
-0.900700
  0
SEQEND
  8
gg1
  0
POLYLINE
  8
gg1
 62
1
 40
0.000000
 41
0.000000
 66
  1
  0
VERTEX
  8
gg1
 10
1.547800
 20
-0.853100
  0
VERTEX
  8
gg1
 10
1.547800
 20
-0.919700
  0
SEQEND
  8
gg1
  0
POLYLINE
  8
gg1
 62
1
 40
0.000000
 41
0.000000
 66
  1
  0
VERTEX
  8
gg1
 10
1.723900
 20
-0.843600
  0
VERTEX
  8
gg1
 10
1.719200
 20
-0.834000
  0
VERTEX
  8
gg1
 10
1.709600
 20
-0.824500
  0
VERTEX
  8
gg1
 10
1.700100
 20
-0.819800
  0
VERTEX
  8
gg1
 10
1.681100
 20
-0.819800
  0
VERTEX
  8
gg1
 10
1.671600
 20
-0.824500
  0
VERTEX
  8
gg1
 10
1.662000
 20
-0.834000
  0
VERTEX
  8
gg1
 10
1.657300
 20
-0.843600
  0
VERTEX
  8
gg1
 10
1.652500
 20
-0.857800
  0
VERTEX
  8
gg1
 10
1.652500
 20
-0.881700
  0
VERTEX
  8
gg1
 10
1.657300
 20
-0.895900
  0
VERTEX
  8
gg1
 10
1.662000
 20
-0.905500
  0
VERTEX
  8
gg1
 10
1.671600
 20
-0.915000
  0
VERTEX
  8
gg1
 10
1.681100
 20
-0.919700
  0
VERTEX
  8
gg1
 10
1.700100
 20
-0.919700
  0
VERTEX
  8
gg1
 10
1.709600
 20
-0.915000
  0
VERTEX
  8
gg1
 10
1.719200
 20
-0.905500
  0
VERTEX
  8
gg1
 10
1.723900
 20
-0.895900
  0
SEQEND
  8
gg1
  0
POLYLINE
  8
gg1
 62
1
 40
0.000000
 41
0.000000
 66
  1
  0
VERTEX
  8
gg1
 10
1.775800
 20
-0.853100
  0
VERTEX
  8
gg1
 10
1.766300
 20
-0.857800
  0
VERTEX
  8
gg1
 10
1.756800
 20
-0.867400
  0
VERTEX
  8
gg1
 10
1.752000
 20
-0.881700
  0
VERTEX
  8
gg1
 10
1.752000
 20
-0.891200
  0
VERTEX
  8
gg1
 10
1.756800
 20
-0.905500
  0
VERTEX
  8
gg1
 10
1.766300
 20
-0.915000
  0
VERTEX
  8
gg1
 10
1.775800
 20
-0.919700
  0
VERTEX
  8
gg1
 10
1.790100
 20
-0.919700
  0
VERTEX
  8
gg1
 10
1.799600
 20
-0.915000
  0
VERTEX
  8
gg1
 10
1.809100
 20
-0.905500
  0
VERTEX
  8
gg1
 10
1.813900
 20
-0.891200
  0
VERTEX
  8
gg1
 10
1.813900
 20
-0.881700
  0
VERTEX
  8
gg1
 10
1.809100
 20
-0.867400
  0
VERTEX
  8
gg1
 10
1.799600
 20
-0.857800
  0
VERTEX
  8
gg1
 10
1.790100
 20
-0.853100
  0
VERTEX
  8
gg1
 10
1.775800
 20
-0.853100
  0
SEQEND
  8
gg1
  0
POLYLINE
  8
gg1
 62
1
 40
0.000000
 41
0.000000
 66
  1
  0
VERTEX
  8
gg1
 10
1.835800
 20
-0.853100
  0
VERTEX
  8
gg1
 10
1.835800
 20
-0.919700
  0
SEQEND
  8
gg1
  0
POLYLINE
  8
gg1
 62
1
 40
0.000000
 41
0.000000
 66
  1
  0
VERTEX
  8
gg1
 10
1.835800
 20
-0.881700
  0
VERTEX
  8
gg1
 10
1.840600
 20
-0.867400
  0
VERTEX
  8
gg1
 10
1.850100
 20
-0.857800
  0
VERTEX
  8
gg1
 10
1.859600
 20
-0.853100
  0
VERTEX
  8
gg1
 10
1.873900
 20
-0.853100
  0
SEQEND
  8
gg1
  0
POLYLINE
  8
gg1
 62
1
 40
0.000000
 41
0.000000
 66
  1
  0
VERTEX
  8
gg1
 10
1.882900
 20
-0.853100
  0
VERTEX
  8
gg1
 10
1.882900
 20
-0.953100
  0
SEQEND
  8
gg1
  0
POLYLINE
  8
gg1
 62
1
 40
0.000000
 41
0.000000
 66
  1
  0
VERTEX
  8
gg1
 10
1.882900
 20
-0.867400
  0
VERTEX
  8
gg1
 10
1.892500
 20
-0.857800
  0
VERTEX
  8
gg1
 10
1.902000
 20
-0.853100
  0
VERTEX
  8
gg1
 10
1.916300
 20
-0.853100
  0
VERTEX
  8
gg1
 10
1.925800
 20
-0.857800
  0
VERTEX
  8
gg1
 10
1.935300
 20
-0.867400
  0
VERTEX
  8
gg1
 10
1.940100
 20
-0.881700
  0
VERTEX
  8
gg1
 10
1.940100
 20
-0.891200
  0
VERTEX
  8
gg1
 10
1.935300
 20
-0.905500
  0
VERTEX
  8
gg1
 10
1.925800
 20
-0.915000
  0
VERTEX
  8
gg1
 10
1.916300
 20
-0.919700
  0
VERTEX
  8
gg1
 10
1.902000
 20
-0.919700
  0
VERTEX
  8
gg1
 10
1.892500
 20
-0.915000
  0
VERTEX
  8
gg1
 10
1.882900
 20
-0.905500
  0
SEQEND
  8
gg1
  0
POLYLINE
  8
gg1
 62
1
 40
0.000000
 41
0.000000
 66
  1
  0
VERTEX
  8
gg1
 10
1.985300
 20
-0.853100
  0
VERTEX
  8
gg1
 10
1.975800
 20
-0.857800
  0
VERTEX
  8
gg1
 10
1.966300
 20
-0.867400
  0
VERTEX
  8
gg1
 10
1.961500
 20
-0.881700
  0
VERTEX
  8
gg1
 10
1.961500
 20
-0.891200
  0
VERTEX
  8
gg1
 10
1.966300
 20
-0.905500
  0
VERTEX
  8
gg1
 10
1.975800
 20
-0.915000
  0
VERTEX
  8
gg1
 10
1.985300
 20
-0.919700
  0
VERTEX
  8
gg1
 10
1.999600
 20
-0.919700
  0
VERTEX
  8
gg1
 10
2.009100
 20
-0.915000
  0
VERTEX
  8
gg1
 10
2.018600
 20
-0.905500
  0
VERTEX
  8
gg1
 10
2.023400
 20
-0.891200
  0
VERTEX
  8
gg1
 10
2.023400
 20
-0.881700
  0
VERTEX
  8
gg1
 10
2.018600
 20
-0.867400
  0
VERTEX
  8
gg1
 10
2.009100
 20
-0.857800
  0
VERTEX
  8
gg1
 10
1.999600
 20
-0.853100
  0
VERTEX
  8
gg1
 10
1.985300
 20
-0.853100
  0
SEQEND
  8
gg1
  0
POLYLINE
  8
gg1
 62
1
 40
0.000000
 41
0.000000
 66
  1
  0
VERTEX
  8
gg1
 10
2.045300
 20
-0.853100
  0
VERTEX
  8
gg1
 10
2.045300
 20
-0.919700
  0
SEQEND
  8
gg1
  0
POLYLINE
  8
gg1
 62
1
 40
0.000000
 41
0.000000
 66
  1
  0
VERTEX
  8
gg1
 10
2.045300
 20
-0.881700
  0
VERTEX
  8
gg1
 10
2.050000
 20
-0.867400
  0
VERTEX
  8
gg1
 10
2.059600
 20
-0.857800
  0
VERTEX
  8
gg1
 10
2.069100
 20
-0.853100
  0
VERTEX
  8
gg1
 10
2.083400
 20
-0.853100
  0
SEQEND
  8
gg1
  0
POLYLINE
  8
gg1
 62
1
 40
0.000000
 41
0.000000
 66
  1
  0
VERTEX
  8
gg1
 10
2.149500
 20
-0.853100
  0
VERTEX
  8
gg1
 10
2.149500
 20
-0.919700
  0
SEQEND
  8
gg1
  0
POLYLINE
  8
gg1
 62
1
 40
0.000000
 41
0.000000
 66
  1
  0
VERTEX
  8
gg1
 10
2.149500
 20
-0.867400
  0
VERTEX
  8
gg1
 10
2.140000
 20
-0.857800
  0
VERTEX
  8
gg1
 10
2.130500
 20
-0.853100
  0
VERTEX
  8
gg1
 10
2.116200
 20
-0.853100
  0
VERTEX
  8
gg1
 10
2.106700
 20
-0.857800
  0
VERTEX
  8
gg1
 10
2.097200
 20
-0.867400
  0
VERTEX
  8
gg1
 10
2.092400
 20
-0.881700
  0
VERTEX
  8
gg1
 10
2.092400
 20
-0.891200
  0
VERTEX
  8
gg1
 10
2.097200
 20
-0.905500
  0
VERTEX
  8
gg1
 10
2.106700
 20
-0.915000
  0
VERTEX
  8
gg1
 10
2.116200
 20
-0.919700
  0
VERTEX
  8
gg1
 10
2.130500
 20
-0.919700
  0
VERTEX
  8
gg1
 10
2.140000
 20
-0.915000
  0
VERTEX
  8
gg1
 10
2.149500
 20
-0.905500
  0
SEQEND
  8
gg1
  0
POLYLINE
  8
gg1
 62
1
 40
0.000000
 41
0.000000
 66
  1
  0
VERTEX
  8
gg1
 10
2.190500
 20
-0.819800
  0
VERTEX
  8
gg1
 10
2.190500
 20
-0.900700
  0
VERTEX
  8
gg1
 10
2.195300
 20
-0.915000
  0
VERTEX
  8
gg1
 10
2.204800
 20
-0.919700
  0
VERTEX
  8
gg1
 10
2.214300
 20
-0.919700
  0
SEQEND
  8
gg1
  0
POLYLINE
  8
gg1
 62
1
 40
0.000000
 41
0.000000
 66
  1
  0
VERTEX
  8
gg1
 10
2.176200
 20
-0.853100
  0
VERTEX
  8
gg1
 10
2.209500
 20
-0.853100
  0
SEQEND
  8
gg1
  0
POLYLINE
  8
gg1
 62
1
 40
0.000000
 41
0.000000
 66
  1
  0
VERTEX
  8
gg1
 10
2.238100
 20
-0.819800
  0
VERTEX
  8
gg1
 10
2.242900
 20
-0.824500
  0
VERTEX
  8
gg1
 10
2.247600
 20
-0.819800
  0
VERTEX
  8
gg1
 10
2.242900
 20
-0.815000
  0
VERTEX
  8
gg1
 10
2.238100
 20
-0.819800
  0
SEQEND
  8
gg1
  0
POLYLINE
  8
gg1
 62
1
 40
0.000000
 41
0.000000
 66
  1
  0
VERTEX
  8
gg1
 10
2.242900
 20
-0.853100
  0
VERTEX
  8
gg1
 10
2.242900
 20
-0.919700
  0
SEQEND
  8
gg1
  0
POLYLINE
  8
gg1
 62
1
 40
0.000000
 41
0.000000
 66
  1
  0
VERTEX
  8
gg1
 10
2.289000
 20
-0.853100
  0
VERTEX
  8
gg1
 10
2.279500
 20
-0.857800
  0
VERTEX
  8
gg1
 10
2.270000
 20
-0.867400
  0
VERTEX
  8
gg1
 10
2.265200
 20
-0.881700
  0
VERTEX
  8
gg1
 10
2.265200
 20
-0.891200
  0
VERTEX
  8
gg1
 10
2.270000
 20
-0.905500
  0
VERTEX
  8
gg1
 10
2.279500
 20
-0.915000
  0
VERTEX
  8
gg1
 10
2.289000
 20
-0.919700
  0
VERTEX
  8
gg1
 10
2.303300
 20
-0.919700
  0
VERTEX
  8
gg1
 10
2.312800
 20
-0.915000
  0
VERTEX
  8
gg1
 10
2.322400
 20
-0.905500
  0
VERTEX
  8
gg1
 10
2.327100
 20
-0.891200
  0
VERTEX
  8
gg1
 10
2.327100
 20
-0.881700
  0
VERTEX
  8
gg1
 10
2.322400
 20
-0.867400
  0
VERTEX
  8
gg1
 10
2.312800
 20
-0.857800
  0
VERTEX
  8
gg1
 10
2.303300
 20
-0.853100
  0
VERTEX
  8
gg1
 10
2.289000
 20
-0.853100
  0
SEQEND
  8
gg1
  0
POLYLINE
  8
gg1
 62
1
 40
0.000000
 41
0.000000
 66
  1
  0
VERTEX
  8
gg1
 10
2.349000
 20
-0.853100
  0
VERTEX
  8
gg1
 10
2.349000
 20
-0.919700
  0
SEQEND
  8
gg1
  0
POLYLINE
  8
gg1
 62
1
 40
0.000000
 41
0.000000
 66
  1
  0
VERTEX
  8
gg1
 10
2.349000
 20
-0.872100
  0
VERTEX
  8
gg1
 10
2.363300
 20
-0.857800
  0
VERTEX
  8
gg1
 10
2.372800
 20
-0.853100
  0
VERTEX
  8
gg1
 10
2.387100
 20
-0.853100
  0
VERTEX
  8
gg1
 10
2.396600
 20
-0.857800
  0
VERTEX
  8
gg1
 10
2.401400
 20
-0.872100
  0
VERTEX
  8
gg1
 10
2.401400
 20
-0.919700
  0
SEQEND
  8
gg1
  0
POLYLINE
  8
gg1
 62
1
 40
0.000000
 41
0.000000
 66
  1
  0
VERTEX
  8
gg1
 10
0.050000
 20
-0.672100
  0
VERTEX
  8
gg1
 10
0.092800
 20
-0.672100
  0
VERTEX
  8
gg1
 10
0.107100
 20
-0.667400
  0
VERTEX
  8
gg1
 10
0.111900
 20
-0.662600
  0
VERTEX
  8
gg1
 10
0.116700
 20
-0.653100
  0
VERTEX
  8
gg1
 10
0.116700
 20
-0.638800
  0
VERTEX
  8
gg1
 10
0.111900
 20
-0.629300
  0
VERTEX
  8
gg1
 10
0.107100
 20
-0.624500
  0
VERTEX
  8
gg1
 10
0.092800
 20
-0.619800
  0
VERTEX
  8
gg1
 10
0.050000
 20
-0.619800
  0
VERTEX
  8
gg1
 10
0.050000
 20
-0.719700
  0
SEQEND
  8
gg1
  0
POLYLINE
  8
gg1
 62
1
 40
0.000000
 41
0.000000
 66
  1
  0
VERTEX
  8
gg1
 10
0.162800
 20
-0.653100
  0
VERTEX
  8
gg1
 10
0.153300
 20
-0.657800
  0
VERTEX
  8
gg1
 10
0.143800
 20
-0.667400
  0
VERTEX
  8
gg1
 10
0.139000
 20
-0.681700
  0
VERTEX
  8
gg1
 10
0.139000
 20
-0.691200
  0
VERTEX
  8
gg1
 10
0.143800
 20
-0.705500
  0
VERTEX
  8
gg1
 10
0.153300
 20
-0.715000
  0
VERTEX
  8
gg1
 10
0.162800
 20
-0.719700
  0
VERTEX
  8
gg1
 10
0.177100
 20
-0.719700
  0
VERTEX
  8
gg1
 10
0.186600
 20
-0.715000
  0
VERTEX
  8
gg1
 10
0.196200
 20
-0.705500
  0
VERTEX
  8
gg1
 10
0.200900
 20
-0.691200
  0
VERTEX
  8
gg1
 10
0.200900
 20
-0.681700
  0
VERTEX
  8
gg1
 10
0.196200
 20
-0.667400
  0
VERTEX
  8
gg1
 10
0.186600
 20
-0.657800
  0
VERTEX
  8
gg1
 10
0.177100
 20
-0.653100
  0
VERTEX
  8
gg1
 10
0.162800
 20
-0.653100
  0
SEQEND
  8
gg1
  0
POLYLINE
  8
gg1
 62
1
 40
0.000000
 41
0.000000
 66
  1
  0
VERTEX
  8
gg1
 10
0.222800
 20
-0.619800
  0
VERTEX
  8
gg1
 10
0.222800
 20
-0.719700
  0
SEQEND
  8
gg1
  0
POLYLINE
  8
gg1
 62
1
 40
0.000000
 41
0.000000
 66
  1
  0
VERTEX
  8
gg1
 10
0.267600
 20
-0.653100
  0
VERTEX
  8
gg1
 10
0.258100
 20
-0.657800
  0
VERTEX
  8
gg1
 10
0.248500
 20
-0.667400
  0
VERTEX
  8
gg1
 10
0.243800
 20
-0.681700
  0
VERTEX
  8
gg1
 10
0.243800
 20
-0.691200
  0
VERTEX
  8
gg1
 10
0.248500
 20
-0.705500
  0
VERTEX
  8
gg1
 10
0.258100
 20
-0.715000
  0
VERTEX
  8
gg1
 10
0.267600
 20
-0.719700
  0
VERTEX
  8
gg1
 10
0.281900
 20
-0.719700
  0
VERTEX
  8
gg1
 10
0.291400
 20
-0.715000
  0
VERTEX
  8
gg1
 10
0.300900
 20
-0.705500
  0
VERTEX
  8
gg1
 10
0.305700
 20
-0.691200
  0
VERTEX
  8
gg1
 10
0.305700
 20
-0.681700
  0
VERTEX
  8
gg1
 10
0.300900
 20
-0.667400
  0
VERTEX
  8
gg1
 10
0.291400
 20
-0.657800
  0
VERTEX
  8
gg1
 10
0.281900
 20
-0.653100
  0
VERTEX
  8
gg1
 10
0.267600
 20
-0.653100
  0
SEQEND
  8
gg1
  0
POLYLINE
  8
gg1
 62
1
 40
0.000000
 41
0.000000
 66
  1
  0
VERTEX
  8
gg1
 10
0.327600
 20
-0.619800
  0
VERTEX
  8
gg1
 10
0.327600
 20
-0.719700
  0
SEQEND
  8
gg1
  0
POLYLINE
  8
gg1
 62
1
 40
0.000000
 41
0.000000
 66
  1
  0
VERTEX
  8
gg1
 10
0.348500
 20
-0.653100
  0
VERTEX
  8
gg1
 10
0.348500
 20
-0.700700
  0
VERTEX
  8
gg1
 10
0.353300
 20
-0.715000
  0
VERTEX
  8
gg1
 10
0.362800
 20
-0.719700
  0
VERTEX
  8
gg1
 10
0.377100
 20
-0.719700
  0
VERTEX
  8
gg1
 10
0.386600
 20
-0.715000
  0
VERTEX
  8
gg1
 10
0.400900
 20
-0.700700
  0
SEQEND
  8
gg1
  0
POLYLINE
  8
gg1
 62
1
 40
0.000000
 41
0.000000
 66
  1
  0
VERTEX
  8
gg1
 10
0.400900
 20
-0.653100
  0
VERTEX
  8
gg1
 10
0.400900
 20
-0.719700
  0
SEQEND
  8
gg1
  0
POLYLINE
  8
gg1
 62
1
 40
0.000000
 41
0.000000
 66
  1
  0
VERTEX
  8
gg1
 10
0.515100
 20
-0.619800
  0
VERTEX
  8
gg1
 10
0.519900
 20
-0.624500
  0
VERTEX
  8
gg1
 10
0.524700
 20
-0.619800
  0
VERTEX
  8
gg1
 10
0.519900
 20
-0.615000
  0
VERTEX
  8
gg1
 10
0.515100
 20
-0.619800
  0
SEQEND
  8
gg1
  0
POLYLINE
  8
gg1
 62
1
 40
0.000000
 41
0.000000
 66
  1
  0
VERTEX
  8
gg1
 10
0.519900
 20
-0.653100
  0
VERTEX
  8
gg1
 10
0.519900
 20
-0.719700
  0
SEQEND
  8
gg1
  0
POLYLINE
  8
gg1
 62
1
 40
0.000000
 41
0.000000
 66
  1
  0
VERTEX
  8
gg1
 10
0.556600
 20
-0.619800
  0
VERTEX
  8
gg1
 10
0.556600
 20
-0.700700
  0
VERTEX
  8
gg1
 10
0.561300
 20
-0.715000
  0
VERTEX
  8
gg1
 10
0.570800
 20
-0.719700
  0
VERTEX
  8
gg1
 10
0.580400
 20
-0.719700
  0
SEQEND
  8
gg1
  0
POLYLINE
  8
gg1
 62
1
 40
0.000000
 41
0.000000
 66
  1
  0
VERTEX
  8
gg1
 10
0.542300
 20
-0.653100
  0
VERTEX
  8
gg1
 10
0.575600
 20
-0.653100
  0
SEQEND
  8
gg1
  0
POLYLINE
  8
gg1
 62
1
 40
0.000000
 41
0.000000
 66
  1
  0
VERTEX
  8
gg1
 10
0.594600
 20
-0.681700
  0
VERTEX
  8
gg1
 10
0.651800
 20
-0.681700
  0
VERTEX
  8
gg1
 10
0.651800
 20
-0.672100
  0
VERTEX
  8
gg1
 10
0.647000
 20
-0.662600
  0
VERTEX
  8
gg1
 10
0.642300
 20
-0.657800
  0
VERTEX
  8
gg1
 10
0.632700
 20
-0.653100
  0
VERTEX
  8
gg1
 10
0.618400
 20
-0.653100
  0
VERTEX
  8
gg1
 10
0.608900
 20
-0.657800
  0
VERTEX
  8
gg1
 10
0.599400
 20
-0.667400
  0
VERTEX
  8
gg1
 10
0.594600
 20
-0.681700
  0
VERTEX
  8
gg1
 10
0.594600
 20
-0.691200
  0
VERTEX
  8
gg1
 10
0.599400
 20
-0.705500
  0
VERTEX
  8
gg1
 10
0.608900
 20
-0.715000
  0
VERTEX
  8
gg1
 10
0.618400
 20
-0.719700
  0
VERTEX
  8
gg1
 10
0.632700
 20
-0.719700
  0
VERTEX
  8
gg1
 10
0.642300
 20
-0.715000
  0
VERTEX
  8
gg1
 10
0.651800
 20
-0.705500
  0
SEQEND
  8
gg1
  0
POLYLINE
  8
gg1
 62
1
 40
0.000000
 41
0.000000
 66
  1
  0
VERTEX
  8
gg1
 10
0.673200
 20
-0.653100
  0
VERTEX
  8
gg1
 10
0.673200
 20
-0.719700
  0
SEQEND
  8
gg1
  0
POLYLINE
  8
gg1
 62
1
 40
0.000000
 41
0.000000
 66
  1
  0
VERTEX
  8
gg1
 10
0.673200
 20
-0.672100
  0
VERTEX
  8
gg1
 10
0.687500
 20
-0.657800
  0
VERTEX
  8
gg1
 10
0.697000
 20
-0.653100
  0
VERTEX
  8
gg1
 10
0.711300
 20
-0.653100
  0
VERTEX
  8
gg1
 10
0.720800
 20
-0.657800
  0
VERTEX
  8
gg1
 10
0.725600
 20
-0.672100
  0
VERTEX
  8
gg1
 10
0.725600
 20
-0.719700
  0
SEQEND
  8
gg1
  0
POLYLINE
  8
gg1
 62
1
 40
0.000000
 41
0.000000
 66
  1
  0
VERTEX
  8
gg1
 10
0.725600
 20
-0.672100
  0
VERTEX
  8
gg1
 10
0.739900
 20
-0.657800
  0
VERTEX
  8
gg1
 10
0.749400
 20
-0.653100
  0
VERTEX
  8
gg1
 10
0.763700
 20
-0.653100
  0
VERTEX
  8
gg1
 10
0.773200
 20
-0.657800
  0
VERTEX
  8
gg1
 10
0.777900
 20
-0.672100
  0
VERTEX
  8
gg1
 10
0.777900
 20
-0.719700
  0
SEQEND
  8
gg1
  0
POLYLINE
  8
gg1
 62
1
 40
0.000000
 41
0.000000
 66
  1
  0
VERTEX
  8
gg1
 10
0.887900
 20
-0.619800
  0
VERTEX
  8
gg1
 10
0.887900
 20
-0.719700
  0
SEQEND
  8
gg1
  0
POLYLINE
  8
gg1
 62
1
 40
0.000000
 41
0.000000
 66
  1
  0
VERTEX
  8
gg1
 10
0.887900
 20
-0.619800
  0
VERTEX
  8
gg1
 10
0.926000
 20
-0.719700
  0
SEQEND
  8
gg1
  0
POLYLINE
  8
gg1
 62
1
 40
0.000000
 41
0.000000
 66
  1
  0
VERTEX
  8
gg1
 10
0.964100
 20
-0.619800
  0
VERTEX
  8
gg1
 10
0.926000
 20
-0.719700
  0
SEQEND
  8
gg1
  0
POLYLINE
  8
gg1
 62
1
 40
0.000000
 41
0.000000
 66
  1
  0
VERTEX
  8
gg1
 10
0.964100
 20
-0.619800
  0
VERTEX
  8
gg1
 10
0.964100
 20
-0.719700
  0
SEQEND
  8
gg1
  0
POLYLINE
  8
gg1
 62
1
 40
0.000000
 41
0.000000
 66
  1
  0
VERTEX
  8
gg1
 10
0.992700
 20
-0.619800
  0
VERTEX
  8
gg1
 10
0.992700
 20
-0.719700
  0
SEQEND
  8
gg1
  0
POLYLINE
  8
gg1
 62
1
 40
0.000000
 41
0.000000
 66
  1
  0
VERTEX
  8
gg1
 10
0.992700
 20
-0.619800
  0
VERTEX
  8
gg1
 10
1.026000
 20
-0.619800
  0
VERTEX
  8
gg1
 10
1.040300
 20
-0.624500
  0
VERTEX
  8
gg1
 10
1.049800
 20
-0.634000
  0
VERTEX
  8
gg1
 10
1.054500
 20
-0.643600
  0
VERTEX
  8
gg1
 10
1.059300
 20
-0.657800
  0
VERTEX
  8
gg1
 10
1.059300
 20
-0.681700
  0
VERTEX
  8
gg1
 10
1.054500
 20
-0.695900
  0
VERTEX
  8
gg1
 10
1.049800
 20
-0.705500
  0
VERTEX
  8
gg1
 10
1.040300
 20
-0.715000
  0
VERTEX
  8
gg1
 10
1.026000
 20
-0.719700
  0
VERTEX
  8
gg1
 10
0.992700
 20
-0.719700
  0
SEQEND
  8
gg1
  0
POLYLINE
  8
gg1
 62
1
 40
0.000000
 41
0.000000
 66
  1
  0
VERTEX
  8
gg1
 10
1.110200
 20
-0.619800
  0
VERTEX
  8
gg1
 10
1.096000
 20
-0.624500
  0
VERTEX
  8
gg1
 10
1.086400
 20
-0.638800
  0
VERTEX
  8
gg1
 10
1.081700
 20
-0.662600
  0
VERTEX
  8
gg1
 10
1.081700
 20
-0.676900
  0
VERTEX
  8
gg1
 10
1.086400
 20
-0.700700
  0
VERTEX
  8
gg1
 10
1.096000
 20
-0.715000
  0
VERTEX
  8
gg1
 10
1.110200
 20
-0.719700
  0
VERTEX
  8
gg1
 10
1.119800
 20
-0.719700
  0
VERTEX
  8
gg1
 10
1.134100
 20
-0.715000
  0
VERTEX
  8
gg1
 10
1.143600
 20
-0.700700
  0
VERTEX
  8
gg1
 10
1.148300
 20
-0.676900
  0
VERTEX
  8
gg1
 10
1.148300
 20
-0.662600
  0
VERTEX
  8
gg1
 10
1.143600
 20
-0.638800
  0
VERTEX
  8
gg1
 10
1.134100
 20
-0.624500
  0
VERTEX
  8
gg1
 10
1.119800
 20
-0.619800
  0
VERTEX
  8
gg1
 10
1.110200
 20
-0.619800
  0
SEQEND
  8
gg1
  0
POLYLINE
  8
gg1
 62
1
 40
0.000000
 41
0.000000
 66
  1
  0
VERTEX
  8
gg1
 10
1.180200
 20
-0.619800
  0
VERTEX
  8
gg1
 10
1.232600
 20
-0.619800
  0
VERTEX
  8
gg1
 10
1.204000
 20
-0.657800
  0
VERTEX
  8
gg1
 10
1.218300
 20
-0.657800
  0
VERTEX
  8
gg1
 10
1.227800
 20
-0.662600
  0
VERTEX
  8
gg1
 10
1.232600
 20
-0.667400
  0
VERTEX
  8
gg1
 10
1.237400
 20
-0.681700
  0
VERTEX
  8
gg1
 10
1.237400
 20
-0.691200
  0
VERTEX
  8
gg1
 10
1.232600
 20
-0.705500
  0
VERTEX
  8
gg1
 10
1.223100
 20
-0.715000
  0
VERTEX
  8
gg1
 10
1.208800
 20
-0.719700
  0
VERTEX
  8
gg1
 10
1.194500
 20
-0.719700
  0
VERTEX
  8
gg1
 10
1.180200
 20
-0.715000
  0
VERTEX
  8
gg1
 10
1.175500
 20
-0.710200
  0
VERTEX
  8
gg1
 10
1.170700
 20
-0.700700
  0
SEQEND
  8
gg1
  0
POLYLINE
  8
gg1
 62
1
 40
0.000000
 41
0.000000
 66
  1
  0
VERTEX
  8
gg1
 10
1.335900
 20
-0.719700
  0
VERTEX
  8
gg1
 10
1.297800
 20
-0.619800
  0
VERTEX
  8
gg1
 10
1.259700
 20
-0.719700
  0
SEQEND
  8
gg1
  0
POLYLINE
  8
gg1
 62
1
 40
0.000000
 41
0.000000
 66
  1
  0
VERTEX
  8
gg1
 10
1.274000
 20
-0.686400
  0
VERTEX
  8
gg1
 10
1.321600
 20
-0.686400
  0
SEQEND
  8
gg1
  0
POLYLINE
  8
gg1
 62
1
 40
0.000000
 41
0.000000
 66
  1
  0
VERTEX
  8
gg1
 10
-0.164000
 20
0.654100
  0
VERTEX
  8
gg1
 10
-0.164000
 20
0.674100
  0
VERTEX
  8
gg1
 10
-0.164000
 20
0.664100
  0
VERTEX
  8
gg1
 10
-0.224000
 20
0.664100
  0
VERTEX
  8
gg1
 10
-0.214000
 20
0.654100
  0
SEQEND
  8
gg1
  0
POLYLINE
  8
gg1
 62
1
 40
0.000000
 41
0.000000
 66
  1
  0
VERTEX
  8
gg1
 10
-0.214000
 20
0.704100
  0
VERTEX
  8
gg1
 10
-0.224000
 20
0.714100
  0
VERTEX
  8
gg1
 10
-0.224000
 20
0.734100
  0
VERTEX
  8
gg1
 10
-0.214000
 20
0.744100
  0
VERTEX
  8
gg1
 10
-0.204000
 20
0.744100
  0
VERTEX
  8
gg1
 10
-0.194000
 20
0.734100
  0
VERTEX
  8
gg1
 10
-0.184000
 20
0.744100
  0
VERTEX
  8
gg1
 10
-0.174000
 20
0.744100
  0
VERTEX
  8
gg1
 10
-0.164000
 20
0.734100
  0
VERTEX
  8
gg1
 10
-0.164000
 20
0.714100
  0
VERTEX
  8
gg1
 10
-0.174000
 20
0.704100
  0
VERTEX
  8
gg1
 10
-0.184000
 20
0.704100
  0
VERTEX
  8
gg1
 10
-0.194000
 20
0.714100
  0
VERTEX
  8
gg1
 10
-0.204000
 20
0.704100
  0
VERTEX
  8
gg1
 10
-0.214000
 20
0.704100
  0
SEQEND
  8
gg1
  0
POLYLINE
  8
gg1
 62
1
 40
0.000000
 41
0.000000
 66
  1
  0
VERTEX
  8
gg1
 10
-0.194000
 20
0.714100
  0
VERTEX
  8
gg1
 10
-0.194000
 20
0.734100
  0
SEQEND
  8
gg1
  0
POLYLINE
  8
gg1
 62
1
 40
0.000000
 41
0.000000
 66
  1
  0
VERTEX
  8
gg1
 10
-0.224000
 20
0.804000
  0
VERTEX
  8
gg1
 10
-0.214000
 20
0.784000
  0
VERTEX
  8
gg1
 10
-0.194000
 20
0.764000
  0
VERTEX
  8
gg1
 10
-0.174000
 20
0.764000
  0
VERTEX
  8
gg1
 10
-0.164000
 20
0.774000
  0
VERTEX
  8
gg1
 10
-0.164000
 20
0.794000
  0
VERTEX
  8
gg1
 10
-0.174000
 20
0.804000
  0
VERTEX
  8
gg1
 10
-0.184000
 20
0.804000
  0
VERTEX
  8
gg1
 10
-0.194000
 20
0.794000
  0
VERTEX
  8
gg1
 10
-0.194000
 20
0.764000
  0
SEQEND
  8
gg1
  0
POLYLINE
  8
gg1
 62
1
 40
0.000000
 41
0.000000
 66
  1
  0
VERTEX
  8
gg1
 10
-0.214000
 20
0.824000
  0
VERTEX
  8
gg1
 10
-0.224000
 20
0.834000
  0
VERTEX
  8
gg1
 10
-0.224000
 20
0.854000
  0
VERTEX
  8
gg1
 10
-0.214000
 20
0.864000
  0
VERTEX
  8
gg1
 10
-0.174000
 20
0.864000
  0
VERTEX
  8
gg1
 10
-0.164000
 20
0.854000
  0
VERTEX
  8
gg1
 10
-0.164000
 20
0.834000
  0
VERTEX
  8
gg1
 10
-0.174000
 20
0.824000
  0
VERTEX
  8
gg1
 10
-0.214000
 20
0.824000
  0
SEQEND
  8
gg1
  0
POLYLINE
  8
gg1
 62
1
 40
0.000000
 41
0.000000
 66
  1
  0
VERTEX
  8
gg1
 10
-0.164000
 20
0.964000
  0
VERTEX
  8
gg1
 10
-0.184000
 20
0.944000
  0
VERTEX
  8
gg1
 10
-0.204000
 20
0.944000
  0
VERTEX
  8
gg1
 10
-0.224000
 20
0.964000
  0
SEQEND
  8
gg1
  0
POLYLINE
  8
gg1
 62
1
 40
0.000000
 41
0.000000
 66
  1
  0
VERTEX
  8
gg1
 10
-0.164000
 20
0.994000
  0
VERTEX
  8
gg1
 10
-0.204000
 20
0.994000
  0
VERTEX
  8
gg1
 10
-0.204000
 20
1.004000
  0
VERTEX
  8
gg1
 10
-0.194000
 20
1.014000
  0
VERTEX
  8
gg1
 10
-0.164000
 20
1.014000
  0
VERTEX
  8
gg1
 10
-0.194000
 20
1.014000
  0
VERTEX
  8
gg1
 10
-0.204000
 20
1.024000
  0
VERTEX
  8
gg1
 10
-0.194000
 20
1.034000
  0
VERTEX
  8
gg1
 10
-0.164000
 20
1.034000
  0
SEQEND
  8
gg1
  0
POLYLINE
  8
gg1
 62
1
 40
0.000000
 41
0.000000
 66
  1
  0
VERTEX
  8
gg1
 10
-0.164000
 20
1.054000
  0
VERTEX
  8
gg1
 10
-0.164000
 20
1.073900
  0
VERTEX
  8
gg1
 10
-0.164000
 20
1.064000
  0
VERTEX
  8
gg1
 10
-0.204000
 20
1.064000
  0
VERTEX
  8
gg1
 10
-0.204000
 20
1.054000
  0
SEQEND
  8
gg1
  0
POLYLINE
  8
gg1
 62
1
 40
0.000000
 41
0.000000
 66
  1
  0
VERTEX
  8
gg1
 10
-0.164000
 20
1.103900
  0
VERTEX
  8
gg1
 10
-0.164000
 20
1.123900
  0
VERTEX
  8
gg1
 10
-0.164000
 20
1.113900
  0
VERTEX
  8
gg1
 10
-0.224000
 20
1.113900
  0
VERTEX
  8
gg1
 10
-0.224000
 20
1.103900
  0
SEQEND
  8
gg1
  0
POLYLINE
  8
gg1
 62
1
 40
0.000000
 41
0.000000
 66
  1
  0
VERTEX
  8
gg1
 10
-0.164000
 20
1.153900
  0
VERTEX
  8
gg1
 10
-0.184000
 20
1.173900
  0
VERTEX
  8
gg1
 10
-0.204000
 20
1.173900
  0
VERTEX
  8
gg1
 10
-0.224000
 20
1.153900
  0
SEQEND
  8
gg1
  0
POLYLINE
  8
gg1
 62
1
 40
0.000000
 41
0.000000
 66
  1
  0
VERTEX
  8
gg1
 10
0.654100
 20
-0.211000
  0
VERTEX
  8
gg1
 10
0.674100
 20
-0.211000
  0
VERTEX
  8
gg1
 10
0.664100
 20
-0.211000
  0
VERTEX
  8
gg1
 10
0.664100
 20
-0.151000
  0
VERTEX
  8
gg1
 10
0.654100
 20
-0.161000
  0
SEQEND
  8
gg1
  0
POLYLINE
  8
gg1
 62
1
 40
0.000000
 41
0.000000
 66
  1
  0
VERTEX
  8
gg1
 10
0.704100
 20
-0.161000
  0
VERTEX
  8
gg1
 10
0.714100
 20
-0.151000
  0
VERTEX
  8
gg1
 10
0.734100
 20
-0.151000
  0
VERTEX
  8
gg1
 10
0.744100
 20
-0.161000
  0
VERTEX
  8
gg1
 10
0.744100
 20
-0.171000
  0
VERTEX
  8
gg1
 10
0.734100
 20
-0.181000
  0
VERTEX
  8
gg1
 10
0.744100
 20
-0.191000
  0
VERTEX
  8
gg1
 10
0.744100
 20
-0.201000
  0
VERTEX
  8
gg1
 10
0.734100
 20
-0.211000
  0
VERTEX
  8
gg1
 10
0.714100
 20
-0.211000
  0
VERTEX
  8
gg1
 10
0.704100
 20
-0.201000
  0
VERTEX
  8
gg1
 10
0.704100
 20
-0.191000
  0
VERTEX
  8
gg1
 10
0.714100
 20
-0.181000
  0
VERTEX
  8
gg1
 10
0.704100
 20
-0.171000
  0
VERTEX
  8
gg1
 10
0.704100
 20
-0.161000
  0
SEQEND
  8
gg1
  0
POLYLINE
  8
gg1
 62
1
 40
0.000000
 41
0.000000
 66
  1
  0
VERTEX
  8
gg1
 10
0.714100
 20
-0.181000
  0
VERTEX
  8
gg1
 10
0.734100
 20
-0.181000
  0
SEQEND
  8
gg1
  0
POLYLINE
  8
gg1
 62
1
 40
0.000000
 41
0.000000
 66
  1
  0
VERTEX
  8
gg1
 10
0.804000
 20
-0.151000
  0
VERTEX
  8
gg1
 10
0.784000
 20
-0.161000
  0
VERTEX
  8
gg1
 10
0.764000
 20
-0.181000
  0
VERTEX
  8
gg1
 10
0.764000
 20
-0.201000
  0
VERTEX
  8
gg1
 10
0.774000
 20
-0.211000
  0
VERTEX
  8
gg1
 10
0.794000
 20
-0.211000
  0
VERTEX
  8
gg1
 10
0.804000
 20
-0.201000
  0
VERTEX
  8
gg1
 10
0.804000
 20
-0.191000
  0
VERTEX
  8
gg1
 10
0.794000
 20
-0.181000
  0
VERTEX
  8
gg1
 10
0.764000
 20
-0.181000
  0
SEQEND
  8
gg1
  0
POLYLINE
  8
gg1
 62
1
 40
0.000000
 41
0.000000
 66
  1
  0
VERTEX
  8
gg1
 10
0.824000
 20
-0.161000
  0
VERTEX
  8
gg1
 10
0.834000
 20
-0.151000
  0
VERTEX
  8
gg1
 10
0.854000
 20
-0.151000
  0
VERTEX
  8
gg1
 10
0.864000
 20
-0.161000
  0
VERTEX
  8
gg1
 10
0.864000
 20
-0.201000
  0
VERTEX
  8
gg1
 10
0.854000
 20
-0.211000
  0
VERTEX
  8
gg1
 10
0.834000
 20
-0.211000
  0
VERTEX
  8
gg1
 10
0.824000
 20
-0.201000
  0
VERTEX
  8
gg1
 10
0.824000
 20
-0.161000
  0
SEQEND
  8
gg1
  0
POLYLINE
  8
gg1
 62
1
 40
0.000000
 41
0.000000
 66
  1
  0
VERTEX
  8
gg1
 10
0.964000
 20
-0.211000
  0
VERTEX
  8
gg1
 10
0.944000
 20
-0.191000
  0
VERTEX
  8
gg1
 10
0.944000
 20
-0.171000
  0
VERTEX
  8
gg1
 10
0.964000
 20
-0.151000
  0
SEQEND
  8
gg1
  0
POLYLINE
  8
gg1
 62
1
 40
0.000000
 41
0.000000
 66
  1
  0
VERTEX
  8
gg1
 10
0.994000
 20
-0.211000
  0
VERTEX
  8
gg1
 10
0.994000
 20
-0.171000
  0
VERTEX
  8
gg1
 10
1.004000
 20
-0.171000
  0
VERTEX
  8
gg1
 10
1.014000
 20
-0.181000
  0
VERTEX
  8
gg1
 10
1.014000
 20
-0.211000
  0
VERTEX
  8
gg1
 10
1.014000
 20
-0.181000
  0
VERTEX
  8
gg1
 10
1.024000
 20
-0.171000
  0
VERTEX
  8
gg1
 10
1.034000
 20
-0.181000
  0
VERTEX
  8
gg1
 10
1.034000
 20
-0.211000
  0
SEQEND
  8
gg1
  0
POLYLINE
  8
gg1
 62
1
 40
0.000000
 41
0.000000
 66
  1
  0
VERTEX
  8
gg1
 10
1.054000
 20
-0.211000
  0
VERTEX
  8
gg1
 10
1.073900
 20
-0.211000
  0
VERTEX
  8
gg1
 10
1.064000
 20
-0.211000
  0
VERTEX
  8
gg1
 10
1.064000
 20
-0.171000
  0
VERTEX
  8
gg1
 10
1.054000
 20
-0.171000
  0
SEQEND
  8
gg1
  0
POLYLINE
  8
gg1
 62
1
 40
0.000000
 41
0.000000
 66
  1
  0
VERTEX
  8
gg1
 10
1.103900
 20
-0.211000
  0
VERTEX
  8
gg1
 10
1.123900
 20
-0.211000
  0
VERTEX
  8
gg1
 10
1.113900
 20
-0.211000
  0
VERTEX
  8
gg1
 10
1.113900
 20
-0.151000
  0
VERTEX
  8
gg1
 10
1.103900
 20
-0.151000
  0
SEQEND
  8
gg1
  0
POLYLINE
  8
gg1
 62
1
 40
0.000000
 41
0.000000
 66
  1
  0
VERTEX
  8
gg1
 10
1.153900
 20
-0.211000
  0
VERTEX
  8
gg1
 10
1.173900
 20
-0.191000
  0
VERTEX
  8
gg1
 10
1.173900
 20
-0.171000
  0
VERTEX
  8
gg1
 10
1.153900
 20
-0.151000
  0
SEQEND
  8
gg1
  0
POLYLINE
  8
gg1
 62
1
 40
0.000000
 41
0.000000
 66
  1
  0
VERTEX
  8
gg1
 10
1.659000
 20
0.535000
  0
VERTEX
  8
gg1
 10
1.701000
 20
0.535000
  0
SEQEND
  8
gg1
  0
POLYLINE
  8
gg1
 62
1
 40
0.000000
 41
0.000000
 66
  1
  0
VERTEX
  8
gg1
 10
1.680000
 20
0.514000
  0
VERTEX
  8
gg1
 10
1.680000
 20
0.556000
  0
SEQEND
  8
gg1
  0
POLYLINE
  8
gg1
 62
1
 40
0.000000
 41
0.000000
 66
  1
  0
VERTEX
  8
gg1
 10
0.159000
 20
0.535000
  0
VERTEX
  8
gg1
 10
0.201000
 20
0.535000
  0
SEQEND
  8
gg1
  0
POLYLINE
  8
gg1
 62
1
 40
0.000000
 41
0.000000
 66
  1
  0
VERTEX
  8
gg1
 10
0.180000
 20
0.514000
  0
VERTEX
  8
gg1
 10
0.180000
 20
0.556000
  0
SEQEND
  8
gg1
  0
POLYLINE
  8
gg1
 62
1
 40
0.000000
 41
0.000000
 66
  1
  0
VERTEX
  8
gg1
 10
0.809000
 20
0.919000
  0
VERTEX
  8
gg1
 10
0.851000
 20
0.919000
  0
SEQEND
  8
gg1
  0
POLYLINE
  8
gg1
 62
1
 40
0.000000
 41
0.000000
 66
  1
  0
VERTEX
  8
gg1
 10
0.830000
 20
0.898000
  0
VERTEX
  8
gg1
 10
0.830000
 20
0.940000
  0
SEQEND
  8
gg1
  0
POLYLINE
  8
gg1
 62
1
 40
0.000000
 41
0.000000
 66
  1
  0
VERTEX
  8
gg1
 10
1.009000
 20
0.919000
  0
VERTEX
  8
gg1
 10
1.051000
 20
0.919000
  0
SEQEND
  8
gg1
  0
POLYLINE
  8
gg1
 62
1
 40
0.000000
 41
0.000000
 66
  1
  0
VERTEX
  8
gg1
 10
1.030000
 20
0.898000
  0
VERTEX
  8
gg1
 10
1.030000
 20
0.940000
  0
SEQEND
  8
gg1
  0
POLYLINE
  8
gg1
 62
1
 40
0.000000
 41
0.000000
 66
  1
  0
VERTEX
  8
gg1
 10
0.209000
 20
1.782500
  0
VERTEX
  8
gg1
 10
0.251000
 20
1.782500
  0
SEQEND
  8
gg1
  0
POLYLINE
  8
gg1
 62
1
 40
0.000000
 41
0.000000
 66
  1
  0
VERTEX
  8
gg1
 10
0.230000
 20
1.761500
  0
VERTEX
  8
gg1
 10
0.230000
 20
1.803500
  0
SEQEND
  8
gg1
  0
POLYLINE
  8
gg1
 62
1
 40
0.000000
 41
0.000000
 66
  1
  0
VERTEX
  8
gg1
 10
0.309000
 20
1.782500
  0
VERTEX
  8
gg1
 10
0.351000
 20
1.782500
  0
SEQEND
  8
gg1
  0
POLYLINE
  8
gg1
 62
1
 40
0.000000
 41
0.000000
 66
  1
  0
VERTEX
  8
gg1
 10
0.330000
 20
1.761500
  0
VERTEX
  8
gg1
 10
0.330000
 20
1.803500
  0
SEQEND
  8
gg1
  0
POLYLINE
  8
gg1
 62
1
 40
0.000000
 41
0.000000
 66
  1
  0
VERTEX
  8
gg1
 10
0.409000
 20
1.782500
  0
VERTEX
  8
gg1
 10
0.451000
 20
1.782500
  0
SEQEND
  8
gg1
  0
POLYLINE
  8
gg1
 62
1
 40
0.000000
 41
0.000000
 66
  1
  0
VERTEX
  8
gg1
 10
0.430000
 20
1.761500
  0
VERTEX
  8
gg1
 10
0.430000
 20
1.803500
  0
SEQEND
  8
gg1
  0
POLYLINE
  8
gg1
 62
1
 40
0.000000
 41
0.000000
 66
  1
  0
VERTEX
  8
gg1
 10
0.509000
 20
1.782500
  0
VERTEX
  8
gg1
 10
0.551000
 20
1.782500
  0
SEQEND
  8
gg1
  0
POLYLINE
  8
gg1
 62
1
 40
0.000000
 41
0.000000
 66
  1
  0
VERTEX
  8
gg1
 10
0.530000
 20
1.761500
  0
VERTEX
  8
gg1
 10
0.530000
 20
1.803500
  0
SEQEND
  8
gg1
  0
POLYLINE
  8
gg1
 62
1
 40
0.000000
 41
0.000000
 66
  1
  0
VERTEX
  8
gg1
 10
0.609000
 20
1.782500
  0
VERTEX
  8
gg1
 10
0.651000
 20
1.782500
  0
SEQEND
  8
gg1
  0
POLYLINE
  8
gg1
 62
1
 40
0.000000
 41
0.000000
 66
  1
  0
VERTEX
  8
gg1
 10
0.630000
 20
1.761500
  0
VERTEX
  8
gg1
 10
0.630000
 20
1.803500
  0
SEQEND
  8
gg1
  0
POLYLINE
  8
gg1
 62
1
 40
0.000000
 41
0.000000
 66
  1
  0
VERTEX
  8
gg1
 10
0.387000
 20
0.160000
  0
VERTEX
  8
gg1
 10
0.473000
 20
0.160000
  0
SEQEND
  8
gg1
  0
POLYLINE
  8
gg1
 62
1
 40
0.000000
 41
0.000000
 66
  1
  0
VERTEX
  8
gg1
 10
0.430000
 20
0.117000
  0
VERTEX
  8
gg1
 10
0.430000
 20
0.203000
  0
SEQEND
  8
gg1
  0
POLYLINE
  8
gg1
 62
1
 40
0.000000
 41
0.000000
 66
  1
  0
VERTEX
  8
gg1
 10
0.587000
 20
0.160000
  0
VERTEX
  8
gg1
 10
0.673000
 20
0.160000
  0
SEQEND
  8
gg1
  0
POLYLINE
  8
gg1
 62
1
 40
0.000000
 41
0.000000
 66
  1
  0
VERTEX
  8
gg1
 10
0.630000
 20
0.117000
  0
VERTEX
  8
gg1
 10
0.630000
 20
0.203000
  0
SEQEND
  8
gg1
  0
POLYLINE
  8
gg1
 62
1
 40
0.000000
 41
0.000000
 66
  1
  0
VERTEX
  8
gg1
 10
0.787000
 20
0.160000
  0
VERTEX
  8
gg1
 10
0.873000
 20
0.160000
  0
SEQEND
  8
gg1
  0
POLYLINE
  8
gg1
 62
1
 40
0.000000
 41
0.000000
 66
  1
  0
VERTEX
  8
gg1
 10
0.830000
 20
0.117000
  0
VERTEX
  8
gg1
 10
0.830000
 20
0.203000
  0
SEQEND
  8
gg1
  0
POLYLINE
  8
gg1
 62
1
 40
0.000000
 41
0.000000
 66
  1
  0
VERTEX
  8
gg1
 10
0.987000
 20
0.160000
  0
VERTEX
  8
gg1
 10
1.073000
 20
0.160000
  0
SEQEND
  8
gg1
  0
POLYLINE
  8
gg1
 62
1
 40
0.000000
 41
0.000000
 66
  1
  0
VERTEX
  8
gg1
 10
1.030000
 20
0.117000
  0
VERTEX
  8
gg1
 10
1.030000
 20
0.203000
  0
SEQEND
  8
gg1
  0
POLYLINE
  8
gg1
 62
1
 40
0.000000
 41
0.000000
 66
  1
  0
VERTEX
  8
gg1
 10
1.109000
 20
1.782500
  0
VERTEX
  8
gg1
 10
1.151000
 20
1.782500
  0
SEQEND
  8
gg1
  0
POLYLINE
  8
gg1
 62
1
 40
0.000000
 41
0.000000
 66
  1
  0
VERTEX
  8
gg1
 10
1.130000
 20
1.761500
  0
VERTEX
  8
gg1
 10
1.130000
 20
1.803500
  0
SEQEND
  8
gg1
  0
POLYLINE
  8
gg1
 62
1
 40
0.000000
 41
0.000000
 66
  1
  0
VERTEX
  8
gg1
 10
1.009000
 20
1.782500
  0
VERTEX
  8
gg1
 10
1.051000
 20
1.782500
  0
SEQEND
  8
gg1
  0
POLYLINE
  8
gg1
 62
1
 40
0.000000
 41
0.000000
 66
  1
  0
VERTEX
  8
gg1
 10
1.030000
 20
1.761500
  0
VERTEX
  8
gg1
 10
1.030000
 20
1.803500
  0
SEQEND
  8
gg1
  0
POLYLINE
  8
gg1
 62
1
 40
0.000000
 41
0.000000
 66
  1
  0
VERTEX
  8
gg1
 10
0.909000
 20
1.782500
  0
VERTEX
  8
gg1
 10
0.951000
 20
1.782500
  0
SEQEND
  8
gg1
  0
POLYLINE
  8
gg1
 62
1
 40
0.000000
 41
0.000000
 66
  1
  0
VERTEX
  8
gg1
 10
0.930000
 20
1.761500
  0
VERTEX
  8
gg1
 10
0.930000
 20
1.803500
  0
SEQEND
  8
gg1
  0
POLYLINE
  8
gg1
 62
1
 40
0.000000
 41
0.000000
 66
  1
  0
VERTEX
  8
gg1
 10
0.809000
 20
1.782500
  0
VERTEX
  8
gg1
 10
0.851000
 20
1.782500
  0
SEQEND
  8
gg1
  0
POLYLINE
  8
gg1
 62
1
 40
0.000000
 41
0.000000
 66
  1
  0
VERTEX
  8
gg1
 10
0.830000
 20
1.761500
  0
VERTEX
  8
gg1
 10
0.830000
 20
1.803500
  0
SEQEND
  8
gg1
  0
POLYLINE
  8
gg1
 62
1
 40
0.000000
 41
0.000000
 66
  1
  0
VERTEX
  8
gg1
 10
0.709000
 20
1.782500
  0
VERTEX
  8
gg1
 10
0.751000
 20
1.782500
  0
SEQEND
  8
gg1
  0
POLYLINE
  8
gg1
 62
1
 40
0.000000
 41
0.000000
 66
  1
  0
VERTEX
  8
gg1
 10
0.730000
 20
1.761500
  0
VERTEX
  8
gg1
 10
0.730000
 20
1.803500
  0
SEQEND
  8
gg1
  0
POLYLINE
  8
gg1
 62
1
 40
0.000000
 41
0.000000
 66
  1
  0
VERTEX
  8
gg1
 10
1.269300
 20
1.680000
  0
VERTEX
  8
gg1
 10
1.299300
 20
1.680000
  0
SEQEND
  8
gg1
  0
POLYLINE
  8
gg1
 62
1
 40
0.000000
 41
0.000000
 66
  1
  0
VERTEX
  8
gg1
 10
1.284300
 20
1.665000
  0
VERTEX
  8
gg1
 10
1.284300
 20
1.695000
  0
SEQEND
  8
gg1
  0
POLYLINE
  8
gg1
 62
1
 40
0.000000
 41
0.000000
 66
  1
  0
VERTEX
  8
gg1
 10
1.190600
 20
1.680000
  0
VERTEX
  8
gg1
 10
1.220600
 20
1.680000
  0
SEQEND
  8
gg1
  0
POLYLINE
  8
gg1
 62
1
 40
0.000000
 41
0.000000
 66
  1
  0
VERTEX
  8
gg1
 10
1.205600
 20
1.665000
  0
VERTEX
  8
gg1
 10
1.205600
 20
1.695000
  0
SEQEND
  8
gg1
  0
POLYLINE
  8
gg1
 62
1
 40
0.000000
 41
0.000000
 66
  1
  0
VERTEX
  8
gg1
 10
1.111900
 20
1.680000
  0
VERTEX
  8
gg1
 10
1.141900
 20
1.680000
  0
SEQEND
  8
gg1
  0
POLYLINE
  8
gg1
 62
1
 40
0.000000
 41
0.000000
 66
  1
  0
VERTEX
  8
gg1
 10
1.126900
 20
1.665000
  0
VERTEX
  8
gg1
 10
1.126900
 20
1.695000
  0
SEQEND
  8
gg1
  0
POLYLINE
  8
gg1
 62
1
 40
0.000000
 41
0.000000
 66
  1
  0
VERTEX
  8
gg1
 10
1.033100
 20
1.680000
  0
VERTEX
  8
gg1
 10
1.063100
 20
1.680000
  0
SEQEND
  8
gg1
  0
POLYLINE
  8
gg1
 62
1
 40
0.000000
 41
0.000000
 66
  1
  0
VERTEX
  8
gg1
 10
1.048100
 20
1.665000
  0
VERTEX
  8
gg1
 10
1.048100
 20
1.695000
  0
SEQEND
  8
gg1
  0
POLYLINE
  8
gg1
 62
1
 40
0.000000
 41
0.000000
 66
  1
  0
VERTEX
  8
gg1
 10
0.954400
 20
1.680000
  0
VERTEX
  8
gg1
 10
0.984400
 20
1.680000
  0
SEQEND
  8
gg1
  0
POLYLINE
  8
gg1
 62
1
 40
0.000000
 41
0.000000
 66
  1
  0
VERTEX
  8
gg1
 10
0.969400
 20
1.665000
  0
VERTEX
  8
gg1
 10
0.969400
 20
1.695000
  0
SEQEND
  8
gg1
  0
POLYLINE
  8
gg1
 62
1
 40
0.000000
 41
0.000000
 66
  1
  0
VERTEX
  8
gg1
 10
1.269300
 20
1.601300
  0
VERTEX
  8
gg1
 10
1.299300
 20
1.601300
  0
SEQEND
  8
gg1
  0
POLYLINE
  8
gg1
 62
1
 40
0.000000
 41
0.000000
 66
  1
  0
VERTEX
  8
gg1
 10
1.284300
 20
1.586300
  0
VERTEX
  8
gg1
 10
1.284300
 20
1.616300
  0
SEQEND
  8
gg1
  0
POLYLINE
  8
gg1
 62
1
 40
0.000000
 41
0.000000
 66
  1
  0
VERTEX
  8
gg1
 10
1.190600
 20
1.601300
  0
VERTEX
  8
gg1
 10
1.220600
 20
1.601300
  0
SEQEND
  8
gg1
  0
POLYLINE
  8
gg1
 62
1
 40
0.000000
 41
0.000000
 66
  1
  0
VERTEX
  8
gg1
 10
1.205600
 20
1.586300
  0
VERTEX
  8
gg1
 10
1.205600
 20
1.616300
  0
SEQEND
  8
gg1
  0
POLYLINE
  8
gg1
 62
1
 40
0.000000
 41
0.000000
 66
  1
  0
VERTEX
  8
gg1
 10
1.111900
 20
1.601300
  0
VERTEX
  8
gg1
 10
1.141900
 20
1.601300
  0
SEQEND
  8
gg1
  0
POLYLINE
  8
gg1
 62
1
 40
0.000000
 41
0.000000
 66
  1
  0
VERTEX
  8
gg1
 10
1.126900
 20
1.586300
  0
VERTEX
  8
gg1
 10
1.126900
 20
1.616300
  0
SEQEND
  8
gg1
  0
POLYLINE
  8
gg1
 62
1
 40
0.000000
 41
0.000000
 66
  1
  0
VERTEX
  8
gg1
 10
1.033100
 20
1.601300
  0
VERTEX
  8
gg1
 10
1.063100
 20
1.601300
  0
SEQEND
  8
gg1
  0
POLYLINE
  8
gg1
 62
1
 40
0.000000
 41
0.000000
 66
  1
  0
VERTEX
  8
gg1
 10
1.048100
 20
1.586300
  0
VERTEX
  8
gg1
 10
1.048100
 20
1.616300
  0
SEQEND
  8
gg1
  0
POLYLINE
  8
gg1
 62
1
 40
0.000000
 41
0.000000
 66
  1
  0
VERTEX
  8
gg1
 10
0.954400
 20
1.601300
  0
VERTEX
  8
gg1
 10
0.984400
 20
1.601300
  0
SEQEND
  8
gg1
  0
POLYLINE
  8
gg1
 62
1
 40
0.000000
 41
0.000000
 66
  1
  0
VERTEX
  8
gg1
 10
0.969400
 20
1.586300
  0
VERTEX
  8
gg1
 10
0.969400
 20
1.616300
  0
SEQEND
  8
gg1
  0
POLYLINE
  8
gg1
 62
1
 40
0.000000
 41
0.000000
 66
  1
  0
VERTEX
  8
gg1
 10
0.560700
 20
1.601300
  0
VERTEX
  8
gg1
 10
0.590700
 20
1.601300
  0
SEQEND
  8
gg1
  0
POLYLINE
  8
gg1
 62
1
 40
0.000000
 41
0.000000
 66
  1
  0
VERTEX
  8
gg1
 10
0.575700
 20
1.586300
  0
VERTEX
  8
gg1
 10
0.575700
 20
1.616300
  0
SEQEND
  8
gg1
  0
POLYLINE
  8
gg1
 62
1
 40
0.000000
 41
0.000000
 66
  1
  0
VERTEX
  8
gg1
 10
0.639400
 20
1.601300
  0
VERTEX
  8
gg1
 10
0.669400
 20
1.601300
  0
SEQEND
  8
gg1
  0
POLYLINE
  8
gg1
 62
1
 40
0.000000
 41
0.000000
 66
  1
  0
VERTEX
  8
gg1
 10
0.654400
 20
1.586300
  0
VERTEX
  8
gg1
 10
0.654400
 20
1.616300
  0
SEQEND
  8
gg1
  0
POLYLINE
  8
gg1
 62
1
 40
0.000000
 41
0.000000
 66
  1
  0
VERTEX
  8
gg1
 10
0.718200
 20
1.601300
  0
VERTEX
  8
gg1
 10
0.748100
 20
1.601300
  0
SEQEND
  8
gg1
  0
POLYLINE
  8
gg1
 62
1
 40
0.000000
 41
0.000000
 66
  1
  0
VERTEX
  8
gg1
 10
0.733200
 20
1.586300
  0
VERTEX
  8
gg1
 10
0.733200
 20
1.616300
  0
SEQEND
  8
gg1
  0
POLYLINE
  8
gg1
 62
1
 40
0.000000
 41
0.000000
 66
  1
  0
VERTEX
  8
gg1
 10
0.796900
 20
1.601300
  0
VERTEX
  8
gg1
 10
0.826900
 20
1.601300
  0
SEQEND
  8
gg1
  0
POLYLINE
  8
gg1
 62
1
 40
0.000000
 41
0.000000
 66
  1
  0
VERTEX
  8
gg1
 10
0.811900
 20
1.586300
  0
VERTEX
  8
gg1
 10
0.811900
 20
1.616300
  0
SEQEND
  8
gg1
  0
POLYLINE
  8
gg1
 62
1
 40
0.000000
 41
0.000000
 66
  1
  0
VERTEX
  8
gg1
 10
0.875600
 20
1.601300
  0
VERTEX
  8
gg1
 10
0.905600
 20
1.601300
  0
SEQEND
  8
gg1
  0
POLYLINE
  8
gg1
 62
1
 40
0.000000
 41
0.000000
 66
  1
  0
VERTEX
  8
gg1
 10
0.890600
 20
1.586300
  0
VERTEX
  8
gg1
 10
0.890600
 20
1.616300
  0
SEQEND
  8
gg1
  0
POLYLINE
  8
gg1
 62
1
 40
0.000000
 41
0.000000
 66
  1
  0
VERTEX
  8
gg1
 10
0.560700
 20
1.680000
  0
VERTEX
  8
gg1
 10
0.590700
 20
1.680000
  0
SEQEND
  8
gg1
  0
POLYLINE
  8
gg1
 62
1
 40
0.000000
 41
0.000000
 66
  1
  0
VERTEX
  8
gg1
 10
0.575700
 20
1.665000
  0
VERTEX
  8
gg1
 10
0.575700
 20
1.695000
  0
SEQEND
  8
gg1
  0
POLYLINE
  8
gg1
 62
1
 40
0.000000
 41
0.000000
 66
  1
  0
VERTEX
  8
gg1
 10
0.639400
 20
1.680000
  0
VERTEX
  8
gg1
 10
0.669400
 20
1.680000
  0
SEQEND
  8
gg1
  0
POLYLINE
  8
gg1
 62
1
 40
0.000000
 41
0.000000
 66
  1
  0
VERTEX
  8
gg1
 10
0.654400
 20
1.665000
  0
VERTEX
  8
gg1
 10
0.654400
 20
1.695000
  0
SEQEND
  8
gg1
  0
POLYLINE
  8
gg1
 62
1
 40
0.000000
 41
0.000000
 66
  1
  0
VERTEX
  8
gg1
 10
0.718200
 20
1.680000
  0
VERTEX
  8
gg1
 10
0.748100
 20
1.680000
  0
SEQEND
  8
gg1
  0
POLYLINE
  8
gg1
 62
1
 40
0.000000
 41
0.000000
 66
  1
  0
VERTEX
  8
gg1
 10
0.733200
 20
1.665000
  0
VERTEX
  8
gg1
 10
0.733200
 20
1.695000
  0
SEQEND
  8
gg1
  0
POLYLINE
  8
gg1
 62
1
 40
0.000000
 41
0.000000
 66
  1
  0
VERTEX
  8
gg1
 10
0.796900
 20
1.680000
  0
VERTEX
  8
gg1
 10
0.826900
 20
1.680000
  0
SEQEND
  8
gg1
  0
POLYLINE
  8
gg1
 62
1
 40
0.000000
 41
0.000000
 66
  1
  0
VERTEX
  8
gg1
 10
0.811900
 20
1.665000
  0
VERTEX
  8
gg1
 10
0.811900
 20
1.695000
  0
SEQEND
  8
gg1
  0
POLYLINE
  8
gg1
 62
1
 40
0.000000
 41
0.000000
 66
  1
  0
VERTEX
  8
gg1
 10
0.875600
 20
1.680000
  0
VERTEX
  8
gg1
 10
0.905600
 20
1.680000
  0
SEQEND
  8
gg1
  0
POLYLINE
  8
gg1
 62
1
 40
0.000000
 41
0.000000
 66
  1
  0
VERTEX
  8
gg1
 10
0.890600
 20
1.665000
  0
VERTEX
  8
gg1
 10
0.890600
 20
1.695000
  0
SEQEND
  8
gg1
  0
POLYLINE
  8
gg1
 62
1
 40
0.000000
 41
0.000000
 66
  1
  0
VERTEX
  8
gg1
 10
1.187000
 20
0.160000
  0
VERTEX
  8
gg1
 10
1.273000
 20
0.160000
  0
SEQEND
  8
gg1
  0
POLYLINE
  8
gg1
 62
1
 40
0.000000
 41
0.000000
 66
  1
  0
VERTEX
  8
gg1
 10
1.230000
 20
0.117000
  0
VERTEX
  8
gg1
 10
1.230000
 20
0.203000
  0
SEQEND
  8
gg1
  0
POLYLINE
  8
gg1
 62
1
 40
0.000000
 41
0.000000
 66
  1
  0
VERTEX
  8
gg1
 10
1.387000
 20
0.160000
  0
VERTEX
  8
gg1
 10
1.473000
 20
0.160000
  0
SEQEND
  8
gg1
  0
POLYLINE
  8
gg1
 62
1
 40
0.000000
 41
0.000000
 66
  1
  0
VERTEX
  8
gg1
 10
1.430000
 20
0.117000
  0
VERTEX
  8
gg1
 10
1.430000
 20
0.203000
  0
SEQEND
  8
gg1
  0
POLYLINE
  8
gg1
 62
1
 40
0.000000
 41
0.000000
 66
  1
  0
VERTEX
  8
gg1
 10
1.609000
 20
1.782500
  0
VERTEX
  8
gg1
 10
1.651000
 20
1.782500
  0
SEQEND
  8
gg1
  0
POLYLINE
  8
gg1
 62
1
 40
0.000000
 41
0.000000
 66
  1
  0
VERTEX
  8
gg1
 10
1.630000
 20
1.761500
  0
VERTEX
  8
gg1
 10
1.630000
 20
1.803500
  0
SEQEND
  8
gg1
  0
POLYLINE
  8
gg1
 62
1
 40
0.000000
 41
0.000000
 66
  1
  0
VERTEX
  8
gg1
 10
1.509000
 20
1.782500
  0
VERTEX
  8
gg1
 10
1.551000
 20
1.782500
  0
SEQEND
  8
gg1
  0
POLYLINE
  8
gg1
 62
1
 40
0.000000
 41
0.000000
 66
  1
  0
VERTEX
  8
gg1
 10
1.530000
 20
1.761500
  0
VERTEX
  8
gg1
 10
1.530000
 20
1.803500
  0
SEQEND
  8
gg1
  0
POLYLINE
  8
gg1
 62
1
 40
0.000000
 41
0.000000
 66
  1
  0
VERTEX
  8
gg1
 10
1.409000
 20
1.782500
  0
VERTEX
  8
gg1
 10
1.451000
 20
1.782500
  0
SEQEND
  8
gg1
  0
POLYLINE
  8
gg1
 62
1
 40
0.000000
 41
0.000000
 66
  1
  0
VERTEX
  8
gg1
 10
1.430000
 20
1.761500
  0
VERTEX
  8
gg1
 10
1.430000
 20
1.803500
  0
SEQEND
  8
gg1
  0
POLYLINE
  8
gg1
 62
1
 40
0.000000
 41
0.000000
 66
  1
  0
VERTEX
  8
gg1
 10
1.309000
 20
1.782500
  0
VERTEX
  8
gg1
 10
1.351000
 20
1.782500
  0
SEQEND
  8
gg1
  0
POLYLINE
  8
gg1
 62
1
 40
0.000000
 41
0.000000
 66
  1
  0
VERTEX
  8
gg1
 10
1.330000
 20
1.761500
  0
VERTEX
  8
gg1
 10
1.330000
 20
1.803500
  0
SEQEND
  8
gg1
  0
POLYLINE
  8
gg1
 62
1
 40
0.000000
 41
0.000000
 66
  1
  0
VERTEX
  8
gg1
 10
1.209000
 20
1.782500
  0
VERTEX
  8
gg1
 10
1.251000
 20
1.782500
  0
SEQEND
  8
gg1
  0
POLYLINE
  8
gg1
 62
1
 40
0.000000
 41
0.000000
 66
  1
  0
VERTEX
  8
gg1
 10
1.230000
 20
1.761500
  0
VERTEX
  8
gg1
 10
1.230000
 20
1.803500
  0
SEQEND
  8
gg1
  0
POLYLINE
  8
gg1
 62
1
 40
0.000000
 41
0.000000
 66
  1
  0
VERTEX
  8
gg1
 10
1.667500
 20
0.130000
  0
VERTEX
  8
gg1
 10
1.792500
 20
0.130000
  0
SEQEND
  8
gg1
  0
POLYLINE
  8
gg1
 62
1
 40
0.000000
 41
0.000000
 66
  1
  0
VERTEX
  8
gg1
 10
1.730000
 20
0.067500
  0
VERTEX
  8
gg1
 10
1.730000
 20
0.192500
  0
SEQEND
  8
gg1
  0
POLYLINE
  8
gg1
 62
1
 40
0.000000
 41
0.000000
 66
  1
  0
VERTEX
  8
gg1
 10
1.009000
 20
1.344000
  0
VERTEX
  8
gg1
 10
1.051000
 20
1.344000
  0
SEQEND
  8
gg1
  0
POLYLINE
  8
gg1
 62
1
 40
0.000000
 41
0.000000
 66
  1
  0
VERTEX
  8
gg1
 10
1.030000
 20
1.323000
  0
VERTEX
  8
gg1
 10
1.030000
 20
1.365000
  0
SEQEND
  8
gg1
  0
POLYLINE
  8
gg1
 62
1
 40
0.000000
 41
0.000000
 66
  1
  0
VERTEX
  8
gg1
 10
0.809000
 20
1.344000
  0
VERTEX
  8
gg1
 10
0.851000
 20
1.344000
  0
SEQEND
  8
gg1
  0
POLYLINE
  8
gg1
 62
1
 40
0.000000
 41
0.000000
 66
  1
  0
VERTEX
  8
gg1
 10
0.830000
 20
1.323000
  0
VERTEX
  8
gg1
 10
0.830000
 20
1.365000
  0
SEQEND
  8
gg1
  0
POLYLINE
  8
gg1
 62
1
 40
0.000000
 41
0.000000
 66
  1
  0
VERTEX
  8
gg1
 10
0.067500
 20
0.130000
  0
VERTEX
  8
gg1
 10
0.192500
 20
0.130000
  0
SEQEND
  8
gg1
  0
POLYLINE
  8
gg1
 62
1
 40
0.000000
 41
0.000000
 66
  1
  0
VERTEX
  8
gg1
 10
0.130000
 20
0.067500
  0
VERTEX
  8
gg1
 10
0.130000
 20
0.192500
  0
SEQEND
  8
gg1
  0
POLYLINE
  8
gg1
 62
1
 40
0.000000
 41
0.000000
 66
  1
  0
VERTEX
  8
gg1
 10
0.761000
 20
1.543000
  0
VERTEX
  8
gg1
 10
0.781000
 20
1.543000
  0
SEQEND
  8
gg1
  0
POLYLINE
  8
gg1
 62
1
 40
0.000000
 41
0.000000
 66
  1
  0
VERTEX
  8
gg1
 10
0.771000
 20
1.533000
  0
VERTEX
  8
gg1
 10
0.771000
 20
1.553000
  0
SEQEND
  8
gg1
  0
POLYLINE
  8
gg1
 62
1
 40
0.000000
 41
0.000000
 66
  1
  0
VERTEX
  8
gg1
 10
1.501000
 20
1.581000
  0
VERTEX
  8
gg1
 10
1.521000
 20
1.581000
  0
SEQEND
  8
gg1
  0
POLYLINE
  8
gg1
 62
1
 40
0.000000
 41
0.000000
 66
  1
  0
VERTEX
  8
gg1
 10
1.511000
 20
1.571000
  0
VERTEX
  8
gg1
 10
1.511000
 20
1.591000
  0
SEQEND
  8
gg1
  0
POLYLINE
  8
gg1
 62
1
 40
0.000000
 41
0.000000
 66
  1
  0
VERTEX
  8
gg1
 10
0.142000
 20
1.728000
  0
VERTEX
  8
gg1
 10
0.162000
 20
1.728000
  0
SEQEND
  8
gg1
  0
POLYLINE
  8
gg1
 62
1
 40
0.000000
 41
0.000000
 66
  1
  0
VERTEX
  8
gg1
 10
0.152000
 20
1.718000
  0
VERTEX
  8
gg1
 10
0.152000
 20
1.738000
  0
SEQEND
  8
gg1
  0
POLYLINE
  8
gg1
 62
1
 40
0.000000
 41
0.000000
 66
  1
  0
VERTEX
  8
gg1
 10
0.143000
 20
1.793000
  0
VERTEX
  8
gg1
 10
0.163000
 20
1.793000
  0
SEQEND
  8
gg1
  0
POLYLINE
  8
gg1
 62
1
 40
0.000000
 41
0.000000
 66
  1
  0
VERTEX
  8
gg1
 10
0.153000
 20
1.783000
  0
VERTEX
  8
gg1
 10
0.153000
 20
1.803000
  0
SEQEND
  8
gg1
  0
POLYLINE
  8
gg1
 62
1
 40
0.000000
 41
0.000000
 66
  1
  0
VERTEX
  8
gg1
 10
1.765000
 20
0.875000
  0
VERTEX
  8
gg1
 10
1.785000
 20
0.875000
  0
SEQEND
  8
gg1
  0
POLYLINE
  8
gg1
 62
1
 40
0.000000
 41
0.000000
 66
  1
  0
VERTEX
  8
gg1
 10
1.775000
 20
0.865000
  0
VERTEX
  8
gg1
 10
1.775000
 20
0.885000
  0
SEQEND
  8
gg1
  0
POLYLINE
  8
gg1
 62
1
 40
0.000000
 41
0.000000
 66
  1
  0
VERTEX
  8
gg1
 10
1.715000
 20
0.875000
  0
VERTEX
  8
gg1
 10
1.735000
 20
0.875000
  0
SEQEND
  8
gg1
  0
POLYLINE
  8
gg1
 62
1
 40
0.000000
 41
0.000000
 66
  1
  0
VERTEX
  8
gg1
 10
1.725000
 20
0.865000
  0
VERTEX
  8
gg1
 10
1.725000
 20
0.885000
  0
SEQEND
  8
gg1
  0
POLYLINE
  8
gg1
 62
1
 40
0.000000
 41
0.000000
 66
  1
  0
VERTEX
  8
gg1
 10
1.665000
 20
0.875000
  0
VERTEX
  8
gg1
 10
1.685000
 20
0.875000
  0
SEQEND
  8
gg1
  0
POLYLINE
  8
gg1
 62
1
 40
0.000000
 41
0.000000
 66
  1
  0
VERTEX
  8
gg1
 10
1.675000
 20
0.865000
  0
VERTEX
  8
gg1
 10
1.675000
 20
0.885000
  0
SEQEND
  8
gg1
  0
POLYLINE
  8
gg1
 62
1
 40
0.000000
 41
0.000000
 66
  1
  0
VERTEX
  8
gg1
 10
1.615000
 20
0.875000
  0
VERTEX
  8
gg1
 10
1.635000
 20
0.875000
  0
SEQEND
  8
gg1
  0
POLYLINE
  8
gg1
 62
1
 40
0.000000
 41
0.000000
 66
  1
  0
VERTEX
  8
gg1
 10
1.625000
 20
0.865000
  0
VERTEX
  8
gg1
 10
1.625000
 20
0.885000
  0
SEQEND
  8
gg1
  0
POLYLINE
  8
gg1
 62
1
 40
0.000000
 41
0.000000
 66
  1
  0
VERTEX
  8
gg1
 10
1.565000
 20
0.875000
  0
VERTEX
  8
gg1
 10
1.585000
 20
0.875000
  0
SEQEND
  8
gg1
  0
POLYLINE
  8
gg1
 62
1
 40
0.000000
 41
0.000000
 66
  1
  0
VERTEX
  8
gg1
 10
1.575000
 20
0.865000
  0
VERTEX
  8
gg1
 10
1.575000
 20
0.885000
  0
SEQEND
  8
gg1
  0
POLYLINE
  8
gg1
 62
1
 40
0.000000
 41
0.000000
 66
  1
  0
VERTEX
  8
gg1
 10
1.415000
 20
0.875000
  0
VERTEX
  8
gg1
 10
1.435000
 20
0.875000
  0
SEQEND
  8
gg1
  0
POLYLINE
  8
gg1
 62
1
 40
0.000000
 41
0.000000
 66
  1
  0
VERTEX
  8
gg1
 10
1.425000
 20
0.865000
  0
VERTEX
  8
gg1
 10
1.425000
 20
0.885000
  0
SEQEND
  8
gg1
  0
POLYLINE
  8
gg1
 62
1
 40
0.000000
 41
0.000000
 66
  1
  0
VERTEX
  8
gg1
 10
1.365000
 20
0.875000
  0
VERTEX
  8
gg1
 10
1.385000
 20
0.875000
  0
SEQEND
  8
gg1
  0
POLYLINE
  8
gg1
 62
1
 40
0.000000
 41
0.000000
 66
  1
  0
VERTEX
  8
gg1
 10
1.375000
 20
0.865000
  0
VERTEX
  8
gg1
 10
1.375000
 20
0.885000
  0
SEQEND
  8
gg1
  0
POLYLINE
  8
gg1
 62
1
 40
0.000000
 41
0.000000
 66
  1
  0
VERTEX
  8
gg1
 10
1.315000
 20
0.875000
  0
VERTEX
  8
gg1
 10
1.335000
 20
0.875000
  0
SEQEND
  8
gg1
  0
POLYLINE
  8
gg1
 62
1
 40
0.000000
 41
0.000000
 66
  1
  0
VERTEX
  8
gg1
 10
1.325000
 20
0.865000
  0
VERTEX
  8
gg1
 10
1.325000
 20
0.885000
  0
SEQEND
  8
gg1
  0
POLYLINE
  8
gg1
 62
1
 40
0.000000
 41
0.000000
 66
  1
  0
VERTEX
  8
gg1
 10
1.265000
 20
0.875000
  0
VERTEX
  8
gg1
 10
1.285000
 20
0.875000
  0
SEQEND
  8
gg1
  0
POLYLINE
  8
gg1
 62
1
 40
0.000000
 41
0.000000
 66
  1
  0
VERTEX
  8
gg1
 10
1.275000
 20
0.865000
  0
VERTEX
  8
gg1
 10
1.275000
 20
0.885000
  0
SEQEND
  8
gg1
  0
POLYLINE
  8
gg1
 62
1
 40
0.000000
 41
0.000000
 66
  1
  0
VERTEX
  8
gg1
 10
1.215000
 20
0.875000
  0
VERTEX
  8
gg1
 10
1.235000
 20
0.875000
  0
SEQEND
  8
gg1
  0
POLYLINE
  8
gg1
 62
1
 40
0.000000
 41
0.000000
 66
  1
  0
VERTEX
  8
gg1
 10
1.225000
 20
0.865000
  0
VERTEX
  8
gg1
 10
1.225000
 20
0.885000
  0
SEQEND
  8
gg1
  0
POLYLINE
  8
gg1
 62
1
 40
0.000000
 41
0.000000
 66
  1
  0
VERTEX
  8
gg1
 10
0.065000
 20
0.875000
  0
VERTEX
  8
gg1
 10
0.085000
 20
0.875000
  0
SEQEND
  8
gg1
  0
POLYLINE
  8
gg1
 62
1
 40
0.000000
 41
0.000000
 66
  1
  0
VERTEX
  8
gg1
 10
0.075000
 20
0.865000
  0
VERTEX
  8
gg1
 10
0.075000
 20
0.885000
  0
SEQEND
  8
gg1
  0
POLYLINE
  8
gg1
 62
1
 40
0.000000
 41
0.000000
 66
  1
  0
VERTEX
  8
gg1
 10
0.115000
 20
0.875000
  0
VERTEX
  8
gg1
 10
0.135000
 20
0.875000
  0
SEQEND
  8
gg1
  0
POLYLINE
  8
gg1
 62
1
 40
0.000000
 41
0.000000
 66
  1
  0
VERTEX
  8
gg1
 10
0.125000
 20
0.865000
  0
VERTEX
  8
gg1
 10
0.125000
 20
0.885000
  0
SEQEND
  8
gg1
  0
POLYLINE
  8
gg1
 62
1
 40
0.000000
 41
0.000000
 66
  1
  0
VERTEX
  8
gg1
 10
0.165000
 20
0.875000
  0
VERTEX
  8
gg1
 10
0.185000
 20
0.875000
  0
SEQEND
  8
gg1
  0
POLYLINE
  8
gg1
 62
1
 40
0.000000
 41
0.000000
 66
  1
  0
VERTEX
  8
gg1
 10
0.175000
 20
0.865000
  0
VERTEX
  8
gg1
 10
0.175000
 20
0.885000
  0
SEQEND
  8
gg1
  0
POLYLINE
  8
gg1
 62
1
 40
0.000000
 41
0.000000
 66
  1
  0
VERTEX
  8
gg1
 10
0.215000
 20
0.875000
  0
VERTEX
  8
gg1
 10
0.235000
 20
0.875000
  0
SEQEND
  8
gg1
  0
POLYLINE
  8
gg1
 62
1
 40
0.000000
 41
0.000000
 66
  1
  0
VERTEX
  8
gg1
 10
0.225000
 20
0.865000
  0
VERTEX
  8
gg1
 10
0.225000
 20
0.885000
  0
SEQEND
  8
gg1
  0
POLYLINE
  8
gg1
 62
1
 40
0.000000
 41
0.000000
 66
  1
  0
VERTEX
  8
gg1
 10
0.265000
 20
0.875000
  0
VERTEX
  8
gg1
 10
0.285000
 20
0.875000
  0
SEQEND
  8
gg1
  0
POLYLINE
  8
gg1
 62
1
 40
0.000000
 41
0.000000
 66
  1
  0
VERTEX
  8
gg1
 10
0.275000
 20
0.865000
  0
VERTEX
  8
gg1
 10
0.275000
 20
0.885000
  0
SEQEND
  8
gg1
  0
POLYLINE
  8
gg1
 62
1
 40
0.000000
 41
0.000000
 66
  1
  0
VERTEX
  8
gg1
 10
0.640000
 20
0.875000
  0
VERTEX
  8
gg1
 10
0.660000
 20
0.875000
  0
SEQEND
  8
gg1
  0
POLYLINE
  8
gg1
 62
1
 40
0.000000
 41
0.000000
 66
  1
  0
VERTEX
  8
gg1
 10
0.650000
 20
0.865000
  0
VERTEX
  8
gg1
 10
0.650000
 20
0.885000
  0
SEQEND
  8
gg1
  0
POLYLINE
  8
gg1
 62
1
 40
0.000000
 41
0.000000
 66
  1
  0
VERTEX
  8
gg1
 10
0.590000
 20
0.875000
  0
VERTEX
  8
gg1
 10
0.610000
 20
0.875000
  0
SEQEND
  8
gg1
  0
POLYLINE
  8
gg1
 62
1
 40
0.000000
 41
0.000000
 66
  1
  0
VERTEX
  8
gg1
 10
0.600000
 20
0.865000
  0
VERTEX
  8
gg1
 10
0.600000
 20
0.885000
  0
SEQEND
  8
gg1
  0
POLYLINE
  8
gg1
 62
1
 40
0.000000
 41
0.000000
 66
  1
  0
VERTEX
  8
gg1
 10
0.540000
 20
0.875000
  0
VERTEX
  8
gg1
 10
0.560000
 20
0.875000
  0
SEQEND
  8
gg1
  0
POLYLINE
  8
gg1
 62
1
 40
0.000000
 41
0.000000
 66
  1
  0
VERTEX
  8
gg1
 10
0.550000
 20
0.865000
  0
VERTEX
  8
gg1
 10
0.550000
 20
0.885000
  0
SEQEND
  8
gg1
  0
POLYLINE
  8
gg1
 62
1
 40
0.000000
 41
0.000000
 66
  1
  0
VERTEX
  8
gg1
 10
0.490000
 20
0.875000
  0
VERTEX
  8
gg1
 10
0.510000
 20
0.875000
  0
SEQEND
  8
gg1
  0
POLYLINE
  8
gg1
 62
1
 40
0.000000
 41
0.000000
 66
  1
  0
VERTEX
  8
gg1
 10
0.500000
 20
0.865000
  0
VERTEX
  8
gg1
 10
0.500000
 20
0.885000
  0
SEQEND
  8
gg1
  0
POLYLINE
  8
gg1
 62
1
 40
0.000000
 41
0.000000
 66
  1
  0
VERTEX
  8
gg1
 10
0.440000
 20
0.875000
  0
VERTEX
  8
gg1
 10
0.460000
 20
0.875000
  0
SEQEND
  8
gg1
  0
POLYLINE
  8
gg1
 62
1
 40
0.000000
 41
0.000000
 66
  1
  0
VERTEX
  8
gg1
 10
0.450000
 20
0.865000
  0
VERTEX
  8
gg1
 10
0.450000
 20
0.885000
  0
SEQEND
  8
gg1
  0
POLYLINE
  8
gg1
 62
1
 40
0.000000
 41
0.000000
 66
  1
  0
VERTEX
  8
gg1
 10
0.615000
 20
1.200000
  0
VERTEX
  8
gg1
 10
0.635000
 20
1.200000
  0
SEQEND
  8
gg1
  0
POLYLINE
  8
gg1
 62
1
 40
0.000000
 41
0.000000
 66
  1
  0
VERTEX
  8
gg1
 10
0.625000
 20
1.190000
  0
VERTEX
  8
gg1
 10
0.625000
 20
1.210000
  0
SEQEND
  8
gg1
  0
POLYLINE
  8
gg1
 62
1
 40
0.000000
 41
0.000000
 66
  1
  0
VERTEX
  8
gg1
 10
0.615000
 20
1.250000
  0
VERTEX
  8
gg1
 10
0.635000
 20
1.250000
  0
SEQEND
  8
gg1
  0
POLYLINE
  8
gg1
 62
1
 40
0.000000
 41
0.000000
 66
  1
  0
VERTEX
  8
gg1
 10
0.625000
 20
1.240000
  0
VERTEX
  8
gg1
 10
0.625000
 20
1.260000
  0
SEQEND
  8
gg1
  0
POLYLINE
  8
gg1
 62
1
 40
0.000000
 41
0.000000
 66
  1
  0
VERTEX
  8
gg1
 10
0.615000
 20
1.300000
  0
VERTEX
  8
gg1
 10
0.635000
 20
1.300000
  0
SEQEND
  8
gg1
  0
POLYLINE
  8
gg1
 62
1
 40
0.000000
 41
0.000000
 66
  1
  0
VERTEX
  8
gg1
 10
0.625000
 20
1.290000
  0
VERTEX
  8
gg1
 10
0.625000
 20
1.310000
  0
SEQEND
  8
gg1
  0
POLYLINE
  8
gg1
 62
1
 40
0.000000
 41
0.000000
 66
  1
  0
VERTEX
  8
gg1
 10
0.615000
 20
1.350000
  0
VERTEX
  8
gg1
 10
0.635000
 20
1.350000
  0
SEQEND
  8
gg1
  0
POLYLINE
  8
gg1
 62
1
 40
0.000000
 41
0.000000
 66
  1
  0
VERTEX
  8
gg1
 10
0.625000
 20
1.340000
  0
VERTEX
  8
gg1
 10
0.625000
 20
1.360000
  0
SEQEND
  8
gg1
  0
POLYLINE
  8
gg1
 62
1
 40
0.000000
 41
0.000000
 66
  1
  0
VERTEX
  8
gg1
 10
0.590000
 20
1.400000
  0
VERTEX
  8
gg1
 10
0.610000
 20
1.400000
  0
SEQEND
  8
gg1
  0
POLYLINE
  8
gg1
 62
1
 40
0.000000
 41
0.000000
 66
  1
  0
VERTEX
  8
gg1
 10
0.600000
 20
1.390000
  0
VERTEX
  8
gg1
 10
0.600000
 20
1.410000
  0
SEQEND
  8
gg1
  0
POLYLINE
  8
gg1
 62
1
 40
0.000000
 41
0.000000
 66
  1
  0
VERTEX
  8
gg1
 10
0.540000
 20
1.400000
  0
VERTEX
  8
gg1
 10
0.560000
 20
1.400000
  0
SEQEND
  8
gg1
  0
POLYLINE
  8
gg1
 62
1
 40
0.000000
 41
0.000000
 66
  1
  0
VERTEX
  8
gg1
 10
0.550000
 20
1.390000
  0
VERTEX
  8
gg1
 10
0.550000
 20
1.410000
  0
SEQEND
  8
gg1
  0
POLYLINE
  8
gg1
 62
1
 40
0.000000
 41
0.000000
 66
  1
  0
VERTEX
  8
gg1
 10
0.490000
 20
1.400000
  0
VERTEX
  8
gg1
 10
0.510000
 20
1.400000
  0
SEQEND
  8
gg1
  0
POLYLINE
  8
gg1
 62
1
 40
0.000000
 41
0.000000
 66
  1
  0
VERTEX
  8
gg1
 10
0.500000
 20
1.390000
  0
VERTEX
  8
gg1
 10
0.500000
 20
1.410000
  0
SEQEND
  8
gg1
  0
POLYLINE
  8
gg1
 62
1
 40
0.000000
 41
0.000000
 66
  1
  0
VERTEX
  8
gg1
 10
0.440000
 20
1.400000
  0
VERTEX
  8
gg1
 10
0.460000
 20
1.400000
  0
SEQEND
  8
gg1
  0
POLYLINE
  8
gg1
 62
1
 40
0.000000
 41
0.000000
 66
  1
  0
VERTEX
  8
gg1
 10
0.450000
 20
1.390000
  0
VERTEX
  8
gg1
 10
0.450000
 20
1.410000
  0
SEQEND
  8
gg1
  0
POLYLINE
  8
gg1
 62
1
 40
0.000000
 41
0.000000
 66
  1
  0
VERTEX
  8
gg1
 10
0.390000
 20
1.400000
  0
VERTEX
  8
gg1
 10
0.410000
 20
1.400000
  0
SEQEND
  8
gg1
  0
POLYLINE
  8
gg1
 62
1
 40
0.000000
 41
0.000000
 66
  1
  0
VERTEX
  8
gg1
 10
0.400000
 20
1.390000
  0
VERTEX
  8
gg1
 10
0.400000
 20
1.410000
  0
SEQEND
  8
gg1
  0
POLYLINE
  8
gg1
 62
1
 40
0.000000
 41
0.000000
 66
  1
  0
VERTEX
  8
gg1
 10
0.340000
 20
1.400000
  0
VERTEX
  8
gg1
 10
0.360000
 20
1.400000
  0
SEQEND
  8
gg1
  0
POLYLINE
  8
gg1
 62
1
 40
0.000000
 41
0.000000
 66
  1
  0
VERTEX
  8
gg1
 10
0.350000
 20
1.390000
  0
VERTEX
  8
gg1
 10
0.350000
 20
1.410000
  0
SEQEND
  8
gg1
  0
POLYLINE
  8
gg1
 62
1
 40
0.000000
 41
0.000000
 66
  1
  0
VERTEX
  8
gg1
 10
0.290000
 20
1.400000
  0
VERTEX
  8
gg1
 10
0.310000
 20
1.400000
  0
SEQEND
  8
gg1
  0
POLYLINE
  8
gg1
 62
1
 40
0.000000
 41
0.000000
 66
  1
  0
VERTEX
  8
gg1
 10
0.300000
 20
1.390000
  0
VERTEX
  8
gg1
 10
0.300000
 20
1.410000
  0
SEQEND
  8
gg1
  0
POLYLINE
  8
gg1
 62
1
 40
0.000000
 41
0.000000
 66
  1
  0
VERTEX
  8
gg1
 10
0.240000
 20
1.400000
  0
VERTEX
  8
gg1
 10
0.260000
 20
1.400000
  0
SEQEND
  8
gg1
  0
POLYLINE
  8
gg1
 62
1
 40
0.000000
 41
0.000000
 66
  1
  0
VERTEX
  8
gg1
 10
0.250000
 20
1.390000
  0
VERTEX
  8
gg1
 10
0.250000
 20
1.410000
  0
SEQEND
  8
gg1
  0
POLYLINE
  8
gg1
 62
1
 40
0.000000
 41
0.000000
 66
  1
  0
VERTEX
  8
gg1
 10
0.190000
 20
1.400000
  0
VERTEX
  8
gg1
 10
0.210000
 20
1.400000
  0
SEQEND
  8
gg1
  0
POLYLINE
  8
gg1
 62
1
 40
0.000000
 41
0.000000
 66
  1
  0
VERTEX
  8
gg1
 10
0.200000
 20
1.390000
  0
VERTEX
  8
gg1
 10
0.200000
 20
1.410000
  0
SEQEND
  8
gg1
  0
POLYLINE
  8
gg1
 62
1
 40
0.000000
 41
0.000000
 66
  1
  0
VERTEX
  8
gg1
 10
0.140000
 20
1.400000
  0
VERTEX
  8
gg1
 10
0.160000
 20
1.400000
  0
SEQEND
  8
gg1
  0
POLYLINE
  8
gg1
 62
1
 40
0.000000
 41
0.000000
 66
  1
  0
VERTEX
  8
gg1
 10
0.150000
 20
1.390000
  0
VERTEX
  8
gg1
 10
0.150000
 20
1.410000
  0
SEQEND
  8
gg1
  0
POLYLINE
  8
gg1
 62
1
 40
0.000000
 41
0.000000
 66
  1
  0
VERTEX
  8
gg1
 10
1.090000
 20
0.980000
  0
VERTEX
  8
gg1
 10
1.110000
 20
0.980000
  0
SEQEND
  8
gg1
  0
POLYLINE
  8
gg1
 62
1
 40
0.000000
 41
0.000000
 66
  1
  0
VERTEX
  8
gg1
 10
1.100000
 20
0.970000
  0
VERTEX
  8
gg1
 10
1.100000
 20
0.990000
  0
SEQEND
  8
gg1
  0
POLYLINE
  8
gg1
 62
1
 40
0.000000
 41
0.000000
 66
  1
  0
VERTEX
  8
gg1
 10
1.030000
 20
1.020000
  0
VERTEX
  8
gg1
 10
1.050000
 20
1.020000
  0
SEQEND
  8
gg1
  0
POLYLINE
  8
gg1
 62
1
 40
0.000000
 41
0.000000
 66
  1
  0
VERTEX
  8
gg1
 10
1.040000
 20
1.010000
  0
VERTEX
  8
gg1
 10
1.040000
 20
1.030000
  0
SEQEND
  8
gg1
  0
POLYLINE
  8
gg1
 62
1
 40
0.000000
 41
0.000000
 66
  1
  0
VERTEX
  8
gg1
 10
1.030000
 20
1.100000
  0
VERTEX
  8
gg1
 10
1.050000
 20
1.100000
  0
SEQEND
  8
gg1
  0
POLYLINE
  8
gg1
 62
1
 40
0.000000
 41
0.000000
 66
  1
  0
VERTEX
  8
gg1
 10
1.040000
 20
1.090000
  0
VERTEX
  8
gg1
 10
1.040000
 20
1.110000
  0
SEQEND
  8
gg1
  0
POLYLINE
  8
gg1
 62
1
 40
0.000000
 41
0.000000
 66
  1
  0
VERTEX
  8
gg1
 10
1.010000
 20
1.180000
  0
VERTEX
  8
gg1
 10
1.030000
 20
1.180000
  0
SEQEND
  8
gg1
  0
POLYLINE
  8
gg1
 62
1
 40
0.000000
 41
0.000000
 66
  1
  0
VERTEX
  8
gg1
 10
1.020000
 20
1.170000
  0
VERTEX
  8
gg1
 10
1.020000
 20
1.190000
  0
SEQEND
  8
gg1
  0
POLYLINE
  8
gg1
 62
1
 40
0.000000
 41
0.000000
 66
  1
  0
VERTEX
  8
gg1
 10
1.010000
 20
1.260000
  0
VERTEX
  8
gg1
 10
1.030000
 20
1.260000
  0
SEQEND
  8
gg1
  0
POLYLINE
  8
gg1
 62
1
 40
0.000000
 41
0.000000
 66
  1
  0
VERTEX
  8
gg1
 10
1.020000
 20
1.250000
  0
VERTEX
  8
gg1
 10
1.020000
 20
1.270000
  0
SEQEND
  8
gg1
  0
POLYLINE
  8
gg1
 62
1
 40
0.000000
 41
0.000000
 66
  1
  0
VERTEX
  8
gg1
 10
1.070000
 20
1.280000
  0
VERTEX
  8
gg1
 10
1.090000
 20
1.280000
  0
SEQEND
  8
gg1
  0
POLYLINE
  8
gg1
 62
1
 40
0.000000
 41
0.000000
 66
  1
  0
VERTEX
  8
gg1
 10
1.080000
 20
1.270000
  0
VERTEX
  8
gg1
 10
1.080000
 20
1.290000
  0
SEQEND
  8
gg1
  0
POLYLINE
  8
gg1
 62
1
 40
0.000000
 41
0.000000
 66
  1
  0
VERTEX
  8
gg1
 10
1.065000
 20
1.200000
  0
VERTEX
  8
gg1
 10
1.085000
 20
1.200000
  0
SEQEND
  8
gg1
  0
POLYLINE
  8
gg1
 62
1
 40
0.000000
 41
0.000000
 66
  1
  0
VERTEX
  8
gg1
 10
1.075000
 20
1.190000
  0
VERTEX
  8
gg1
 10
1.075000
 20
1.210000
  0
SEQEND
  8
gg1
  0
POLYLINE
  8
gg1
 62
1
 40
0.000000
 41
0.000000
 66
  1
  0
VERTEX
  8
gg1
 10
1.090000
 20
1.060000
  0
VERTEX
  8
gg1
 10
1.110000
 20
1.060000
  0
SEQEND
  8
gg1
  0
POLYLINE
  8
gg1
 62
1
 40
0.000000
 41
0.000000
 66
  1
  0
VERTEX
  8
gg1
 10
1.100000
 20
1.050000
  0
VERTEX
  8
gg1
 10
1.100000
 20
1.070000
  0
SEQEND
  8
gg1
  0
POLYLINE
  8
gg1
 62
1
 40
0.000000
 41
0.000000
 66
  1
  0
VERTEX
  8
gg1
 10
1.090000
 20
1.140000
  0
VERTEX
  8
gg1
 10
1.110000
 20
1.140000
  0
SEQEND
  8
gg1
  0
POLYLINE
  8
gg1
 62
1
 40
0.000000
 41
0.000000
 66
  1
  0
VERTEX
  8
gg1
 10
1.100000
 20
1.130000
  0
VERTEX
  8
gg1
 10
1.100000
 20
1.150000
  0
SEQEND
  8
gg1
  0
POLYLINE
  8
gg1
 62
1
 40
0.000000
 41
0.000000
 66
  1
  0
VERTEX
  8
gg1
 10
1.115000
 20
1.200000
  0
VERTEX
  8
gg1
 10
1.135000
 20
1.200000
  0
SEQEND
  8
gg1
  0
POLYLINE
  8
gg1
 62
1
 40
0.000000
 41
0.000000
 66
  1
  0
VERTEX
  8
gg1
 10
1.125000
 20
1.190000
  0
VERTEX
  8
gg1
 10
1.125000
 20
1.210000
  0
SEQEND
  8
gg1
  0
POLYLINE
  8
gg1
 62
1
 40
0.000000
 41
0.000000
 66
  1
  0
VERTEX
  8
gg1
 10
1.115000
 20
1.250000
  0
VERTEX
  8
gg1
 10
1.135000
 20
1.250000
  0
SEQEND
  8
gg1
  0
POLYLINE
  8
gg1
 62
1
 40
0.000000
 41
0.000000
 66
  1
  0
VERTEX
  8
gg1
 10
1.125000
 20
1.240000
  0
VERTEX
  8
gg1
 10
1.125000
 20
1.260000
  0
SEQEND
  8
gg1
  0
POLYLINE
  8
gg1
 62
1
 40
0.000000
 41
0.000000
 66
  1
  0
VERTEX
  8
gg1
 10
1.115000
 20
1.300000
  0
VERTEX
  8
gg1
 10
1.135000
 20
1.300000
  0
SEQEND
  8
gg1
  0
POLYLINE
  8
gg1
 62
1
 40
0.000000
 41
0.000000
 66
  1
  0
VERTEX
  8
gg1
 10
1.125000
 20
1.290000
  0
VERTEX
  8
gg1
 10
1.125000
 20
1.310000
  0
SEQEND
  8
gg1
  0
POLYLINE
  8
gg1
 62
1
 40
0.000000
 41
0.000000
 66
  1
  0
VERTEX
  8
gg1
 10
1.115000
 20
1.350000
  0
VERTEX
  8
gg1
 10
1.135000
 20
1.350000
  0
SEQEND
  8
gg1
  0
POLYLINE
  8
gg1
 62
1
 40
0.000000
 41
0.000000
 66
  1
  0
VERTEX
  8
gg1
 10
1.125000
 20
1.340000
  0
VERTEX
  8
gg1
 10
1.125000
 20
1.360000
  0
SEQEND
  8
gg1
  0
POLYLINE
  8
gg1
 62
1
 40
0.000000
 41
0.000000
 66
  1
  0
VERTEX
  8
gg1
 10
1.115000
 20
1.400000
  0
VERTEX
  8
gg1
 10
1.135000
 20
1.400000
  0
SEQEND
  8
gg1
  0
POLYLINE
  8
gg1
 62
1
 40
0.000000
 41
0.000000
 66
  1
  0
VERTEX
  8
gg1
 10
1.125000
 20
1.390000
  0
VERTEX
  8
gg1
 10
1.125000
 20
1.410000
  0
SEQEND
  8
gg1
  0
POLYLINE
  8
gg1
 62
1
 40
0.000000
 41
0.000000
 66
  1
  0
VERTEX
  8
gg1
 10
1.165000
 20
1.400000
  0
VERTEX
  8
gg1
 10
1.185000
 20
1.400000
  0
SEQEND
  8
gg1
  0
POLYLINE
  8
gg1
 62
1
 40
0.000000
 41
0.000000
 66
  1
  0
VERTEX
  8
gg1
 10
1.175000
 20
1.390000
  0
VERTEX
  8
gg1
 10
1.175000
 20
1.410000
  0
SEQEND
  8
gg1
  0
POLYLINE
  8
gg1
 62
1
 40
0.000000
 41
0.000000
 66
  1
  0
VERTEX
  8
gg1
 10
1.165000
 20
1.350000
  0
VERTEX
  8
gg1
 10
1.185000
 20
1.350000
  0
SEQEND
  8
gg1
  0
POLYLINE
  8
gg1
 62
1
 40
0.000000
 41
0.000000
 66
  1
  0
VERTEX
  8
gg1
 10
1.175000
 20
1.340000
  0
VERTEX
  8
gg1
 10
1.175000
 20
1.360000
  0
SEQEND
  8
gg1
  0
POLYLINE
  8
gg1
 62
1
 40
0.000000
 41
0.000000
 66
  1
  0
VERTEX
  8
gg1
 10
1.165000
 20
1.300000
  0
VERTEX
  8
gg1
 10
1.185000
 20
1.300000
  0
SEQEND
  8
gg1
  0
POLYLINE
  8
gg1
 62
1
 40
0.000000
 41
0.000000
 66
  1
  0
VERTEX
  8
gg1
 10
1.175000
 20
1.290000
  0
VERTEX
  8
gg1
 10
1.175000
 20
1.310000
  0
SEQEND
  8
gg1
  0
POLYLINE
  8
gg1
 62
1
 40
0.000000
 41
0.000000
 66
  1
  0
VERTEX
  8
gg1
 10
1.165000
 20
1.250000
  0
VERTEX
  8
gg1
 10
1.185000
 20
1.250000
  0
SEQEND
  8
gg1
  0
POLYLINE
  8
gg1
 62
1
 40
0.000000
 41
0.000000
 66
  1
  0
VERTEX
  8
gg1
 10
1.175000
 20
1.240000
  0
VERTEX
  8
gg1
 10
1.175000
 20
1.260000
  0
SEQEND
  8
gg1
  0
POLYLINE
  8
gg1
 62
1
 40
0.000000
 41
0.000000
 66
  1
  0
VERTEX
  8
gg1
 10
1.165000
 20
1.200000
  0
VERTEX
  8
gg1
 10
1.185000
 20
1.200000
  0
SEQEND
  8
gg1
  0
POLYLINE
  8
gg1
 62
1
 40
0.000000
 41
0.000000
 66
  1
  0
VERTEX
  8
gg1
 10
1.175000
 20
1.190000
  0
VERTEX
  8
gg1
 10
1.175000
 20
1.210000
  0
SEQEND
  8
gg1
  0
POLYLINE
  8
gg1
 62
1
 40
0.000000
 41
0.000000
 66
  1
  0
VERTEX
  8
gg1
 10
1.215000
 20
1.200000
  0
VERTEX
  8
gg1
 10
1.235000
 20
1.200000
  0
SEQEND
  8
gg1
  0
POLYLINE
  8
gg1
 62
1
 40
0.000000
 41
0.000000
 66
  1
  0
VERTEX
  8
gg1
 10
1.225000
 20
1.190000
  0
VERTEX
  8
gg1
 10
1.225000
 20
1.210000
  0
SEQEND
  8
gg1
  0
POLYLINE
  8
gg1
 62
1
 40
0.000000
 41
0.000000
 66
  1
  0
VERTEX
  8
gg1
 10
1.215000
 20
1.250000
  0
VERTEX
  8
gg1
 10
1.235000
 20
1.250000
  0
SEQEND
  8
gg1
  0
POLYLINE
  8
gg1
 62
1
 40
0.000000
 41
0.000000
 66
  1
  0
VERTEX
  8
gg1
 10
1.225000
 20
1.240000
  0
VERTEX
  8
gg1
 10
1.225000
 20
1.260000
  0
SEQEND
  8
gg1
  0
POLYLINE
  8
gg1
 62
1
 40
0.000000
 41
0.000000
 66
  1
  0
VERTEX
  8
gg1
 10
1.215000
 20
1.300000
  0
VERTEX
  8
gg1
 10
1.235000
 20
1.300000
  0
SEQEND
  8
gg1
  0
POLYLINE
  8
gg1
 62
1
 40
0.000000
 41
0.000000
 66
  1
  0
VERTEX
  8
gg1
 10
1.225000
 20
1.290000
  0
VERTEX
  8
gg1
 10
1.225000
 20
1.310000
  0
SEQEND
  8
gg1
  0
POLYLINE
  8
gg1
 62
1
 40
0.000000
 41
0.000000
 66
  1
  0
VERTEX
  8
gg1
 10
1.215000
 20
1.350000
  0
VERTEX
  8
gg1
 10
1.235000
 20
1.350000
  0
SEQEND
  8
gg1
  0
POLYLINE
  8
gg1
 62
1
 40
0.000000
 41
0.000000
 66
  1
  0
VERTEX
  8
gg1
 10
1.225000
 20
1.340000
  0
VERTEX
  8
gg1
 10
1.225000
 20
1.360000
  0
SEQEND
  8
gg1
  0
POLYLINE
  8
gg1
 62
1
 40
0.000000
 41
0.000000
 66
  1
  0
VERTEX
  8
gg1
 10
1.215000
 20
1.400000
  0
VERTEX
  8
gg1
 10
1.235000
 20
1.400000
  0
SEQEND
  8
gg1
  0
POLYLINE
  8
gg1
 62
1
 40
0.000000
 41
0.000000
 66
  1
  0
VERTEX
  8
gg1
 10
1.225000
 20
1.390000
  0
VERTEX
  8
gg1
 10
1.225000
 20
1.410000
  0
SEQEND
  8
gg1
  0
POLYLINE
  8
gg1
 62
1
 40
0.000000
 41
0.000000
 66
  1
  0
VERTEX
  8
gg1
 10
1.265000
 20
1.400000
  0
VERTEX
  8
gg1
 10
1.285000
 20
1.400000
  0
SEQEND
  8
gg1
  0
POLYLINE
  8
gg1
 62
1
 40
0.000000
 41
0.000000
 66
  1
  0
VERTEX
  8
gg1
 10
1.275000
 20
1.390000
  0
VERTEX
  8
gg1
 10
1.275000
 20
1.410000
  0
SEQEND
  8
gg1
  0
POLYLINE
  8
gg1
 62
1
 40
0.000000
 41
0.000000
 66
  1
  0
VERTEX
  8
gg1
 10
1.315000
 20
1.400000
  0
VERTEX
  8
gg1
 10
1.335000
 20
1.400000
  0
SEQEND
  8
gg1
  0
POLYLINE
  8
gg1
 62
1
 40
0.000000
 41
0.000000
 66
  1
  0
VERTEX
  8
gg1
 10
1.325000
 20
1.390000
  0
VERTEX
  8
gg1
 10
1.325000
 20
1.410000
  0
SEQEND
  8
gg1
  0
POLYLINE
  8
gg1
 62
1
 40
0.000000
 41
0.000000
 66
  1
  0
VERTEX
  8
gg1
 10
1.365000
 20
1.400000
  0
VERTEX
  8
gg1
 10
1.385000
 20
1.400000
  0
SEQEND
  8
gg1
  0
POLYLINE
  8
gg1
 62
1
 40
0.000000
 41
0.000000
 66
  1
  0
VERTEX
  8
gg1
 10
1.375000
 20
1.390000
  0
VERTEX
  8
gg1
 10
1.375000
 20
1.410000
  0
SEQEND
  8
gg1
  0
POLYLINE
  8
gg1
 62
1
 40
0.000000
 41
0.000000
 66
  1
  0
VERTEX
  8
gg1
 10
1.415000
 20
1.400000
  0
VERTEX
  8
gg1
 10
1.435000
 20
1.400000
  0
SEQEND
  8
gg1
  0
POLYLINE
  8
gg1
 62
1
 40
0.000000
 41
0.000000
 66
  1
  0
VERTEX
  8
gg1
 10
1.425000
 20
1.390000
  0
VERTEX
  8
gg1
 10
1.425000
 20
1.410000
  0
SEQEND
  8
gg1
  0
POLYLINE
  8
gg1
 62
1
 40
0.000000
 41
0.000000
 66
  1
  0
VERTEX
  8
gg1
 10
1.465000
 20
1.400000
  0
VERTEX
  8
gg1
 10
1.485000
 20
1.400000
  0
SEQEND
  8
gg1
  0
POLYLINE
  8
gg1
 62
1
 40
0.000000
 41
0.000000
 66
  1
  0
VERTEX
  8
gg1
 10
1.475000
 20
1.390000
  0
VERTEX
  8
gg1
 10
1.475000
 20
1.410000
  0
SEQEND
  8
gg1
  0
POLYLINE
  8
gg1
 62
1
 40
0.000000
 41
0.000000
 66
  1
  0
VERTEX
  8
gg1
 10
1.515000
 20
1.400000
  0
VERTEX
  8
gg1
 10
1.535000
 20
1.400000
  0
SEQEND
  8
gg1
  0
POLYLINE
  8
gg1
 62
1
 40
0.000000
 41
0.000000
 66
  1
  0
VERTEX
  8
gg1
 10
1.525000
 20
1.390000
  0
VERTEX
  8
gg1
 10
1.525000
 20
1.410000
  0
SEQEND
  8
gg1
  0
POLYLINE
  8
gg1
 62
1
 40
0.000000
 41
0.000000
 66
  1
  0
VERTEX
  8
gg1
 10
1.615000
 20
1.400000
  0
VERTEX
  8
gg1
 10
1.635000
 20
1.400000
  0
SEQEND
  8
gg1
  0
POLYLINE
  8
gg1
 62
1
 40
0.000000
 41
0.000000
 66
  1
  0
VERTEX
  8
gg1
 10
1.625000
 20
1.390000
  0
VERTEX
  8
gg1
 10
1.625000
 20
1.410000
  0
SEQEND
  8
gg1
  0
POLYLINE
  8
gg1
 62
1
 40
0.000000
 41
0.000000
 66
  1
  0
VERTEX
  8
gg1
 10
1.565000
 20
1.400000
  0
VERTEX
  8
gg1
 10
1.585000
 20
1.400000
  0
SEQEND
  8
gg1
  0
POLYLINE
  8
gg1
 62
1
 40
0.000000
 41
0.000000
 66
  1
  0
VERTEX
  8
gg1
 10
1.575000
 20
1.390000
  0
VERTEX
  8
gg1
 10
1.575000
 20
1.410000
  0
SEQEND
  8
gg1
  0
POLYLINE
  8
gg1
 62
1
 40
0.000000
 41
0.000000
 66
  1
  0
VERTEX
  8
gg1
 10
1.665000
 20
1.400000
  0
VERTEX
  8
gg1
 10
1.685000
 20
1.400000
  0
SEQEND
  8
gg1
  0
POLYLINE
  8
gg1
 62
1
 40
0.000000
 41
0.000000
 66
  1
  0
VERTEX
  8
gg1
 10
1.675000
 20
1.390000
  0
VERTEX
  8
gg1
 10
1.675000
 20
1.410000
  0
SEQEND
  8
gg1
  0
POLYLINE
  8
gg1
 62
1
 40
0.000000
 41
0.000000
 66
  1
  0
VERTEX
  8
gg1
 10
0.090000
 20
0.950000
  0
VERTEX
  8
gg1
 10
0.110000
 20
0.950000
  0
SEQEND
  8
gg1
  0
POLYLINE
  8
gg1
 62
1
 40
0.000000
 41
0.000000
 66
  1
  0
VERTEX
  8
gg1
 10
0.100000
 20
0.940000
  0
VERTEX
  8
gg1
 10
0.100000
 20
0.960000
  0
SEQEND
  8
gg1
  0
POLYLINE
  8
gg1
 62
1
 40
0.000000
 41
0.000000
 66
  1
  0
VERTEX
  8
gg1
 10
0.140000
 20
0.950000
  0
VERTEX
  8
gg1
 10
0.160000
 20
0.950000
  0
SEQEND
  8
gg1
  0
POLYLINE
  8
gg1
 62
1
 40
0.000000
 41
0.000000
 66
  1
  0
VERTEX
  8
gg1
 10
0.150000
 20
0.940000
  0
VERTEX
  8
gg1
 10
0.150000
 20
0.960000
  0
SEQEND
  8
gg1
  0
POLYLINE
  8
gg1
 62
1
 40
0.000000
 41
0.000000
 66
  1
  0
VERTEX
  8
gg1
 10
0.190000
 20
0.950000
  0
VERTEX
  8
gg1
 10
0.210000
 20
0.950000
  0
SEQEND
  8
gg1
  0
POLYLINE
  8
gg1
 62
1
 40
0.000000
 41
0.000000
 66
  1
  0
VERTEX
  8
gg1
 10
0.200000
 20
0.940000
  0
VERTEX
  8
gg1
 10
0.200000
 20
0.960000
  0
SEQEND
  8
gg1
  0
POLYLINE
  8
gg1
 62
1
 40
0.000000
 41
0.000000
 66
  1
  0
VERTEX
  8
gg1
 10
0.240000
 20
0.950000
  0
VERTEX
  8
gg1
 10
0.260000
 20
0.950000
  0
SEQEND
  8
gg1
  0
POLYLINE
  8
gg1
 62
1
 40
0.000000
 41
0.000000
 66
  1
  0
VERTEX
  8
gg1
 10
0.250000
 20
0.940000
  0
VERTEX
  8
gg1
 10
0.250000
 20
0.960000
  0
SEQEND
  8
gg1
  0
POLYLINE
  8
gg1
 62
1
 40
0.000000
 41
0.000000
 66
  1
  0
VERTEX
  8
gg1
 10
0.290000
 20
0.950000
  0
VERTEX
  8
gg1
 10
0.310000
 20
0.950000
  0
SEQEND
  8
gg1
  0
POLYLINE
  8
gg1
 62
1
 40
0.000000
 41
0.000000
 66
  1
  0
VERTEX
  8
gg1
 10
0.300000
 20
0.940000
  0
VERTEX
  8
gg1
 10
0.300000
 20
0.960000
  0
SEQEND
  8
gg1
  0
POLYLINE
  8
gg1
 62
1
 40
0.000000
 41
0.000000
 66
  1
  0
VERTEX
  8
gg1
 10
0.290000
 20
1.000000
  0
VERTEX
  8
gg1
 10
0.310000
 20
1.000000
  0
SEQEND
  8
gg1
  0
POLYLINE
  8
gg1
 62
1
 40
0.000000
 41
0.000000
 66
  1
  0
VERTEX
  8
gg1
 10
0.300000
 20
0.990000
  0
VERTEX
  8
gg1
 10
0.300000
 20
1.010000
  0
SEQEND
  8
gg1
  0
POLYLINE
  8
gg1
 62
1
 40
0.000000
 41
0.000000
 66
  1
  0
VERTEX
  8
gg1
 10
0.240000
 20
1.000000
  0
VERTEX
  8
gg1
 10
0.260000
 20
1.000000
  0
SEQEND
  8
gg1
  0
POLYLINE
  8
gg1
 62
1
 40
0.000000
 41
0.000000
 66
  1
  0
VERTEX
  8
gg1
 10
0.250000
 20
0.990000
  0
VERTEX
  8
gg1
 10
0.250000
 20
1.010000
  0
SEQEND
  8
gg1
  0
POLYLINE
  8
gg1
 62
1
 40
0.000000
 41
0.000000
 66
  1
  0
VERTEX
  8
gg1
 10
0.190000
 20
1.000000
  0
VERTEX
  8
gg1
 10
0.210000
 20
1.000000
  0
SEQEND
  8
gg1
  0
POLYLINE
  8
gg1
 62
1
 40
0.000000
 41
0.000000
 66
  1
  0
VERTEX
  8
gg1
 10
0.200000
 20
0.990000
  0
VERTEX
  8
gg1
 10
0.200000
 20
1.010000
  0
SEQEND
  8
gg1
  0
POLYLINE
  8
gg1
 62
1
 40
0.000000
 41
0.000000
 66
  1
  0
VERTEX
  8
gg1
 10
0.140000
 20
1.000000
  0
VERTEX
  8
gg1
 10
0.160000
 20
1.000000
  0
SEQEND
  8
gg1
  0
POLYLINE
  8
gg1
 62
1
 40
0.000000
 41
0.000000
 66
  1
  0
VERTEX
  8
gg1
 10
0.150000
 20
0.990000
  0
VERTEX
  8
gg1
 10
0.150000
 20
1.010000
  0
SEQEND
  8
gg1
  0
POLYLINE
  8
gg1
 62
1
 40
0.000000
 41
0.000000
 66
  1
  0
VERTEX
  8
gg1
 10
0.090000
 20
1.000000
  0
VERTEX
  8
gg1
 10
0.110000
 20
1.000000
  0
SEQEND
  8
gg1
  0
POLYLINE
  8
gg1
 62
1
 40
0.000000
 41
0.000000
 66
  1
  0
VERTEX
  8
gg1
 10
0.100000
 20
0.990000
  0
VERTEX
  8
gg1
 10
0.100000
 20
1.010000
  0
SEQEND
  8
gg1
  0
POLYLINE
  8
gg1
 62
1
 40
0.000000
 41
0.000000
 66
  1
  0
VERTEX
  8
gg1
 10
0.090000
 20
1.050000
  0
VERTEX
  8
gg1
 10
0.110000
 20
1.050000
  0
SEQEND
  8
gg1
  0
POLYLINE
  8
gg1
 62
1
 40
0.000000
 41
0.000000
 66
  1
  0
VERTEX
  8
gg1
 10
0.100000
 20
1.040000
  0
VERTEX
  8
gg1
 10
0.100000
 20
1.060000
  0
SEQEND
  8
gg1
  0
POLYLINE
  8
gg1
 62
1
 40
0.000000
 41
0.000000
 66
  1
  0
VERTEX
  8
gg1
 10
0.140000
 20
1.050000
  0
VERTEX
  8
gg1
 10
0.160000
 20
1.050000
  0
SEQEND
  8
gg1
  0
POLYLINE
  8
gg1
 62
1
 40
0.000000
 41
0.000000
 66
  1
  0
VERTEX
  8
gg1
 10
0.150000
 20
1.040000
  0
VERTEX
  8
gg1
 10
0.150000
 20
1.060000
  0
SEQEND
  8
gg1
  0
POLYLINE
  8
gg1
 62
1
 40
0.000000
 41
0.000000
 66
  1
  0
VERTEX
  8
gg1
 10
0.190000
 20
1.050000
  0
VERTEX
  8
gg1
 10
0.210000
 20
1.050000
  0
SEQEND
  8
gg1
  0
POLYLINE
  8
gg1
 62
1
 40
0.000000
 41
0.000000
 66
  1
  0
VERTEX
  8
gg1
 10
0.200000
 20
1.040000
  0
VERTEX
  8
gg1
 10
0.200000
 20
1.060000
  0
SEQEND
  8
gg1
  0
POLYLINE
  8
gg1
 62
1
 40
0.000000
 41
0.000000
 66
  1
  0
VERTEX
  8
gg1
 10
0.240000
 20
1.050000
  0
VERTEX
  8
gg1
 10
0.260000
 20
1.050000
  0
SEQEND
  8
gg1
  0
POLYLINE
  8
gg1
 62
1
 40
0.000000
 41
0.000000
 66
  1
  0
VERTEX
  8
gg1
 10
0.250000
 20
1.040000
  0
VERTEX
  8
gg1
 10
0.250000
 20
1.060000
  0
SEQEND
  8
gg1
  0
POLYLINE
  8
gg1
 62
1
 40
0.000000
 41
0.000000
 66
  1
  0
VERTEX
  8
gg1
 10
0.290000
 20
1.050000
  0
VERTEX
  8
gg1
 10
0.310000
 20
1.050000
  0
SEQEND
  8
gg1
  0
POLYLINE
  8
gg1
 62
1
 40
0.000000
 41
0.000000
 66
  1
  0
VERTEX
  8
gg1
 10
0.300000
 20
1.040000
  0
VERTEX
  8
gg1
 10
0.300000
 20
1.060000
  0
SEQEND
  8
gg1
  0
POLYLINE
  8
gg1
 62
1
 40
0.000000
 41
0.000000
 66
  1
  0
VERTEX
  8
gg1
 10
0.090000
 20
1.100000
  0
VERTEX
  8
gg1
 10
0.110000
 20
1.100000
  0
SEQEND
  8
gg1
  0
POLYLINE
  8
gg1
 62
1
 40
0.000000
 41
0.000000
 66
  1
  0
VERTEX
  8
gg1
 10
0.100000
 20
1.090000
  0
VERTEX
  8
gg1
 10
0.100000
 20
1.110000
  0
SEQEND
  8
gg1
  0
POLYLINE
  8
gg1
 62
1
 40
0.000000
 41
0.000000
 66
  1
  0
VERTEX
  8
gg1
 10
0.140000
 20
1.100000
  0
VERTEX
  8
gg1
 10
0.160000
 20
1.100000
  0
SEQEND
  8
gg1
  0
POLYLINE
  8
gg1
 62
1
 40
0.000000
 41
0.000000
 66
  1
  0
VERTEX
  8
gg1
 10
0.150000
 20
1.090000
  0
VERTEX
  8
gg1
 10
0.150000
 20
1.110000
  0
SEQEND
  8
gg1
  0
POLYLINE
  8
gg1
 62
1
 40
0.000000
 41
0.000000
 66
  1
  0
VERTEX
  8
gg1
 10
0.190000
 20
1.100000
  0
VERTEX
  8
gg1
 10
0.210000
 20
1.100000
  0
SEQEND
  8
gg1
  0
POLYLINE
  8
gg1
 62
1
 40
0.000000
 41
0.000000
 66
  1
  0
VERTEX
  8
gg1
 10
0.200000
 20
1.090000
  0
VERTEX
  8
gg1
 10
0.200000
 20
1.110000
  0
SEQEND
  8
gg1
  0
POLYLINE
  8
gg1
 62
1
 40
0.000000
 41
0.000000
 66
  1
  0
VERTEX
  8
gg1
 10
0.240000
 20
1.100000
  0
VERTEX
  8
gg1
 10
0.260000
 20
1.100000
  0
SEQEND
  8
gg1
  0
POLYLINE
  8
gg1
 62
1
 40
0.000000
 41
0.000000
 66
  1
  0
VERTEX
  8
gg1
 10
0.250000
 20
1.090000
  0
VERTEX
  8
gg1
 10
0.250000
 20
1.110000
  0
SEQEND
  8
gg1
  0
POLYLINE
  8
gg1
 62
1
 40
0.000000
 41
0.000000
 66
  1
  0
VERTEX
  8
gg1
 10
0.290000
 20
1.100000
  0
VERTEX
  8
gg1
 10
0.310000
 20
1.100000
  0
SEQEND
  8
gg1
  0
POLYLINE
  8
gg1
 62
1
 40
0.000000
 41
0.000000
 66
  1
  0
VERTEX
  8
gg1
 10
0.300000
 20
1.090000
  0
VERTEX
  8
gg1
 10
0.300000
 20
1.110000
  0
SEQEND
  8
gg1
  0
POLYLINE
  8
gg1
 62
1
 40
0.000000
 41
0.000000
 66
  1
  0
VERTEX
  8
gg1
 10
0.615000
 20
0.950000
  0
VERTEX
  8
gg1
 10
0.635000
 20
0.950000
  0
SEQEND
  8
gg1
  0
POLYLINE
  8
gg1
 62
1
 40
0.000000
 41
0.000000
 66
  1
  0
VERTEX
  8
gg1
 10
0.625000
 20
0.940000
  0
VERTEX
  8
gg1
 10
0.625000
 20
0.960000
  0
SEQEND
  8
gg1
  0
POLYLINE
  8
gg1
 62
1
 40
0.000000
 41
0.000000
 66
  1
  0
VERTEX
  8
gg1
 10
0.565000
 20
0.950000
  0
VERTEX
  8
gg1
 10
0.585000
 20
0.950000
  0
SEQEND
  8
gg1
  0
POLYLINE
  8
gg1
 62
1
 40
0.000000
 41
0.000000
 66
  1
  0
VERTEX
  8
gg1
 10
0.575000
 20
0.940000
  0
VERTEX
  8
gg1
 10
0.575000
 20
0.960000
  0
SEQEND
  8
gg1
  0
POLYLINE
  8
gg1
 62
1
 40
0.000000
 41
0.000000
 66
  1
  0
VERTEX
  8
gg1
 10
0.515000
 20
0.950000
  0
VERTEX
  8
gg1
 10
0.535000
 20
0.950000
  0
SEQEND
  8
gg1
  0
POLYLINE
  8
gg1
 62
1
 40
0.000000
 41
0.000000
 66
  1
  0
VERTEX
  8
gg1
 10
0.525000
 20
0.940000
  0
VERTEX
  8
gg1
 10
0.525000
 20
0.960000
  0
SEQEND
  8
gg1
  0
POLYLINE
  8
gg1
 62
1
 40
0.000000
 41
0.000000
 66
  1
  0
VERTEX
  8
gg1
 10
0.465000
 20
0.950000
  0
VERTEX
  8
gg1
 10
0.485000
 20
0.950000
  0
SEQEND
  8
gg1
  0
POLYLINE
  8
gg1
 62
1
 40
0.000000
 41
0.000000
 66
  1
  0
VERTEX
  8
gg1
 10
0.475000
 20
0.940000
  0
VERTEX
  8
gg1
 10
0.475000
 20
0.960000
  0
SEQEND
  8
gg1
  0
POLYLINE
  8
gg1
 62
1
 40
0.000000
 41
0.000000
 66
  1
  0
VERTEX
  8
gg1
 10
0.415000
 20
0.950000
  0
VERTEX
  8
gg1
 10
0.435000
 20
0.950000
  0
SEQEND
  8
gg1
  0
POLYLINE
  8
gg1
 62
1
 40
0.000000
 41
0.000000
 66
  1
  0
VERTEX
  8
gg1
 10
0.425000
 20
0.940000
  0
VERTEX
  8
gg1
 10
0.425000
 20
0.960000
  0
SEQEND
  8
gg1
  0
POLYLINE
  8
gg1
 62
1
 40
0.000000
 41
0.000000
 66
  1
  0
VERTEX
  8
gg1
 10
0.615000
 20
1.000000
  0
VERTEX
  8
gg1
 10
0.635000
 20
1.000000
  0
SEQEND
  8
gg1
  0
POLYLINE
  8
gg1
 62
1
 40
0.000000
 41
0.000000
 66
  1
  0
VERTEX
  8
gg1
 10
0.625000
 20
0.990000
  0
VERTEX
  8
gg1
 10
0.625000
 20
1.010000
  0
SEQEND
  8
gg1
  0
POLYLINE
  8
gg1
 62
1
 40
0.000000
 41
0.000000
 66
  1
  0
VERTEX
  8
gg1
 10
0.565000
 20
1.000000
  0
VERTEX
  8
gg1
 10
0.585000
 20
1.000000
  0
SEQEND
  8
gg1
  0
POLYLINE
  8
gg1
 62
1
 40
0.000000
 41
0.000000
 66
  1
  0
VERTEX
  8
gg1
 10
0.575000
 20
0.990000
  0
VERTEX
  8
gg1
 10
0.575000
 20
1.010000
  0
SEQEND
  8
gg1
  0
POLYLINE
  8
gg1
 62
1
 40
0.000000
 41
0.000000
 66
  1
  0
VERTEX
  8
gg1
 10
0.515000
 20
1.000000
  0
VERTEX
  8
gg1
 10
0.535000
 20
1.000000
  0
SEQEND
  8
gg1
  0
POLYLINE
  8
gg1
 62
1
 40
0.000000
 41
0.000000
 66
  1
  0
VERTEX
  8
gg1
 10
0.525000
 20
0.990000
  0
VERTEX
  8
gg1
 10
0.525000
 20
1.010000
  0
SEQEND
  8
gg1
  0
POLYLINE
  8
gg1
 62
1
 40
0.000000
 41
0.000000
 66
  1
  0
VERTEX
  8
gg1
 10
0.465000
 20
1.000000
  0
VERTEX
  8
gg1
 10
0.485000
 20
1.000000
  0
SEQEND
  8
gg1
  0
POLYLINE
  8
gg1
 62
1
 40
0.000000
 41
0.000000
 66
  1
  0
VERTEX
  8
gg1
 10
0.475000
 20
0.990000
  0
VERTEX
  8
gg1
 10
0.475000
 20
1.010000
  0
SEQEND
  8
gg1
  0
POLYLINE
  8
gg1
 62
1
 40
0.000000
 41
0.000000
 66
  1
  0
VERTEX
  8
gg1
 10
0.415000
 20
1.000000
  0
VERTEX
  8
gg1
 10
0.435000
 20
1.000000
  0
SEQEND
  8
gg1
  0
POLYLINE
  8
gg1
 62
1
 40
0.000000
 41
0.000000
 66
  1
  0
VERTEX
  8
gg1
 10
0.425000
 20
0.990000
  0
VERTEX
  8
gg1
 10
0.425000
 20
1.010000
  0
SEQEND
  8
gg1
  0
POLYLINE
  8
gg1
 62
1
 40
0.000000
 41
0.000000
 66
  1
  0
VERTEX
  8
gg1
 10
0.615000
 20
1.050000
  0
VERTEX
  8
gg1
 10
0.635000
 20
1.050000
  0
SEQEND
  8
gg1
  0
POLYLINE
  8
gg1
 62
1
 40
0.000000
 41
0.000000
 66
  1
  0
VERTEX
  8
gg1
 10
0.625000
 20
1.040000
  0
VERTEX
  8
gg1
 10
0.625000
 20
1.060000
  0
SEQEND
  8
gg1
  0
POLYLINE
  8
gg1
 62
1
 40
0.000000
 41
0.000000
 66
  1
  0
VERTEX
  8
gg1
 10
0.565000
 20
1.050000
  0
VERTEX
  8
gg1
 10
0.585000
 20
1.050000
  0
SEQEND
  8
gg1
  0
POLYLINE
  8
gg1
 62
1
 40
0.000000
 41
0.000000
 66
  1
  0
VERTEX
  8
gg1
 10
0.575000
 20
1.040000
  0
VERTEX
  8
gg1
 10
0.575000
 20
1.060000
  0
SEQEND
  8
gg1
  0
POLYLINE
  8
gg1
 62
1
 40
0.000000
 41
0.000000
 66
  1
  0
VERTEX
  8
gg1
 10
0.515000
 20
1.050000
  0
VERTEX
  8
gg1
 10
0.535000
 20
1.050000
  0
SEQEND
  8
gg1
  0
POLYLINE
  8
gg1
 62
1
 40
0.000000
 41
0.000000
 66
  1
  0
VERTEX
  8
gg1
 10
0.525000
 20
1.040000
  0
VERTEX
  8
gg1
 10
0.525000
 20
1.060000
  0
SEQEND
  8
gg1
  0
POLYLINE
  8
gg1
 62
1
 40
0.000000
 41
0.000000
 66
  1
  0
VERTEX
  8
gg1
 10
0.465000
 20
1.050000
  0
VERTEX
  8
gg1
 10
0.485000
 20
1.050000
  0
SEQEND
  8
gg1
  0
POLYLINE
  8
gg1
 62
1
 40
0.000000
 41
0.000000
 66
  1
  0
VERTEX
  8
gg1
 10
0.475000
 20
1.040000
  0
VERTEX
  8
gg1
 10
0.475000
 20
1.060000
  0
SEQEND
  8
gg1
  0
POLYLINE
  8
gg1
 62
1
 40
0.000000
 41
0.000000
 66
  1
  0
VERTEX
  8
gg1
 10
0.415000
 20
1.050000
  0
VERTEX
  8
gg1
 10
0.435000
 20
1.050000
  0
SEQEND
  8
gg1
  0
POLYLINE
  8
gg1
 62
1
 40
0.000000
 41
0.000000
 66
  1
  0
VERTEX
  8
gg1
 10
0.425000
 20
1.040000
  0
VERTEX
  8
gg1
 10
0.425000
 20
1.060000
  0
SEQEND
  8
gg1
  0
POLYLINE
  8
gg1
 62
1
 40
0.000000
 41
0.000000
 66
  1
  0
VERTEX
  8
gg1
 10
0.615000
 20
1.100000
  0
VERTEX
  8
gg1
 10
0.635000
 20
1.100000
  0
SEQEND
  8
gg1
  0
POLYLINE
  8
gg1
 62
1
 40
0.000000
 41
0.000000
 66
  1
  0
VERTEX
  8
gg1
 10
0.625000
 20
1.090000
  0
VERTEX
  8
gg1
 10
0.625000
 20
1.110000
  0
SEQEND
  8
gg1
  0
POLYLINE
  8
gg1
 62
1
 40
0.000000
 41
0.000000
 66
  1
  0
VERTEX
  8
gg1
 10
0.565000
 20
1.100000
  0
VERTEX
  8
gg1
 10
0.585000
 20
1.100000
  0
SEQEND
  8
gg1
  0
POLYLINE
  8
gg1
 62
1
 40
0.000000
 41
0.000000
 66
  1
  0
VERTEX
  8
gg1
 10
0.575000
 20
1.090000
  0
VERTEX
  8
gg1
 10
0.575000
 20
1.110000
  0
SEQEND
  8
gg1
  0
POLYLINE
  8
gg1
 62
1
 40
0.000000
 41
0.000000
 66
  1
  0
VERTEX
  8
gg1
 10
0.515000
 20
1.100000
  0
VERTEX
  8
gg1
 10
0.535000
 20
1.100000
  0
SEQEND
  8
gg1
  0
POLYLINE
  8
gg1
 62
1
 40
0.000000
 41
0.000000
 66
  1
  0
VERTEX
  8
gg1
 10
0.525000
 20
1.090000
  0
VERTEX
  8
gg1
 10
0.525000
 20
1.110000
  0
SEQEND
  8
gg1
  0
POLYLINE
  8
gg1
 62
1
 40
0.000000
 41
0.000000
 66
  1
  0
VERTEX
  8
gg1
 10
0.465000
 20
1.100000
  0
VERTEX
  8
gg1
 10
0.485000
 20
1.100000
  0
SEQEND
  8
gg1
  0
POLYLINE
  8
gg1
 62
1
 40
0.000000
 41
0.000000
 66
  1
  0
VERTEX
  8
gg1
 10
0.475000
 20
1.090000
  0
VERTEX
  8
gg1
 10
0.475000
 20
1.110000
  0
SEQEND
  8
gg1
  0
POLYLINE
  8
gg1
 62
1
 40
0.000000
 41
0.000000
 66
  1
  0
VERTEX
  8
gg1
 10
0.415000
 20
1.100000
  0
VERTEX
  8
gg1
 10
0.435000
 20
1.100000
  0
SEQEND
  8
gg1
  0
POLYLINE
  8
gg1
 62
1
 40
0.000000
 41
0.000000
 66
  1
  0
VERTEX
  8
gg1
 10
0.425000
 20
1.090000
  0
VERTEX
  8
gg1
 10
0.425000
 20
1.110000
  0
SEQEND
  8
gg1
  0
POLYLINE
  8
gg1
 62
1
 40
0.000000
 41
0.000000
 66
  1
  0
VERTEX
  8
gg1
 10
1.765000
 20
0.950000
  0
VERTEX
  8
gg1
 10
1.785000
 20
0.950000
  0
SEQEND
  8
gg1
  0
POLYLINE
  8
gg1
 62
1
 40
0.000000
 41
0.000000
 66
  1
  0
VERTEX
  8
gg1
 10
1.775000
 20
0.940000
  0
VERTEX
  8
gg1
 10
1.775000
 20
0.960000
  0
SEQEND
  8
gg1
  0
POLYLINE
  8
gg1
 62
1
 40
0.000000
 41
0.000000
 66
  1
  0
VERTEX
  8
gg1
 10
1.765000
 20
1.000000
  0
VERTEX
  8
gg1
 10
1.785000
 20
1.000000
  0
SEQEND
  8
gg1
  0
POLYLINE
  8
gg1
 62
1
 40
0.000000
 41
0.000000
 66
  1
  0
VERTEX
  8
gg1
 10
1.775000
 20
0.990000
  0
VERTEX
  8
gg1
 10
1.775000
 20
1.010000
  0
SEQEND
  8
gg1
  0
POLYLINE
  8
gg1
 62
1
 40
0.000000
 41
0.000000
 66
  1
  0
VERTEX
  8
gg1
 10
1.765000
 20
1.050000
  0
VERTEX
  8
gg1
 10
1.785000
 20
1.050000
  0
SEQEND
  8
gg1
  0
POLYLINE
  8
gg1
 62
1
 40
0.000000
 41
0.000000
 66
  1
  0
VERTEX
  8
gg1
 10
1.775000
 20
1.040000
  0
VERTEX
  8
gg1
 10
1.775000
 20
1.060000
  0
SEQEND
  8
gg1
  0
POLYLINE
  8
gg1
 62
1
 40
0.000000
 41
0.000000
 66
  1
  0
VERTEX
  8
gg1
 10
1.765000
 20
1.100000
  0
VERTEX
  8
gg1
 10
1.785000
 20
1.100000
  0
SEQEND
  8
gg1
  0
POLYLINE
  8
gg1
 62
1
 40
0.000000
 41
0.000000
 66
  1
  0
VERTEX
  8
gg1
 10
1.775000
 20
1.090000
  0
VERTEX
  8
gg1
 10
1.775000
 20
1.110000
  0
SEQEND
  8
gg1
  0
POLYLINE
  8
gg1
 62
1
 40
0.000000
 41
0.000000
 66
  1
  0
VERTEX
  8
gg1
 10
1.215000
 20
0.950000
  0
VERTEX
  8
gg1
 10
1.235000
 20
0.950000
  0
SEQEND
  8
gg1
  0
POLYLINE
  8
gg1
 62
1
 40
0.000000
 41
0.000000
 66
  1
  0
VERTEX
  8
gg1
 10
1.225000
 20
0.940000
  0
VERTEX
  8
gg1
 10
1.225000
 20
0.960000
  0
SEQEND
  8
gg1
  0
POLYLINE
  8
gg1
 62
1
 40
0.000000
 41
0.000000
 66
  1
  0
VERTEX
  8
gg1
 10
1.215000
 20
1.000000
  0
VERTEX
  8
gg1
 10
1.235000
 20
1.000000
  0
SEQEND
  8
gg1
  0
POLYLINE
  8
gg1
 62
1
 40
0.000000
 41
0.000000
 66
  1
  0
VERTEX
  8
gg1
 10
1.225000
 20
0.990000
  0
VERTEX
  8
gg1
 10
1.225000
 20
1.010000
  0
SEQEND
  8
gg1
  0
POLYLINE
  8
gg1
 62
1
 40
0.000000
 41
0.000000
 66
  1
  0
VERTEX
  8
gg1
 10
1.215000
 20
1.050000
  0
VERTEX
  8
gg1
 10
1.235000
 20
1.050000
  0
SEQEND
  8
gg1
  0
POLYLINE
  8
gg1
 62
1
 40
0.000000
 41
0.000000
 66
  1
  0
VERTEX
  8
gg1
 10
1.225000
 20
1.040000
  0
VERTEX
  8
gg1
 10
1.225000
 20
1.060000
  0
SEQEND
  8
gg1
  0
POLYLINE
  8
gg1
 62
1
 40
0.000000
 41
0.000000
 66
  1
  0
VERTEX
  8
gg1
 10
1.215000
 20
1.100000
  0
VERTEX
  8
gg1
 10
1.235000
 20
1.100000
  0
SEQEND
  8
gg1
  0
POLYLINE
  8
gg1
 62
1
 40
0.000000
 41
0.000000
 66
  1
  0
VERTEX
  8
gg1
 10
1.225000
 20
1.090000
  0
VERTEX
  8
gg1
 10
1.225000
 20
1.110000
  0
SEQEND
  8
gg1
  0
POLYLINE
  8
gg1
 62
1
 40
0.000000
 41
0.000000
 66
  1
  0
VERTEX
  8
gg1
 10
1.265000
 20
1.100000
  0
VERTEX
  8
gg1
 10
1.285000
 20
1.100000
  0
SEQEND
  8
gg1
  0
POLYLINE
  8
gg1
 62
1
 40
0.000000
 41
0.000000
 66
  1
  0
VERTEX
  8
gg1
 10
1.275000
 20
1.090000
  0
VERTEX
  8
gg1
 10
1.275000
 20
1.110000
  0
SEQEND
  8
gg1
  0
POLYLINE
  8
gg1
 62
1
 40
0.000000
 41
0.000000
 66
  1
  0
VERTEX
  8
gg1
 10
1.265000
 20
1.050000
  0
VERTEX
  8
gg1
 10
1.285000
 20
1.050000
  0
SEQEND
  8
gg1
  0
POLYLINE
  8
gg1
 62
1
 40
0.000000
 41
0.000000
 66
  1
  0
VERTEX
  8
gg1
 10
1.275000
 20
1.040000
  0
VERTEX
  8
gg1
 10
1.275000
 20
1.060000
  0
SEQEND
  8
gg1
  0
POLYLINE
  8
gg1
 62
1
 40
0.000000
 41
0.000000
 66
  1
  0
VERTEX
  8
gg1
 10
1.265000
 20
1.000000
  0
VERTEX
  8
gg1
 10
1.285000
 20
1.000000
  0
SEQEND
  8
gg1
  0
POLYLINE
  8
gg1
 62
1
 40
0.000000
 41
0.000000
 66
  1
  0
VERTEX
  8
gg1
 10
1.275000
 20
0.990000
  0
VERTEX
  8
gg1
 10
1.275000
 20
1.010000
  0
SEQEND
  8
gg1
  0
POLYLINE
  8
gg1
 62
1
 40
0.000000
 41
0.000000
 66
  1
  0
VERTEX
  8
gg1
 10
1.265000
 20
0.950000
  0
VERTEX
  8
gg1
 10
1.285000
 20
0.950000
  0
SEQEND
  8
gg1
  0
POLYLINE
  8
gg1
 62
1
 40
0.000000
 41
0.000000
 66
  1
  0
VERTEX
  8
gg1
 10
1.275000
 20
0.940000
  0
VERTEX
  8
gg1
 10
1.275000
 20
0.960000
  0
SEQEND
  8
gg1
  0
POLYLINE
  8
gg1
 62
1
 40
0.000000
 41
0.000000
 66
  1
  0
VERTEX
  8
gg1
 10
1.315000
 20
0.950000
  0
VERTEX
  8
gg1
 10
1.335000
 20
0.950000
  0
SEQEND
  8
gg1
  0
POLYLINE
  8
gg1
 62
1
 40
0.000000
 41
0.000000
 66
  1
  0
VERTEX
  8
gg1
 10
1.325000
 20
0.940000
  0
VERTEX
  8
gg1
 10
1.325000
 20
0.960000
  0
SEQEND
  8
gg1
  0
POLYLINE
  8
gg1
 62
1
 40
0.000000
 41
0.000000
 66
  1
  0
VERTEX
  8
gg1
 10
1.315000
 20
1.000000
  0
VERTEX
  8
gg1
 10
1.335000
 20
1.000000
  0
SEQEND
  8
gg1
  0
POLYLINE
  8
gg1
 62
1
 40
0.000000
 41
0.000000
 66
  1
  0
VERTEX
  8
gg1
 10
1.325000
 20
0.990000
  0
VERTEX
  8
gg1
 10
1.325000
 20
1.010000
  0
SEQEND
  8
gg1
  0
POLYLINE
  8
gg1
 62
1
 40
0.000000
 41
0.000000
 66
  1
  0
VERTEX
  8
gg1
 10
1.315000
 20
1.050000
  0
VERTEX
  8
gg1
 10
1.335000
 20
1.050000
  0
SEQEND
  8
gg1
  0
POLYLINE
  8
gg1
 62
1
 40
0.000000
 41
0.000000
 66
  1
  0
VERTEX
  8
gg1
 10
1.325000
 20
1.040000
  0
VERTEX
  8
gg1
 10
1.325000
 20
1.060000
  0
SEQEND
  8
gg1
  0
POLYLINE
  8
gg1
 62
1
 40
0.000000
 41
0.000000
 66
  1
  0
VERTEX
  8
gg1
 10
1.315000
 20
1.100000
  0
VERTEX
  8
gg1
 10
1.335000
 20
1.100000
  0
SEQEND
  8
gg1
  0
POLYLINE
  8
gg1
 62
1
 40
0.000000
 41
0.000000
 66
  1
  0
VERTEX
  8
gg1
 10
1.325000
 20
1.090000
  0
VERTEX
  8
gg1
 10
1.325000
 20
1.110000
  0
SEQEND
  8
gg1
  0
POLYLINE
  8
gg1
 62
1
 40
0.000000
 41
0.000000
 66
  1
  0
VERTEX
  8
gg1
 10
1.365000
 20
1.100000
  0
VERTEX
  8
gg1
 10
1.385000
 20
1.100000
  0
SEQEND
  8
gg1
  0
POLYLINE
  8
gg1
 62
1
 40
0.000000
 41
0.000000
 66
  1
  0
VERTEX
  8
gg1
 10
1.375000
 20
1.090000
  0
VERTEX
  8
gg1
 10
1.375000
 20
1.110000
  0
SEQEND
  8
gg1
  0
POLYLINE
  8
gg1
 62
1
 40
0.000000
 41
0.000000
 66
  1
  0
VERTEX
  8
gg1
 10
1.365000
 20
1.050000
  0
VERTEX
  8
gg1
 10
1.385000
 20
1.050000
  0
SEQEND
  8
gg1
  0
POLYLINE
  8
gg1
 62
1
 40
0.000000
 41
0.000000
 66
  1
  0
VERTEX
  8
gg1
 10
1.375000
 20
1.040000
  0
VERTEX
  8
gg1
 10
1.375000
 20
1.060000
  0
SEQEND
  8
gg1
  0
POLYLINE
  8
gg1
 62
1
 40
0.000000
 41
0.000000
 66
  1
  0
VERTEX
  8
gg1
 10
1.365000
 20
1.000000
  0
VERTEX
  8
gg1
 10
1.385000
 20
1.000000
  0
SEQEND
  8
gg1
  0
POLYLINE
  8
gg1
 62
1
 40
0.000000
 41
0.000000
 66
  1
  0
VERTEX
  8
gg1
 10
1.375000
 20
0.990000
  0
VERTEX
  8
gg1
 10
1.375000
 20
1.010000
  0
SEQEND
  8
gg1
  0
POLYLINE
  8
gg1
 62
1
 40
0.000000
 41
0.000000
 66
  1
  0
VERTEX
  8
gg1
 10
1.365000
 20
0.950000
  0
VERTEX
  8
gg1
 10
1.385000
 20
0.950000
  0
SEQEND
  8
gg1
  0
POLYLINE
  8
gg1
 62
1
 40
0.000000
 41
0.000000
 66
  1
  0
VERTEX
  8
gg1
 10
1.375000
 20
0.940000
  0
VERTEX
  8
gg1
 10
1.375000
 20
0.960000
  0
SEQEND
  8
gg1
  0
POLYLINE
  8
gg1
 62
1
 40
0.000000
 41
0.000000
 66
  1
  0
VERTEX
  8
gg1
 10
1.415000
 20
0.950000
  0
VERTEX
  8
gg1
 10
1.435000
 20
0.950000
  0
SEQEND
  8
gg1
  0
POLYLINE
  8
gg1
 62
1
 40
0.000000
 41
0.000000
 66
  1
  0
VERTEX
  8
gg1
 10
1.425000
 20
0.940000
  0
VERTEX
  8
gg1
 10
1.425000
 20
0.960000
  0
SEQEND
  8
gg1
  0
POLYLINE
  8
gg1
 62
1
 40
0.000000
 41
0.000000
 66
  1
  0
VERTEX
  8
gg1
 10
1.415000
 20
1.000000
  0
VERTEX
  8
gg1
 10
1.435000
 20
1.000000
  0
SEQEND
  8
gg1
  0
POLYLINE
  8
gg1
 62
1
 40
0.000000
 41
0.000000
 66
  1
  0
VERTEX
  8
gg1
 10
1.425000
 20
0.990000
  0
VERTEX
  8
gg1
 10
1.425000
 20
1.010000
  0
SEQEND
  8
gg1
  0
POLYLINE
  8
gg1
 62
1
 40
0.000000
 41
0.000000
 66
  1
  0
VERTEX
  8
gg1
 10
1.415000
 20
1.050000
  0
VERTEX
  8
gg1
 10
1.435000
 20
1.050000
  0
SEQEND
  8
gg1
  0
POLYLINE
  8
gg1
 62
1
 40
0.000000
 41
0.000000
 66
  1
  0
VERTEX
  8
gg1
 10
1.425000
 20
1.040000
  0
VERTEX
  8
gg1
 10
1.425000
 20
1.060000
  0
SEQEND
  8
gg1
  0
POLYLINE
  8
gg1
 62
1
 40
0.000000
 41
0.000000
 66
  1
  0
VERTEX
  8
gg1
 10
1.415000
 20
1.100000
  0
VERTEX
  8
gg1
 10
1.435000
 20
1.100000
  0
SEQEND
  8
gg1
  0
POLYLINE
  8
gg1
 62
1
 40
0.000000
 41
0.000000
 66
  1
  0
VERTEX
  8
gg1
 10
1.425000
 20
1.090000
  0
VERTEX
  8
gg1
 10
1.425000
 20
1.110000
  0
SEQEND
  8
gg1
  0
POLYLINE
  8
gg1
 62
1
 40
0.000000
 41
0.000000
 66
  1
  0
VERTEX
  8
gg1
 10
1.565000
 20
0.950000
  0
VERTEX
  8
gg1
 10
1.585000
 20
0.950000
  0
SEQEND
  8
gg1
  0
POLYLINE
  8
gg1
 62
1
 40
0.000000
 41
0.000000
 66
  1
  0
VERTEX
  8
gg1
 10
1.575000
 20
0.940000
  0
VERTEX
  8
gg1
 10
1.575000
 20
0.960000
  0
SEQEND
  8
gg1
  0
POLYLINE
  8
gg1
 62
1
 40
0.000000
 41
0.000000
 66
  1
  0
VERTEX
  8
gg1
 10
1.615000
 20
0.950000
  0
VERTEX
  8
gg1
 10
1.635000
 20
0.950000
  0
SEQEND
  8
gg1
  0
POLYLINE
  8
gg1
 62
1
 40
0.000000
 41
0.000000
 66
  1
  0
VERTEX
  8
gg1
 10
1.625000
 20
0.940000
  0
VERTEX
  8
gg1
 10
1.625000
 20
0.960000
  0
SEQEND
  8
gg1
  0
POLYLINE
  8
gg1
 62
1
 40
0.000000
 41
0.000000
 66
  1
  0
VERTEX
  8
gg1
 10
1.665000
 20
0.950000
  0
VERTEX
  8
gg1
 10
1.685000
 20
0.950000
  0
SEQEND
  8
gg1
  0
POLYLINE
  8
gg1
 62
1
 40
0.000000
 41
0.000000
 66
  1
  0
VERTEX
  8
gg1
 10
1.675000
 20
0.940000
  0
VERTEX
  8
gg1
 10
1.675000
 20
0.960000
  0
SEQEND
  8
gg1
  0
POLYLINE
  8
gg1
 62
1
 40
0.000000
 41
0.000000
 66
  1
  0
VERTEX
  8
gg1
 10
1.715000
 20
0.950000
  0
VERTEX
  8
gg1
 10
1.735000
 20
0.950000
  0
SEQEND
  8
gg1
  0
POLYLINE
  8
gg1
 62
1
 40
0.000000
 41
0.000000
 66
  1
  0
VERTEX
  8
gg1
 10
1.725000
 20
0.940000
  0
VERTEX
  8
gg1
 10
1.725000
 20
0.960000
  0
SEQEND
  8
gg1
  0
POLYLINE
  8
gg1
 62
1
 40
0.000000
 41
0.000000
 66
  1
  0
VERTEX
  8
gg1
 10
1.565000
 20
1.000000
  0
VERTEX
  8
gg1
 10
1.585000
 20
1.000000
  0
SEQEND
  8
gg1
  0
POLYLINE
  8
gg1
 62
1
 40
0.000000
 41
0.000000
 66
  1
  0
VERTEX
  8
gg1
 10
1.575000
 20
0.990000
  0
VERTEX
  8
gg1
 10
1.575000
 20
1.010000
  0
SEQEND
  8
gg1
  0
POLYLINE
  8
gg1
 62
1
 40
0.000000
 41
0.000000
 66
  1
  0
VERTEX
  8
gg1
 10
1.615000
 20
1.000000
  0
VERTEX
  8
gg1
 10
1.635000
 20
1.000000
  0
SEQEND
  8
gg1
  0
POLYLINE
  8
gg1
 62
1
 40
0.000000
 41
0.000000
 66
  1
  0
VERTEX
  8
gg1
 10
1.625000
 20
0.990000
  0
VERTEX
  8
gg1
 10
1.625000
 20
1.010000
  0
SEQEND
  8
gg1
  0
POLYLINE
  8
gg1
 62
1
 40
0.000000
 41
0.000000
 66
  1
  0
VERTEX
  8
gg1
 10
1.665000
 20
1.000000
  0
VERTEX
  8
gg1
 10
1.685000
 20
1.000000
  0
SEQEND
  8
gg1
  0
POLYLINE
  8
gg1
 62
1
 40
0.000000
 41
0.000000
 66
  1
  0
VERTEX
  8
gg1
 10
1.675000
 20
0.990000
  0
VERTEX
  8
gg1
 10
1.675000
 20
1.010000
  0
SEQEND
  8
gg1
  0
POLYLINE
  8
gg1
 62
1
 40
0.000000
 41
0.000000
 66
  1
  0
VERTEX
  8
gg1
 10
1.715000
 20
1.000000
  0
VERTEX
  8
gg1
 10
1.735000
 20
1.000000
  0
SEQEND
  8
gg1
  0
POLYLINE
  8
gg1
 62
1
 40
0.000000
 41
0.000000
 66
  1
  0
VERTEX
  8
gg1
 10
1.725000
 20
0.990000
  0
VERTEX
  8
gg1
 10
1.725000
 20
1.010000
  0
SEQEND
  8
gg1
  0
POLYLINE
  8
gg1
 62
1
 40
0.000000
 41
0.000000
 66
  1
  0
VERTEX
  8
gg1
 10
1.565000
 20
1.050000
  0
VERTEX
  8
gg1
 10
1.585000
 20
1.050000
  0
SEQEND
  8
gg1
  0
POLYLINE
  8
gg1
 62
1
 40
0.000000
 41
0.000000
 66
  1
  0
VERTEX
  8
gg1
 10
1.575000
 20
1.040000
  0
VERTEX
  8
gg1
 10
1.575000
 20
1.060000
  0
SEQEND
  8
gg1
  0
POLYLINE
  8
gg1
 62
1
 40
0.000000
 41
0.000000
 66
  1
  0
VERTEX
  8
gg1
 10
1.615000
 20
1.050000
  0
VERTEX
  8
gg1
 10
1.635000
 20
1.050000
  0
SEQEND
  8
gg1
  0
POLYLINE
  8
gg1
 62
1
 40
0.000000
 41
0.000000
 66
  1
  0
VERTEX
  8
gg1
 10
1.625000
 20
1.040000
  0
VERTEX
  8
gg1
 10
1.625000
 20
1.060000
  0
SEQEND
  8
gg1
  0
POLYLINE
  8
gg1
 62
1
 40
0.000000
 41
0.000000
 66
  1
  0
VERTEX
  8
gg1
 10
1.665000
 20
1.050000
  0
VERTEX
  8
gg1
 10
1.685000
 20
1.050000
  0
SEQEND
  8
gg1
  0
POLYLINE
  8
gg1
 62
1
 40
0.000000
 41
0.000000
 66
  1
  0
VERTEX
  8
gg1
 10
1.675000
 20
1.040000
  0
VERTEX
  8
gg1
 10
1.675000
 20
1.060000
  0
SEQEND
  8
gg1
  0
POLYLINE
  8
gg1
 62
1
 40
0.000000
 41
0.000000
 66
  1
  0
VERTEX
  8
gg1
 10
1.715000
 20
1.050000
  0
VERTEX
  8
gg1
 10
1.735000
 20
1.050000
  0
SEQEND
  8
gg1
  0
POLYLINE
  8
gg1
 62
1
 40
0.000000
 41
0.000000
 66
  1
  0
VERTEX
  8
gg1
 10
1.725000
 20
1.040000
  0
VERTEX
  8
gg1
 10
1.725000
 20
1.060000
  0
SEQEND
  8
gg1
  0
POLYLINE
  8
gg1
 62
1
 40
0.000000
 41
0.000000
 66
  1
  0
VERTEX
  8
gg1
 10
1.565000
 20
1.100000
  0
VERTEX
  8
gg1
 10
1.585000
 20
1.100000
  0
SEQEND
  8
gg1
  0
POLYLINE
  8
gg1
 62
1
 40
0.000000
 41
0.000000
 66
  1
  0
VERTEX
  8
gg1
 10
1.575000
 20
1.090000
  0
VERTEX
  8
gg1
 10
1.575000
 20
1.110000
  0
SEQEND
  8
gg1
  0
POLYLINE
  8
gg1
 62
1
 40
0.000000
 41
0.000000
 66
  1
  0
VERTEX
  8
gg1
 10
1.615000
 20
1.100000
  0
VERTEX
  8
gg1
 10
1.635000
 20
1.100000
  0
SEQEND
  8
gg1
  0
POLYLINE
  8
gg1
 62
1
 40
0.000000
 41
0.000000
 66
  1
  0
VERTEX
  8
gg1
 10
1.625000
 20
1.090000
  0
VERTEX
  8
gg1
 10
1.625000
 20
1.110000
  0
SEQEND
  8
gg1
  0
POLYLINE
  8
gg1
 62
1
 40
0.000000
 41
0.000000
 66
  1
  0
VERTEX
  8
gg1
 10
1.665000
 20
1.100000
  0
VERTEX
  8
gg1
 10
1.685000
 20
1.100000
  0
SEQEND
  8
gg1
  0
POLYLINE
  8
gg1
 62
1
 40
0.000000
 41
0.000000
 66
  1
  0
VERTEX
  8
gg1
 10
1.675000
 20
1.090000
  0
VERTEX
  8
gg1
 10
1.675000
 20
1.110000
  0
SEQEND
  8
gg1
  0
POLYLINE
  8
gg1
 62
1
 40
0.000000
 41
0.000000
 66
  1
  0
VERTEX
  8
gg1
 10
1.715000
 20
1.100000
  0
VERTEX
  8
gg1
 10
1.735000
 20
1.100000
  0
SEQEND
  8
gg1
  0
POLYLINE
  8
gg1
 62
1
 40
0.000000
 41
0.000000
 66
  1
  0
VERTEX
  8
gg1
 10
1.725000
 20
1.090000
  0
VERTEX
  8
gg1
 10
1.725000
 20
1.110000
  0
SEQEND
  8
gg1
  0
POLYLINE
  8
gg1
 62
1
 40
0.000000
 41
0.000000
 66
  1
  0
VERTEX
  8
gg1
 10
0.540000
 20
1.175000
  0
VERTEX
  8
gg1
 10
0.560000
 20
1.175000
  0
SEQEND
  8
gg1
  0
POLYLINE
  8
gg1
 62
1
 40
0.000000
 41
0.000000
 66
  1
  0
VERTEX
  8
gg1
 10
0.550000
 20
1.165000
  0
VERTEX
  8
gg1
 10
0.550000
 20
1.185000
  0
SEQEND
  8
gg1
  0
POLYLINE
  8
gg1
 62
1
 40
0.000000
 41
0.000000
 66
  1
  0
VERTEX
  8
gg1
 10
0.490000
 20
1.175000
  0
VERTEX
  8
gg1
 10
0.510000
 20
1.175000
  0
SEQEND
  8
gg1
  0
POLYLINE
  8
gg1
 62
1
 40
0.000000
 41
0.000000
 66
  1
  0
VERTEX
  8
gg1
 10
0.500000
 20
1.165000
  0
VERTEX
  8
gg1
 10
0.500000
 20
1.185000
  0
SEQEND
  8
gg1
  0
POLYLINE
  8
gg1
 62
1
 40
0.000000
 41
0.000000
 66
  1
  0
VERTEX
  8
gg1
 10
0.440000
 20
1.175000
  0
VERTEX
  8
gg1
 10
0.460000
 20
1.175000
  0
SEQEND
  8
gg1
  0
POLYLINE
  8
gg1
 62
1
 40
0.000000
 41
0.000000
 66
  1
  0
VERTEX
  8
gg1
 10
0.450000
 20
1.165000
  0
VERTEX
  8
gg1
 10
0.450000
 20
1.185000
  0
SEQEND
  8
gg1
  0
POLYLINE
  8
gg1
 62
1
 40
0.000000
 41
0.000000
 66
  1
  0
VERTEX
  8
gg1
 10
0.390000
 20
1.175000
  0
VERTEX
  8
gg1
 10
0.410000
 20
1.175000
  0
SEQEND
  8
gg1
  0
POLYLINE
  8
gg1
 62
1
 40
0.000000
 41
0.000000
 66
  1
  0
VERTEX
  8
gg1
 10
0.400000
 20
1.165000
  0
VERTEX
  8
gg1
 10
0.400000
 20
1.185000
  0
SEQEND
  8
gg1
  0
POLYLINE
  8
gg1
 62
1
 40
0.000000
 41
0.000000
 66
  1
  0
VERTEX
  8
gg1
 10
0.340000
 20
1.175000
  0
VERTEX
  8
gg1
 10
0.360000
 20
1.175000
  0
SEQEND
  8
gg1
  0
POLYLINE
  8
gg1
 62
1
 40
0.000000
 41
0.000000
 66
  1
  0
VERTEX
  8
gg1
 10
0.350000
 20
1.165000
  0
VERTEX
  8
gg1
 10
0.350000
 20
1.185000
  0
SEQEND
  8
gg1
  0
POLYLINE
  8
gg1
 62
1
 40
0.000000
 41
0.000000
 66
  1
  0
VERTEX
  8
gg1
 10
0.290000
 20
1.175000
  0
VERTEX
  8
gg1
 10
0.310000
 20
1.175000
  0
SEQEND
  8
gg1
  0
POLYLINE
  8
gg1
 62
1
 40
0.000000
 41
0.000000
 66
  1
  0
VERTEX
  8
gg1
 10
0.300000
 20
1.165000
  0
VERTEX
  8
gg1
 10
0.300000
 20
1.185000
  0
SEQEND
  8
gg1
  0
POLYLINE
  8
gg1
 62
1
 40
0.000000
 41
0.000000
 66
  1
  0
VERTEX
  8
gg1
 10
0.240000
 20
1.175000
  0
VERTEX
  8
gg1
 10
0.260000
 20
1.175000
  0
SEQEND
  8
gg1
  0
POLYLINE
  8
gg1
 62
1
 40
0.000000
 41
0.000000
 66
  1
  0
VERTEX
  8
gg1
 10
0.250000
 20
1.165000
  0
VERTEX
  8
gg1
 10
0.250000
 20
1.185000
  0
SEQEND
  8
gg1
  0
POLYLINE
  8
gg1
 62
1
 40
0.000000
 41
0.000000
 66
  1
  0
VERTEX
  8
gg1
 10
0.190000
 20
1.175000
  0
VERTEX
  8
gg1
 10
0.210000
 20
1.175000
  0
SEQEND
  8
gg1
  0
POLYLINE
  8
gg1
 62
1
 40
0.000000
 41
0.000000
 66
  1
  0
VERTEX
  8
gg1
 10
0.200000
 20
1.165000
  0
VERTEX
  8
gg1
 10
0.200000
 20
1.185000
  0
SEQEND
  8
gg1
  0
POLYLINE
  8
gg1
 62
1
 40
0.000000
 41
0.000000
 66
  1
  0
VERTEX
  8
gg1
 10
0.190000
 20
1.225000
  0
VERTEX
  8
gg1
 10
0.210000
 20
1.225000
  0
SEQEND
  8
gg1
  0
POLYLINE
  8
gg1
 62
1
 40
0.000000
 41
0.000000
 66
  1
  0
VERTEX
  8
gg1
 10
0.200000
 20
1.215000
  0
VERTEX
  8
gg1
 10
0.200000
 20
1.235000
  0
SEQEND
  8
gg1
  0
POLYLINE
  8
gg1
 62
1
 40
0.000000
 41
0.000000
 66
  1
  0
VERTEX
  8
gg1
 10
0.240000
 20
1.225000
  0
VERTEX
  8
gg1
 10
0.260000
 20
1.225000
  0
SEQEND
  8
gg1
  0
POLYLINE
  8
gg1
 62
1
 40
0.000000
 41
0.000000
 66
  1
  0
VERTEX
  8
gg1
 10
0.250000
 20
1.215000
  0
VERTEX
  8
gg1
 10
0.250000
 20
1.235000
  0
SEQEND
  8
gg1
  0
POLYLINE
  8
gg1
 62
1
 40
0.000000
 41
0.000000
 66
  1
  0
VERTEX
  8
gg1
 10
0.290000
 20
1.225000
  0
VERTEX
  8
gg1
 10
0.310000
 20
1.225000
  0
SEQEND
  8
gg1
  0
POLYLINE
  8
gg1
 62
1
 40
0.000000
 41
0.000000
 66
  1
  0
VERTEX
  8
gg1
 10
0.300000
 20
1.215000
  0
VERTEX
  8
gg1
 10
0.300000
 20
1.235000
  0
SEQEND
  8
gg1
  0
POLYLINE
  8
gg1
 62
1
 40
0.000000
 41
0.000000
 66
  1
  0
VERTEX
  8
gg1
 10
0.340000
 20
1.225000
  0
VERTEX
  8
gg1
 10
0.360000
 20
1.225000
  0
SEQEND
  8
gg1
  0
POLYLINE
  8
gg1
 62
1
 40
0.000000
 41
0.000000
 66
  1
  0
VERTEX
  8
gg1
 10
0.350000
 20
1.215000
  0
VERTEX
  8
gg1
 10
0.350000
 20
1.235000
  0
SEQEND
  8
gg1
  0
POLYLINE
  8
gg1
 62
1
 40
0.000000
 41
0.000000
 66
  1
  0
VERTEX
  8
gg1
 10
0.390000
 20
1.225000
  0
VERTEX
  8
gg1
 10
0.410000
 20
1.225000
  0
SEQEND
  8
gg1
  0
POLYLINE
  8
gg1
 62
1
 40
0.000000
 41
0.000000
 66
  1
  0
VERTEX
  8
gg1
 10
0.400000
 20
1.215000
  0
VERTEX
  8
gg1
 10
0.400000
 20
1.235000
  0
SEQEND
  8
gg1
  0
POLYLINE
  8
gg1
 62
1
 40
0.000000
 41
0.000000
 66
  1
  0
VERTEX
  8
gg1
 10
0.440000
 20
1.225000
  0
VERTEX
  8
gg1
 10
0.460000
 20
1.225000
  0
SEQEND
  8
gg1
  0
POLYLINE
  8
gg1
 62
1
 40
0.000000
 41
0.000000
 66
  1
  0
VERTEX
  8
gg1
 10
0.450000
 20
1.215000
  0
VERTEX
  8
gg1
 10
0.450000
 20
1.235000
  0
SEQEND
  8
gg1
  0
POLYLINE
  8
gg1
 62
1
 40
0.000000
 41
0.000000
 66
  1
  0
VERTEX
  8
gg1
 10
0.490000
 20
1.225000
  0
VERTEX
  8
gg1
 10
0.510000
 20
1.225000
  0
SEQEND
  8
gg1
  0
POLYLINE
  8
gg1
 62
1
 40
0.000000
 41
0.000000
 66
  1
  0
VERTEX
  8
gg1
 10
0.500000
 20
1.215000
  0
VERTEX
  8
gg1
 10
0.500000
 20
1.235000
  0
SEQEND
  8
gg1
  0
POLYLINE
  8
gg1
 62
1
 40
0.000000
 41
0.000000
 66
  1
  0
VERTEX
  8
gg1
 10
0.540000
 20
1.225000
  0
VERTEX
  8
gg1
 10
0.560000
 20
1.225000
  0
SEQEND
  8
gg1
  0
POLYLINE
  8
gg1
 62
1
 40
0.000000
 41
0.000000
 66
  1
  0
VERTEX
  8
gg1
 10
0.550000
 20
1.215000
  0
VERTEX
  8
gg1
 10
0.550000
 20
1.235000
  0
SEQEND
  8
gg1
  0
POLYLINE
  8
gg1
 62
1
 40
0.000000
 41
0.000000
 66
  1
  0
VERTEX
  8
gg1
 10
0.540000
 20
1.275000
  0
VERTEX
  8
gg1
 10
0.560000
 20
1.275000
  0
SEQEND
  8
gg1
  0
POLYLINE
  8
gg1
 62
1
 40
0.000000
 41
0.000000
 66
  1
  0
VERTEX
  8
gg1
 10
0.550000
 20
1.265000
  0
VERTEX
  8
gg1
 10
0.550000
 20
1.285000
  0
SEQEND
  8
gg1
  0
POLYLINE
  8
gg1
 62
1
 40
0.000000
 41
0.000000
 66
  1
  0
VERTEX
  8
gg1
 10
0.490000
 20
1.275000
  0
VERTEX
  8
gg1
 10
0.510000
 20
1.275000
  0
SEQEND
  8
gg1
  0
POLYLINE
  8
gg1
 62
1
 40
0.000000
 41
0.000000
 66
  1
  0
VERTEX
  8
gg1
 10
0.500000
 20
1.265000
  0
VERTEX
  8
gg1
 10
0.500000
 20
1.285000
  0
SEQEND
  8
gg1
  0
POLYLINE
  8
gg1
 62
1
 40
0.000000
 41
0.000000
 66
  1
  0
VERTEX
  8
gg1
 10
0.440000
 20
1.275000
  0
VERTEX
  8
gg1
 10
0.460000
 20
1.275000
  0
SEQEND
  8
gg1
  0
POLYLINE
  8
gg1
 62
1
 40
0.000000
 41
0.000000
 66
  1
  0
VERTEX
  8
gg1
 10
0.450000
 20
1.265000
  0
VERTEX
  8
gg1
 10
0.450000
 20
1.285000
  0
SEQEND
  8
gg1
  0
POLYLINE
  8
gg1
 62
1
 40
0.000000
 41
0.000000
 66
  1
  0
VERTEX
  8
gg1
 10
0.390000
 20
1.275000
  0
VERTEX
  8
gg1
 10
0.410000
 20
1.275000
  0
SEQEND
  8
gg1
  0
POLYLINE
  8
gg1
 62
1
 40
0.000000
 41
0.000000
 66
  1
  0
VERTEX
  8
gg1
 10
0.400000
 20
1.265000
  0
VERTEX
  8
gg1
 10
0.400000
 20
1.285000
  0
SEQEND
  8
gg1
  0
POLYLINE
  8
gg1
 62
1
 40
0.000000
 41
0.000000
 66
  1
  0
VERTEX
  8
gg1
 10
0.340000
 20
1.275000
  0
VERTEX
  8
gg1
 10
0.360000
 20
1.275000
  0
SEQEND
  8
gg1
  0
POLYLINE
  8
gg1
 62
1
 40
0.000000
 41
0.000000
 66
  1
  0
VERTEX
  8
gg1
 10
0.350000
 20
1.265000
  0
VERTEX
  8
gg1
 10
0.350000
 20
1.285000
  0
SEQEND
  8
gg1
  0
POLYLINE
  8
gg1
 62
1
 40
0.000000
 41
0.000000
 66
  1
  0
VERTEX
  8
gg1
 10
0.290000
 20
1.275000
  0
VERTEX
  8
gg1
 10
0.310000
 20
1.275000
  0
SEQEND
  8
gg1
  0
POLYLINE
  8
gg1
 62
1
 40
0.000000
 41
0.000000
 66
  1
  0
VERTEX
  8
gg1
 10
0.300000
 20
1.265000
  0
VERTEX
  8
gg1
 10
0.300000
 20
1.285000
  0
SEQEND
  8
gg1
  0
POLYLINE
  8
gg1
 62
1
 40
0.000000
 41
0.000000
 66
  1
  0
VERTEX
  8
gg1
 10
0.240000
 20
1.275000
  0
VERTEX
  8
gg1
 10
0.260000
 20
1.275000
  0
SEQEND
  8
gg1
  0
POLYLINE
  8
gg1
 62
1
 40
0.000000
 41
0.000000
 66
  1
  0
VERTEX
  8
gg1
 10
0.250000
 20
1.265000
  0
VERTEX
  8
gg1
 10
0.250000
 20
1.285000
  0
SEQEND
  8
gg1
  0
POLYLINE
  8
gg1
 62
1
 40
0.000000
 41
0.000000
 66
  1
  0
VERTEX
  8
gg1
 10
0.190000
 20
1.275000
  0
VERTEX
  8
gg1
 10
0.210000
 20
1.275000
  0
SEQEND
  8
gg1
  0
POLYLINE
  8
gg1
 62
1
 40
0.000000
 41
0.000000
 66
  1
  0
VERTEX
  8
gg1
 10
0.200000
 20
1.265000
  0
VERTEX
  8
gg1
 10
0.200000
 20
1.285000
  0
SEQEND
  8
gg1
  0
POLYLINE
  8
gg1
 62
1
 40
0.000000
 41
0.000000
 66
  1
  0
VERTEX
  8
gg1
 10
0.190000
 20
1.325000
  0
VERTEX
  8
gg1
 10
0.210000
 20
1.325000
  0
SEQEND
  8
gg1
  0
POLYLINE
  8
gg1
 62
1
 40
0.000000
 41
0.000000
 66
  1
  0
VERTEX
  8
gg1
 10
0.200000
 20
1.315000
  0
VERTEX
  8
gg1
 10
0.200000
 20
1.335000
  0
SEQEND
  8
gg1
  0
POLYLINE
  8
gg1
 62
1
 40
0.000000
 41
0.000000
 66
  1
  0
VERTEX
  8
gg1
 10
0.240000
 20
1.325000
  0
VERTEX
  8
gg1
 10
0.260000
 20
1.325000
  0
SEQEND
  8
gg1
  0
POLYLINE
  8
gg1
 62
1
 40
0.000000
 41
0.000000
 66
  1
  0
VERTEX
  8
gg1
 10
0.250000
 20
1.315000
  0
VERTEX
  8
gg1
 10
0.250000
 20
1.335000
  0
SEQEND
  8
gg1
  0
POLYLINE
  8
gg1
 62
1
 40
0.000000
 41
0.000000
 66
  1
  0
VERTEX
  8
gg1
 10
0.290000
 20
1.325000
  0
VERTEX
  8
gg1
 10
0.310000
 20
1.325000
  0
SEQEND
  8
gg1
  0
POLYLINE
  8
gg1
 62
1
 40
0.000000
 41
0.000000
 66
  1
  0
VERTEX
  8
gg1
 10
0.300000
 20
1.315000
  0
VERTEX
  8
gg1
 10
0.300000
 20
1.335000
  0
SEQEND
  8
gg1
  0
POLYLINE
  8
gg1
 62
1
 40
0.000000
 41
0.000000
 66
  1
  0
VERTEX
  8
gg1
 10
0.340000
 20
1.325000
  0
VERTEX
  8
gg1
 10
0.360000
 20
1.325000
  0
SEQEND
  8
gg1
  0
POLYLINE
  8
gg1
 62
1
 40
0.000000
 41
0.000000
 66
  1
  0
VERTEX
  8
gg1
 10
0.350000
 20
1.315000
  0
VERTEX
  8
gg1
 10
0.350000
 20
1.335000
  0
SEQEND
  8
gg1
  0
POLYLINE
  8
gg1
 62
1
 40
0.000000
 41
0.000000
 66
  1
  0
VERTEX
  8
gg1
 10
0.390000
 20
1.325000
  0
VERTEX
  8
gg1
 10
0.410000
 20
1.325000
  0
SEQEND
  8
gg1
  0
POLYLINE
  8
gg1
 62
1
 40
0.000000
 41
0.000000
 66
  1
  0
VERTEX
  8
gg1
 10
0.400000
 20
1.315000
  0
VERTEX
  8
gg1
 10
0.400000
 20
1.335000
  0
SEQEND
  8
gg1
  0
POLYLINE
  8
gg1
 62
1
 40
0.000000
 41
0.000000
 66
  1
  0
VERTEX
  8
gg1
 10
0.440000
 20
1.325000
  0
VERTEX
  8
gg1
 10
0.460000
 20
1.325000
  0
SEQEND
  8
gg1
  0
POLYLINE
  8
gg1
 62
1
 40
0.000000
 41
0.000000
 66
  1
  0
VERTEX
  8
gg1
 10
0.450000
 20
1.315000
  0
VERTEX
  8
gg1
 10
0.450000
 20
1.335000
  0
SEQEND
  8
gg1
  0
POLYLINE
  8
gg1
 62
1
 40
0.000000
 41
0.000000
 66
  1
  0
VERTEX
  8
gg1
 10
0.490000
 20
1.325000
  0
VERTEX
  8
gg1
 10
0.510000
 20
1.325000
  0
SEQEND
  8
gg1
  0
POLYLINE
  8
gg1
 62
1
 40
0.000000
 41
0.000000
 66
  1
  0
VERTEX
  8
gg1
 10
0.500000
 20
1.315000
  0
VERTEX
  8
gg1
 10
0.500000
 20
1.335000
  0
SEQEND
  8
gg1
  0
POLYLINE
  8
gg1
 62
1
 40
0.000000
 41
0.000000
 66
  1
  0
VERTEX
  8
gg1
 10
0.540000
 20
1.325000
  0
VERTEX
  8
gg1
 10
0.560000
 20
1.325000
  0
SEQEND
  8
gg1
  0
POLYLINE
  8
gg1
 62
1
 40
0.000000
 41
0.000000
 66
  1
  0
VERTEX
  8
gg1
 10
0.550000
 20
1.315000
  0
VERTEX
  8
gg1
 10
0.550000
 20
1.335000
  0
SEQEND
  8
gg1
  0
POLYLINE
  8
gg1
 62
1
 40
0.000000
 41
0.000000
 66
  1
  0
VERTEX
  8
gg1
 10
1.665000
 20
1.175000
  0
VERTEX
  8
gg1
 10
1.685000
 20
1.175000
  0
SEQEND
  8
gg1
  0
POLYLINE
  8
gg1
 62
1
 40
0.000000
 41
0.000000
 66
  1
  0
VERTEX
  8
gg1
 10
1.675000
 20
1.165000
  0
VERTEX
  8
gg1
 10
1.675000
 20
1.185000
  0
SEQEND
  8
gg1
  0
POLYLINE
  8
gg1
 62
1
 40
0.000000
 41
0.000000
 66
  1
  0
VERTEX
  8
gg1
 10
1.615000
 20
1.175000
  0
VERTEX
  8
gg1
 10
1.635000
 20
1.175000
  0
SEQEND
  8
gg1
  0
POLYLINE
  8
gg1
 62
1
 40
0.000000
 41
0.000000
 66
  1
  0
VERTEX
  8
gg1
 10
1.625000
 20
1.165000
  0
VERTEX
  8
gg1
 10
1.625000
 20
1.185000
  0
SEQEND
  8
gg1
  0
POLYLINE
  8
gg1
 62
1
 40
0.000000
 41
0.000000
 66
  1
  0
VERTEX
  8
gg1
 10
1.565000
 20
1.175000
  0
VERTEX
  8
gg1
 10
1.585000
 20
1.175000
  0
SEQEND
  8
gg1
  0
POLYLINE
  8
gg1
 62
1
 40
0.000000
 41
0.000000
 66
  1
  0
VERTEX
  8
gg1
 10
1.575000
 20
1.165000
  0
VERTEX
  8
gg1
 10
1.575000
 20
1.185000
  0
SEQEND
  8
gg1
  0
POLYLINE
  8
gg1
 62
1
 40
0.000000
 41
0.000000
 66
  1
  0
VERTEX
  8
gg1
 10
1.515000
 20
1.175000
  0
VERTEX
  8
gg1
 10
1.535000
 20
1.175000
  0
SEQEND
  8
gg1
  0
POLYLINE
  8
gg1
 62
1
 40
0.000000
 41
0.000000
 66
  1
  0
VERTEX
  8
gg1
 10
1.525000
 20
1.165000
  0
VERTEX
  8
gg1
 10
1.525000
 20
1.185000
  0
SEQEND
  8
gg1
  0
POLYLINE
  8
gg1
 62
1
 40
0.000000
 41
0.000000
 66
  1
  0
VERTEX
  8
gg1
 10
1.465000
 20
1.175000
  0
VERTEX
  8
gg1
 10
1.485000
 20
1.175000
  0
SEQEND
  8
gg1
  0
POLYLINE
  8
gg1
 62
1
 40
0.000000
 41
0.000000
 66
  1
  0
VERTEX
  8
gg1
 10
1.475000
 20
1.165000
  0
VERTEX
  8
gg1
 10
1.475000
 20
1.185000
  0
SEQEND
  8
gg1
  0
POLYLINE
  8
gg1
 62
1
 40
0.000000
 41
0.000000
 66
  1
  0
VERTEX
  8
gg1
 10
1.415000
 20
1.175000
  0
VERTEX
  8
gg1
 10
1.435000
 20
1.175000
  0
SEQEND
  8
gg1
  0
POLYLINE
  8
gg1
 62
1
 40
0.000000
 41
0.000000
 66
  1
  0
VERTEX
  8
gg1
 10
1.425000
 20
1.165000
  0
VERTEX
  8
gg1
 10
1.425000
 20
1.185000
  0
SEQEND
  8
gg1
  0
POLYLINE
  8
gg1
 62
1
 40
0.000000
 41
0.000000
 66
  1
  0
VERTEX
  8
gg1
 10
1.365000
 20
1.175000
  0
VERTEX
  8
gg1
 10
1.385000
 20
1.175000
  0
SEQEND
  8
gg1
  0
POLYLINE
  8
gg1
 62
1
 40
0.000000
 41
0.000000
 66
  1
  0
VERTEX
  8
gg1
 10
1.375000
 20
1.165000
  0
VERTEX
  8
gg1
 10
1.375000
 20
1.185000
  0
SEQEND
  8
gg1
  0
POLYLINE
  8
gg1
 62
1
 40
0.000000
 41
0.000000
 66
  1
  0
VERTEX
  8
gg1
 10
1.315000
 20
1.175000
  0
VERTEX
  8
gg1
 10
1.335000
 20
1.175000
  0
SEQEND
  8
gg1
  0
POLYLINE
  8
gg1
 62
1
 40
0.000000
 41
0.000000
 66
  1
  0
VERTEX
  8
gg1
 10
1.325000
 20
1.165000
  0
VERTEX
  8
gg1
 10
1.325000
 20
1.185000
  0
SEQEND
  8
gg1
  0
POLYLINE
  8
gg1
 62
1
 40
0.000000
 41
0.000000
 66
  1
  0
VERTEX
  8
gg1
 10
1.315000
 20
1.225000
  0
VERTEX
  8
gg1
 10
1.335000
 20
1.225000
  0
SEQEND
  8
gg1
  0
POLYLINE
  8
gg1
 62
1
 40
0.000000
 41
0.000000
 66
  1
  0
VERTEX
  8
gg1
 10
1.325000
 20
1.215000
  0
VERTEX
  8
gg1
 10
1.325000
 20
1.235000
  0
SEQEND
  8
gg1
  0
POLYLINE
  8
gg1
 62
1
 40
0.000000
 41
0.000000
 66
  1
  0
VERTEX
  8
gg1
 10
1.365000
 20
1.225000
  0
VERTEX
  8
gg1
 10
1.385000
 20
1.225000
  0
SEQEND
  8
gg1
  0
POLYLINE
  8
gg1
 62
1
 40
0.000000
 41
0.000000
 66
  1
  0
VERTEX
  8
gg1
 10
1.375000
 20
1.215000
  0
VERTEX
  8
gg1
 10
1.375000
 20
1.235000
  0
SEQEND
  8
gg1
  0
POLYLINE
  8
gg1
 62
1
 40
0.000000
 41
0.000000
 66
  1
  0
VERTEX
  8
gg1
 10
1.415000
 20
1.225000
  0
VERTEX
  8
gg1
 10
1.435000
 20
1.225000
  0
SEQEND
  8
gg1
  0
POLYLINE
  8
gg1
 62
1
 40
0.000000
 41
0.000000
 66
  1
  0
VERTEX
  8
gg1
 10
1.425000
 20
1.215000
  0
VERTEX
  8
gg1
 10
1.425000
 20
1.235000
  0
SEQEND
  8
gg1
  0
POLYLINE
  8
gg1
 62
1
 40
0.000000
 41
0.000000
 66
  1
  0
VERTEX
  8
gg1
 10
1.465000
 20
1.225000
  0
VERTEX
  8
gg1
 10
1.485000
 20
1.225000
  0
SEQEND
  8
gg1
  0
POLYLINE
  8
gg1
 62
1
 40
0.000000
 41
0.000000
 66
  1
  0
VERTEX
  8
gg1
 10
1.475000
 20
1.215000
  0
VERTEX
  8
gg1
 10
1.475000
 20
1.235000
  0
SEQEND
  8
gg1
  0
POLYLINE
  8
gg1
 62
1
 40
0.000000
 41
0.000000
 66
  1
  0
VERTEX
  8
gg1
 10
1.515000
 20
1.225000
  0
VERTEX
  8
gg1
 10
1.535000
 20
1.225000
  0
SEQEND
  8
gg1
  0
POLYLINE
  8
gg1
 62
1
 40
0.000000
 41
0.000000
 66
  1
  0
VERTEX
  8
gg1
 10
1.525000
 20
1.215000
  0
VERTEX
  8
gg1
 10
1.525000
 20
1.235000
  0
SEQEND
  8
gg1
  0
POLYLINE
  8
gg1
 62
1
 40
0.000000
 41
0.000000
 66
  1
  0
VERTEX
  8
gg1
 10
1.565000
 20
1.225000
  0
VERTEX
  8
gg1
 10
1.585000
 20
1.225000
  0
SEQEND
  8
gg1
  0
POLYLINE
  8
gg1
 62
1
 40
0.000000
 41
0.000000
 66
  1
  0
VERTEX
  8
gg1
 10
1.575000
 20
1.215000
  0
VERTEX
  8
gg1
 10
1.575000
 20
1.235000
  0
SEQEND
  8
gg1
  0
POLYLINE
  8
gg1
 62
1
 40
0.000000
 41
0.000000
 66
  1
  0
VERTEX
  8
gg1
 10
1.615000
 20
1.225000
  0
VERTEX
  8
gg1
 10
1.635000
 20
1.225000
  0
SEQEND
  8
gg1
  0
POLYLINE
  8
gg1
 62
1
 40
0.000000
 41
0.000000
 66
  1
  0
VERTEX
  8
gg1
 10
1.625000
 20
1.215000
  0
VERTEX
  8
gg1
 10
1.625000
 20
1.235000
  0
SEQEND
  8
gg1
  0
POLYLINE
  8
gg1
 62
1
 40
0.000000
 41
0.000000
 66
  1
  0
VERTEX
  8
gg1
 10
1.665000
 20
1.225000
  0
VERTEX
  8
gg1
 10
1.685000
 20
1.225000
  0
SEQEND
  8
gg1
  0
POLYLINE
  8
gg1
 62
1
 40
0.000000
 41
0.000000
 66
  1
  0
VERTEX
  8
gg1
 10
1.675000
 20
1.215000
  0
VERTEX
  8
gg1
 10
1.675000
 20
1.235000
  0
SEQEND
  8
gg1
  0
POLYLINE
  8
gg1
 62
1
 40
0.000000
 41
0.000000
 66
  1
  0
VERTEX
  8
gg1
 10
1.665000
 20
1.275000
  0
VERTEX
  8
gg1
 10
1.685000
 20
1.275000
  0
SEQEND
  8
gg1
  0
POLYLINE
  8
gg1
 62
1
 40
0.000000
 41
0.000000
 66
  1
  0
VERTEX
  8
gg1
 10
1.675000
 20
1.265000
  0
VERTEX
  8
gg1
 10
1.675000
 20
1.285000
  0
SEQEND
  8
gg1
  0
POLYLINE
  8
gg1
 62
1
 40
0.000000
 41
0.000000
 66
  1
  0
VERTEX
  8
gg1
 10
1.615000
 20
1.275000
  0
VERTEX
  8
gg1
 10
1.635000
 20
1.275000
  0
SEQEND
  8
gg1
  0
POLYLINE
  8
gg1
 62
1
 40
0.000000
 41
0.000000
 66
  1
  0
VERTEX
  8
gg1
 10
1.625000
 20
1.265000
  0
VERTEX
  8
gg1
 10
1.625000
 20
1.285000
  0
SEQEND
  8
gg1
  0
POLYLINE
  8
gg1
 62
1
 40
0.000000
 41
0.000000
 66
  1
  0
VERTEX
  8
gg1
 10
1.565000
 20
1.275000
  0
VERTEX
  8
gg1
 10
1.585000
 20
1.275000
  0
SEQEND
  8
gg1
  0
POLYLINE
  8
gg1
 62
1
 40
0.000000
 41
0.000000
 66
  1
  0
VERTEX
  8
gg1
 10
1.575000
 20
1.265000
  0
VERTEX
  8
gg1
 10
1.575000
 20
1.285000
  0
SEQEND
  8
gg1
  0
POLYLINE
  8
gg1
 62
1
 40
0.000000
 41
0.000000
 66
  1
  0
VERTEX
  8
gg1
 10
1.515000
 20
1.275000
  0
VERTEX
  8
gg1
 10
1.535000
 20
1.275000
  0
SEQEND
  8
gg1
  0
POLYLINE
  8
gg1
 62
1
 40
0.000000
 41
0.000000
 66
  1
  0
VERTEX
  8
gg1
 10
1.525000
 20
1.265000
  0
VERTEX
  8
gg1
 10
1.525000
 20
1.285000
  0
SEQEND
  8
gg1
  0
POLYLINE
  8
gg1
 62
1
 40
0.000000
 41
0.000000
 66
  1
  0
VERTEX
  8
gg1
 10
1.465000
 20
1.275000
  0
VERTEX
  8
gg1
 10
1.485000
 20
1.275000
  0
SEQEND
  8
gg1
  0
POLYLINE
  8
gg1
 62
1
 40
0.000000
 41
0.000000
 66
  1
  0
VERTEX
  8
gg1
 10
1.475000
 20
1.265000
  0
VERTEX
  8
gg1
 10
1.475000
 20
1.285000
  0
SEQEND
  8
gg1
  0
POLYLINE
  8
gg1
 62
1
 40
0.000000
 41
0.000000
 66
  1
  0
VERTEX
  8
gg1
 10
1.415000
 20
1.275000
  0
VERTEX
  8
gg1
 10
1.435000
 20
1.275000
  0
SEQEND
  8
gg1
  0
POLYLINE
  8
gg1
 62
1
 40
0.000000
 41
0.000000
 66
  1
  0
VERTEX
  8
gg1
 10
1.425000
 20
1.265000
  0
VERTEX
  8
gg1
 10
1.425000
 20
1.285000
  0
SEQEND
  8
gg1
  0
POLYLINE
  8
gg1
 62
1
 40
0.000000
 41
0.000000
 66
  1
  0
VERTEX
  8
gg1
 10
1.365000
 20
1.275000
  0
VERTEX
  8
gg1
 10
1.385000
 20
1.275000
  0
SEQEND
  8
gg1
  0
POLYLINE
  8
gg1
 62
1
 40
0.000000
 41
0.000000
 66
  1
  0
VERTEX
  8
gg1
 10
1.375000
 20
1.265000
  0
VERTEX
  8
gg1
 10
1.375000
 20
1.285000
  0
SEQEND
  8
gg1
  0
POLYLINE
  8
gg1
 62
1
 40
0.000000
 41
0.000000
 66
  1
  0
VERTEX
  8
gg1
 10
1.315000
 20
1.275000
  0
VERTEX
  8
gg1
 10
1.335000
 20
1.275000
  0
SEQEND
  8
gg1
  0
POLYLINE
  8
gg1
 62
1
 40
0.000000
 41
0.000000
 66
  1
  0
VERTEX
  8
gg1
 10
1.325000
 20
1.265000
  0
VERTEX
  8
gg1
 10
1.325000
 20
1.285000
  0
SEQEND
  8
gg1
  0
POLYLINE
  8
gg1
 62
1
 40
0.000000
 41
0.000000
 66
  1
  0
VERTEX
  8
gg1
 10
1.315000
 20
1.325000
  0
VERTEX
  8
gg1
 10
1.335000
 20
1.325000
  0
SEQEND
  8
gg1
  0
POLYLINE
  8
gg1
 62
1
 40
0.000000
 41
0.000000
 66
  1
  0
VERTEX
  8
gg1
 10
1.325000
 20
1.315000
  0
VERTEX
  8
gg1
 10
1.325000
 20
1.335000
  0
SEQEND
  8
gg1
  0
POLYLINE
  8
gg1
 62
1
 40
0.000000
 41
0.000000
 66
  1
  0
VERTEX
  8
gg1
 10
1.365000
 20
1.325000
  0
VERTEX
  8
gg1
 10
1.385000
 20
1.325000
  0
SEQEND
  8
gg1
  0
POLYLINE
  8
gg1
 62
1
 40
0.000000
 41
0.000000
 66
  1
  0
VERTEX
  8
gg1
 10
1.375000
 20
1.315000
  0
VERTEX
  8
gg1
 10
1.375000
 20
1.335000
  0
SEQEND
  8
gg1
  0
POLYLINE
  8
gg1
 62
1
 40
0.000000
 41
0.000000
 66
  1
  0
VERTEX
  8
gg1
 10
1.415000
 20
1.325000
  0
VERTEX
  8
gg1
 10
1.435000
 20
1.325000
  0
SEQEND
  8
gg1
  0
POLYLINE
  8
gg1
 62
1
 40
0.000000
 41
0.000000
 66
  1
  0
VERTEX
  8
gg1
 10
1.425000
 20
1.315000
  0
VERTEX
  8
gg1
 10
1.425000
 20
1.335000
  0
SEQEND
  8
gg1
  0
POLYLINE
  8
gg1
 62
1
 40
0.000000
 41
0.000000
 66
  1
  0
VERTEX
  8
gg1
 10
1.465000
 20
1.325000
  0
VERTEX
  8
gg1
 10
1.485000
 20
1.325000
  0
SEQEND
  8
gg1
  0
POLYLINE
  8
gg1
 62
1
 40
0.000000
 41
0.000000
 66
  1
  0
VERTEX
  8
gg1
 10
1.475000
 20
1.315000
  0
VERTEX
  8
gg1
 10
1.475000
 20
1.335000
  0
SEQEND
  8
gg1
  0
POLYLINE
  8
gg1
 62
1
 40
0.000000
 41
0.000000
 66
  1
  0
VERTEX
  8
gg1
 10
1.515000
 20
1.325000
  0
VERTEX
  8
gg1
 10
1.535000
 20
1.325000
  0
SEQEND
  8
gg1
  0
POLYLINE
  8
gg1
 62
1
 40
0.000000
 41
0.000000
 66
  1
  0
VERTEX
  8
gg1
 10
1.525000
 20
1.315000
  0
VERTEX
  8
gg1
 10
1.525000
 20
1.335000
  0
SEQEND
  8
gg1
  0
POLYLINE
  8
gg1
 62
1
 40
0.000000
 41
0.000000
 66
  1
  0
VERTEX
  8
gg1
 10
1.565000
 20
1.325000
  0
VERTEX
  8
gg1
 10
1.585000
 20
1.325000
  0
SEQEND
  8
gg1
  0
POLYLINE
  8
gg1
 62
1
 40
0.000000
 41
0.000000
 66
  1
  0
VERTEX
  8
gg1
 10
1.575000
 20
1.315000
  0
VERTEX
  8
gg1
 10
1.575000
 20
1.335000
  0
SEQEND
  8
gg1
  0
POLYLINE
  8
gg1
 62
1
 40
0.000000
 41
0.000000
 66
  1
  0
VERTEX
  8
gg1
 10
1.615000
 20
1.325000
  0
VERTEX
  8
gg1
 10
1.635000
 20
1.325000
  0
SEQEND
  8
gg1
  0
POLYLINE
  8
gg1
 62
1
 40
0.000000
 41
0.000000
 66
  1
  0
VERTEX
  8
gg1
 10
1.625000
 20
1.315000
  0
VERTEX
  8
gg1
 10
1.625000
 20
1.335000
  0
SEQEND
  8
gg1
  0
POLYLINE
  8
gg1
 62
1
 40
0.000000
 41
0.000000
 66
  1
  0
VERTEX
  8
gg1
 10
1.665000
 20
1.325000
  0
VERTEX
  8
gg1
 10
1.685000
 20
1.325000
  0
SEQEND
  8
gg1
  0
POLYLINE
  8
gg1
 62
1
 40
0.000000
 41
0.000000
 66
  1
  0
VERTEX
  8
gg1
 10
1.675000
 20
1.315000
  0
VERTEX
  8
gg1
 10
1.675000
 20
1.335000
  0
SEQEND
  8
gg1
  0
POLYLINE
  8
gg1
 62
1
 40
0.000000
 41
0.000000
 66
  1
  0
VERTEX
  8
gg1
 10
0.820000
 20
0.550000
  0
VERTEX
  8
gg1
 10
0.840000
 20
0.550000
  0
SEQEND
  8
gg1
  0
POLYLINE
  8
gg1
 62
1
 40
0.000000
 41
0.000000
 66
  1
  0
VERTEX
  8
gg1
 10
0.830000
 20
0.540000
  0
VERTEX
  8
gg1
 10
0.830000
 20
0.560000
  0
SEQEND
  8
gg1
  0
POLYLINE
  8
gg1
 62
1
 40
0.000000
 41
0.000000
 66
  1
  0
VERTEX
  8
gg1
 10
0.820000
 20
0.475000
  0
VERTEX
  8
gg1
 10
0.840000
 20
0.475000
  0
SEQEND
  8
gg1
  0
POLYLINE
  8
gg1
 62
1
 40
0.000000
 41
0.000000
 66
  1
  0
VERTEX
  8
gg1
 10
0.830000
 20
0.465000
  0
VERTEX
  8
gg1
 10
0.830000
 20
0.485000
  0
SEQEND
  8
gg1
  0
POLYLINE
  8
gg1
 62
1
 40
0.000000
 41
0.000000
 66
  1
  0
VERTEX
  8
gg1
 10
0.820000
 20
0.400000
  0
VERTEX
  8
gg1
 10
0.840000
 20
0.400000
  0
SEQEND
  8
gg1
  0
POLYLINE
  8
gg1
 62
1
 40
0.000000
 41
0.000000
 66
  1
  0
VERTEX
  8
gg1
 10
0.830000
 20
0.390000
  0
VERTEX
  8
gg1
 10
0.830000
 20
0.410000
  0
SEQEND
  8
gg1
  0
POLYLINE
  8
gg1
 62
1
 40
0.000000
 41
0.000000
 66
  1
  0
VERTEX
  8
gg1
 10
1.695000
 20
1.736000
  0
VERTEX
  8
gg1
 10
1.715000
 20
1.736000
  0
SEQEND
  8
gg1
  0
POLYLINE
  8
gg1
 62
1
 40
0.000000
 41
0.000000
 66
  1
  0
VERTEX
  8
gg1
 10
1.705000
 20
1.726000
  0
VERTEX
  8
gg1
 10
1.705000
 20
1.746000
  0
SEQEND
  8
gg1
  0
POLYLINE
  8
gg1
 62
1
 40
0.000000
 41
0.000000
 66
  1
  0
VERTEX
  8
gg1
 10
1.138000
 20
1.546000
  0
VERTEX
  8
gg1
 10
1.158000
 20
1.546000
  0
SEQEND
  8
gg1
  0
POLYLINE
  8
gg1
 62
1
 40
0.000000
 41
0.000000
 66
  1
  0
VERTEX
  8
gg1
 10
1.148000
 20
1.536000
  0
VERTEX
  8
gg1
 10
1.148000
 20
1.556000
  0
SEQEND
  8
gg1
  0
POLYLINE
  8
gg1
 62
1
 40
0.000000
 41
0.000000
 66
  1
  0
VERTEX
  8
gg1
 10
1.090000
 20
0.640000
  0
VERTEX
  8
gg1
 10
1.110000
 20
0.640000
  0
SEQEND
  8
gg1
  0
POLYLINE
  8
gg1
 62
1
 40
0.000000
 41
0.000000
 66
  1
  0
VERTEX
  8
gg1
 10
1.100000
 20
0.630000
  0
VERTEX
  8
gg1
 10
1.100000
 20
0.650000
  0
SEQEND
  8
gg1
  0
ENDSEC
  0
EOF
