  0
SECTION
  2
HEADER
  9
$ACADVER
  1
AC1014
  9
$ACADMAINTVER
 70
     0
  9
$DWGCODEPAGE
  3
ANSI_1252
  9
$INSBASE
 10
0.0
 20
0.0
 30
0.0
  9
$EXTMIN
 10
-0.224
 20
-1.7281
 30
0.0
  9
$EXTMAX
 10
2.7011
 20
1.86
 30
0.0
  9
$LIMMIN
 10
-0.227
 20
-1.733
  9
$LIMMAX
 10
2.706
 20
1.865
  9
$ORTHOMODE
 70
     0
  9
$REGENMODE
 70
     1
  9
$FILLMODE
 70
     1
  9
$QTEXTMODE
 70
     0
  9
$MIRRTEXT
 70
     1
  9
$DRAGMODE
 70
     2
  9
$LTSCALE
 40
1.0
  9
$OSMODE
 70
     0
  9
$ATTMODE
 70
     1
  9
$TEXTSIZE
 40
0.2
  9
$TRACEWID
 40
0.05
  9
$TEXTSTYLE
  7
STANDARD
  9
$CLAYER
  8
0
  9
$CELTYPE
  6
CONTINUOUS
  9
$CECOLOR
 62
   256
  9
$CELTSCALE
 40
1.0
  9
$DELOBJ
 70
     1
  9
$DISPSILH
 70
     0
  9
$DIMSCALE
 40
1.0
  9
$DIMASZ
 40
0.18
  9
$DIMEXO
 40
0.0625
  9
$DIMDLI
 40
0.38
  9
$DIMRND
 40
0.0
  9
$DIMDLE
 40
0.0
  9
$DIMEXE
 40
0.18
  9
$DIMTP
 40
0.0
  9
$DIMTM
 40
0.0
  9
$DIMTXT
 40
0.18
  9
$DIMCEN
 40
0.09
  9
$DIMTSZ
 40
0.0
  9
$DIMTOL
 70
     0
  9
$DIMLIM
 70
     0
  9
$DIMTIH
 70
     1
  9
$DIMTOH
 70
     1
  9
$DIMSE1
 70
     0
  9
$DIMSE2
 70
     0
  9
$DIMTAD
 70
     0
  9
$DIMZIN
 70
     0
  9
$DIMBLK
  1

  9
$DIMASO
 70
     1
  9
$DIMSHO
 70
     1
  9
$DIMPOST
  1

  9
$DIMAPOST
  1

  9
$DIMALT
 70
     0
  9
$DIMALTD
 70
     2
  9
$DIMALTF
 40
25.4
  9
$DIMLFAC
 40
1.0
  9
$DIMTOFL
 70
     0
  9
$DIMTVP
 40
0.0
  9
$DIMTIX
 70
     0
  9
$DIMSOXD
 70
     0
  9
$DIMSAH
 70
     0
  9
$DIMBLK1
  1

  9
$DIMBLK2
  1

  9
$DIMSTYLE
  2
STANDARD
  9
$DIMCLRD
 70
     0
  9
$DIMCLRE
 70
     0
  9
$DIMCLRT
 70
     0
  9
$DIMTFAC
 40
1.0
  9
$DIMGAP
 40
0.09
  9
$DIMJUST
 70
     0
  9
$DIMSD1
 70
     0
  9
$DIMSD2
 70
     0
  9
$DIMTOLJ
 70
     1
  9
$DIMTZIN
 70
     0
  9
$DIMALTZ
 70
     0
  9
$DIMALTTZ
 70
     0
  9
$DIMFIT
 70
     3
  9
$DIMUPT
 70
     0
  9
$DIMUNIT
 70
     2
  9
$DIMDEC
 70
     4
  9
$DIMTDEC
 70
     4
  9
$DIMALTU
 70
     2
  9
$DIMALTTD
 70
     2
  9
$DIMTXSTY
  7
STANDARD
  9
$DIMAUNIT
 70
     0
  9
$LUNITS
 70
     2
  9
$LUPREC
 70
     4
  9
$SKETCHINC
 40
0.1
  9
$FILLETRAD
 40
0.0
  9
$AUNITS
 70
     0
  9
$AUPREC
 70
     0
  9
$MENU
  1
acad
  9
$ELEVATION
 40
0.0
  9
$PELEVATION
 40
0.0
  9
$THICKNESS
 40
0.0
  9
$LIMCHECK
 70
     0
  9
$BLIPMODE
 70
     0
  9
$CHAMFERA
 40
0.0
  9
$CHAMFERB
 40
0.0
  9
$CHAMFERC
 40
0.0
  9
$CHAMFERD
 40
0.0
  9
$SKPOLY
 70
     0
  9
$TDCREATE
 40
0.0000000000
  9
$TDUPDATE
 40
0.0000000000
  9
$TDINDWG
 40
0.0000000000
  9
$TDUSRTIMER
 40
0.0000000000
  9
$USRTIMER
 70
     1
  9
$ANGBASE
 50
0.0
  9
$ANGDIR
 70
     0
  9
$PDMODE
 70
     0
  9
$PDSIZE
 40
0.0
  9
$PLINEWID
 40
0.0
  9
$COORDS
 70
     1
  9
$SPLFRAME
 70
     0
  9
$SPLINETYPE
 70
     6
  9
$SPLINESEGS
 70
     8
  9
$ATTDIA
 70
     0
  9
$ATTREQ
 70
     1
  9
$HANDLING
 70
     1
  9
$HANDSEED
  5
1440
  9
$SURFTAB1
 70
     6
  9
$SURFTAB2
 70
     6
  9
$SURFTYPE
 70
     6
  9
$SURFU
 70
     6
  9
$SURFV
 70
     6
  9
$UCSNAME
  2

  9
$UCSORG
 10
0.0
 20
0.0
 30
0.0
  9
$UCSXDIR
 10
1.0
 20
0.0
 30
0.0
  9
$UCSYDIR
 10
0.0
 20
1.0
 30
0.0
  9
$PUCSNAME
  2

  9
$PUCSORG
 10
0.0
 20
0.0
 30
0.0
  9
$PUCSXDIR
 10
1.0
 20
0.0
 30
0.0
  9
$PUCSYDIR
 10
0.0
 20
1.0
 30
0.0
  9
$USERI1
 70
     0
  9
$USERI2
 70
     0
  9
$USERI3
 70
     0
  9
$USERI4
 70
     0
  9
$USERI5
 70
     0
  9
$USERR1
 40
0.0
  9
$USERR2
 40
0.0
  9
$USERR3
 40
0.0
  9
$USERR4
 40
0.0
  9
$USERR5
 40
0.0
  9
$WORLDVIEW
 70
     1
  9
$SHADEDGE
 70
     3
  9
$SHADEDIF
 70
    70
  9
$TILEMODE
 70
     1
  9
$MAXACTVP
 70
    48
  9
$PINSBASE
 10
0.0
 20
0.0
 30
0.0
  9
$PLIMCHECK
 70
     0
  9
$PEXTMIN
 10
1.000000E+20
 20
1.000000E+20
 30
1.000000E+20
  9
$PEXTMAX
 10
-1.000000E+20
 20
-1.000000E+20
 30
-1.000000E+20
  9
$PLIMMIN
 10
0.0
 20
0.0
  9
$PLIMMAX
 10
12.0
 20
9.0
  9
$UNITMODE
 70
     0
  9
$VISRETAIN
 70
     1
  9
$PLINEGEN
 70
     0
  9
$PSLTSCALE
 70
     1
  9
$TREEDEPTH
 70
  3020
  9
$PICKSTYLE
 70
     1
  9
$CMLSTYLE
  2
STANDARD
  9
$CMLJUST
 70
     0
  9
$CMLSCALE
 40
1.0
  9
$PROXYGRAPHICS
 70
     1
  9
$MEASUREMENT
 70
     0
  0
ENDSEC
  0
SECTION
  2
CLASSES
  0
ENDSEC
  0
SECTION
  2
TABLES
  0
TABLE
  2
VPORT
  5
8
100
AcDbSymbolTable
 70
     3
  0
VPORT
  5
143F
100
AcDbSymbolTableRecord
100
AcDbViewportTableRecord
  2
*ACTIVE
 70
     0
 10
0.0
 20
0.0
 11
1.0
 21
1.0
 12
1.623862
 22
0.910063
 13
0.0
 23
0.0
 14
1.0
 24
1.0
 15
0.0
 25
0.0
 16
0.0
 26
0.0
 36
1.0
 17
0.0
 27
0.0
 37
0.0
 40
3.822175
 41
1.869822
 42
50.0
 43
0.0
 44
0.0
 50
0.0
 51
0.0
 71
     0
 72
   100
 73
     1
 74
     1
 75
     0
 76
     0
 77
     0
 78
     0
  0
ENDTAB
  0
TABLE
  2
LTYPE
  5
5
100
AcDbSymbolTable
 70
     1
  0
LTYPE
  5
12
100
AcDbSymbolTableRecord
100
AcDbLinetypeTableRecord
  2
BYBLOCK
 70
     0
  3

 72
    65
 73
     0
 40
0.0
  0
LTYPE
  5
13
100
AcDbSymbolTableRecord
100
AcDbLinetypeTableRecord
  2
BYLAYER
 70
     0
  3

 72
    65
 73
     0
 40
0.0
  0
LTYPE
  5
14
100
AcDbSymbolTableRecord
100
AcDbLinetypeTableRecord
  2
CONTINUOUS
 70
     0
  3
Solid line
 72
    65
 73
     0
 40
0.0
  0
ENDTAB
  0
TABLE
  2
LAYER
  5
2
100
AcDbSymbolTable
 70
     2
  0
LAYER
  5
E
100
AcDbSymbolTableRecord
100
AcDbLayerTableRecord
  2
0
 70
     0
 62
     7
  6
CONTINUOUS
  0
LAYER
  5
1F
100
AcDbSymbolTableRecord
100
AcDbLayerTableRecord
  2
GG1
 70
     0
 62
     1
  6
CONTINUOUS
  0
ENDTAB
  0
TABLE
  2
STYLE
  5
3
100
AcDbSymbolTable
 70
     1
  0
STYLE
  5
F
100
AcDbSymbolTableRecord
100
AcDbTextStyleTableRecord
  2
STANDARD
 70
     0
 40
0.0
 41
1.0
 50
0.0
 71
     0
 42
0.2
  3
txt
  4

  0
ENDTAB
  0
TABLE
  2
VIEW
  5
6
100
AcDbSymbolTable
 70
     0
  0
ENDTAB
  0
TABLE
  2
UCS
  5
7
100
AcDbSymbolTable
 70
     0
  0
ENDTAB
  0
TABLE
  2
APPID
  5
9
100
AcDbSymbolTable
 70
     1
  0
APPID
  5
10
100
AcDbSymbolTableRecord
100
AcDbRegAppTableRecord
  2
ACAD
 70
     0
  0
ENDTAB
  0
TABLE
  2
DIMSTYLE
  5
A
100
AcDbSymbolTable
 70
     1
  0
DIMSTYLE
105
1199
100
AcDbSymbolTableRecord
100
AcDbDimStyleTableRecord
  2
STANDARD
 70
     0
  3

  4

  5

  6

  7

 40
1.0
 41
0.18
 42
0.0625
 43
0.38
 44
0.18
 45
0.0
 46
0.0
 47
0.0
 48
0.0
140
0.18
141
0.09
142
0.0
143
25.4
144
1.0
145
0.0
146
1.0
147
0.09
 71
     0
 72
     0
 73
     1
 74
     1
 75
     0
 76
     0
 77
     0
 78
     0
170
     0
171
     2
172
     0
173
     0
174
     0
175
     0
176
     0
177
     0
178
     0
270
     2
271
     4
272
     4
273
     2
274
     2
340
F
275
     0
280
     0
281
     0
282
     0
283
     1
284
     0
285
     0
286
     0
287
     3
288
     0
  0
ENDTAB
  0
TABLE
  2
BLOCK_RECORD
  5
1
100
AcDbSymbolTable
 70
     2
  0
BLOCK_RECORD
  5
18
100
AcDbSymbolTableRecord
100
AcDbBlockTableRecord
  2
*MODEL_SPACE
  0
BLOCK_RECORD
  5
15
100
AcDbSymbolTableRecord
100
AcDbBlockTableRecord
  2
*PAPER_SPACE
  0
BLOCK_RECORD
  5
20
100
AcDbSymbolTableRecord
100
AcDbBlockTableRecord
  2
D10
  0
BLOCK_RECORD
  5
24
100
AcDbSymbolTableRecord
100
AcDbBlockTableRecord
  2
D11
  0
ENDTAB
  0
ENDSEC
  0
SECTION
  2
BLOCKS
  0
BLOCK
  5
19
100
AcDbEntity
  8
0
100
AcDbBlockBegin
  2
*MODEL_SPACE
 70
     0
 10
0.0
 20
0.0
 30
0.0
  3
*MODEL_SPACE
  1

  0
ENDBLK
  5
1A
100
AcDbEntity
  8
0
100
AcDbBlockEnd
  0
BLOCK
  5
16
100
AcDbEntity
 67
     1
  8
0
100
AcDbBlockBegin
  2
*PAPER_SPACE
 70
     0
 10
0.0
 20
0.0
 30
0.0
  3
*PAPER_SPACE
  1

  0
ENDBLK
  5
17
100
AcDbEntity
 67
     1
  8
0
100
AcDbBlockEnd
  0
BLOCK
  5
21
100
AcDbEntity
  8
0
100
AcDbBlockBegin
  2
D10
 70
     0
 10
0.0
 20
0.0
 30
0.0
  3
D10
  1

  0
CIRCLE
  5
22
100
AcDbEntity
  8
0
100
AcDbCircle
 10
0.0
 20
0.0
 30
0.0
 40
0.005
  0
ENDBLK
  5
23
100
AcDbEntity
  8
0
100
AcDbBlockEnd
  0
BLOCK
  5
25
100
AcDbEntity
  8
0
100
AcDbBlockBegin
  2
D11
 70
     0
 10
0.0
 20
0.0
 30
0.0
  3
D11
  1

  0
CIRCLE
  5
26
100
AcDbEntity
  8
0
100
AcDbCircle
 10
0.0
 20
0.0
 30
0.0
 40
0.003
  0
ENDBLK
  5
27
100
AcDbEntity
  8
0
100
AcDbBlockEnd
  0
ENDSEC
  0
SECTION
  2
ENTITIES
  0
POLYLINE
  5
75
100
AcDbEntity
  8
GG1
 62
     1
100
AcDb2dPolyline
 66
     1
 10
0.0
 20
0.0
 30
0.0
  0
VERTEX
  5
76
100
AcDbEntity
  8
GG1
 62
     1
100
AcDbVertex
100
AcDb2dVertex
 10
0.175
 20
-1.5948
 30
0.0
  0
VERTEX
  5
77
100
AcDbEntity
  8
GG1
 62
     1
100
AcDbVertex
100
AcDb2dVertex
 10
0.175
 20
-1.6947
 30
0.0
  0
SEQEND
  5
78
100
AcDbEntity
  8
GG1
 62
     1
  0
POLYLINE
  5
79
100
AcDbEntity
  8
GG1
 62
     1
100
AcDb2dPolyline
 66
     1
 10
0.0
 20
0.0
 30
0.0
  0
VERTEX
  5
7A
100
AcDbEntity
  8
GG1
 62
     1
100
AcDbVertex
100
AcDb2dVertex
 10
0.175
 20
-1.5948
 30
0.0
  0
VERTEX
  5
7B
100
AcDbEntity
  8
GG1
 62
     1
100
AcDbVertex
100
AcDb2dVertex
 10
0.2083
 20
-1.5948
 30
0.0
  0
VERTEX
  5
7C
100
AcDbEntity
  8
GG1
 62
     1
100
AcDbVertex
100
AcDb2dVertex
 10
0.2226
 20
-1.5995
 30
0.0
  0
VERTEX
  5
7D
100
AcDbEntity
  8
GG1
 62
     1
100
AcDbVertex
100
AcDb2dVertex
 10
0.2321
 20
-1.609
 30
0.0
  0
VERTEX
  5
7E
100
AcDbEntity
  8
GG1
 62
     1
100
AcDbVertex
100
AcDb2dVertex
 10
0.2369
 20
-1.6186
 30
0.0
  0
VERTEX
  5
7F
100
AcDbEntity
  8
GG1
 62
     1
100
AcDbVertex
100
AcDb2dVertex
 10
0.2417
 20
-1.6328
 30
0.0
  0
VERTEX
  5
80
100
AcDbEntity
  8
GG1
 62
     1
100
AcDbVertex
100
AcDb2dVertex
 10
0.2417
 20
-1.6567
 30
0.0
  0
VERTEX
  5
81
100
AcDbEntity
  8
GG1
 62
     1
100
AcDbVertex
100
AcDb2dVertex
 10
0.2369
 20
-1.6709
 30
0.0
  0
VERTEX
  5
82
100
AcDbEntity
  8
GG1
 62
     1
100
AcDbVertex
100
AcDb2dVertex
 10
0.2321
 20
-1.6805
 30
0.0
  0
VERTEX
  5
83
100
AcDbEntity
  8
GG1
 62
     1
100
AcDbVertex
100
AcDb2dVertex
 10
0.2226
 20
-1.69
 30
0.0
  0
VERTEX
  5
84
100
AcDbEntity
  8
GG1
 62
     1
100
AcDbVertex
100
AcDb2dVertex
 10
0.2083
 20
-1.6947
 30
0.0
  0
VERTEX
  5
85
100
AcDbEntity
  8
GG1
 62
     1
100
AcDbVertex
100
AcDb2dVertex
 10
0.175
 20
-1.6947
 30
0.0
  0
SEQEND
  5
86
100
AcDbEntity
  8
GG1
 62
     1
  0
POLYLINE
  5
87
100
AcDbEntity
  8
GG1
 62
     1
100
AcDb2dPolyline
 66
     1
 10
0.0
 20
0.0
 30
0.0
  0
VERTEX
  5
88
100
AcDbEntity
  8
GG1
 62
     1
100
AcDbVertex
100
AcDb2dVertex
 10
0.264
 20
-1.6567
 30
0.0
  0
VERTEX
  5
89
100
AcDbEntity
  8
GG1
 62
     1
100
AcDbVertex
100
AcDb2dVertex
 10
0.3212
 20
-1.6567
 30
0.0
  0
VERTEX
  5
8A
100
AcDbEntity
  8
GG1
 62
     1
100
AcDbVertex
100
AcDb2dVertex
 10
0.3212
 20
-1.6471
 30
0.0
  0
VERTEX
  5
8B
100
AcDbEntity
  8
GG1
 62
     1
100
AcDbVertex
100
AcDb2dVertex
 10
0.3164
 20
-1.6376
 30
0.0
  0
VERTEX
  5
8C
100
AcDbEntity
  8
GG1
 62
     1
100
AcDbVertex
100
AcDb2dVertex
 10
0.3116
 20
-1.6328
 30
0.0
  0
VERTEX
  5
8D
100
AcDbEntity
  8
GG1
 62
     1
100
AcDbVertex
100
AcDb2dVertex
 10
0.3021
 20
-1.6281
 30
0.0
  0
VERTEX
  5
8E
100
AcDbEntity
  8
GG1
 62
     1
100
AcDbVertex
100
AcDb2dVertex
 10
0.2878
 20
-1.6281
 30
0.0
  0
VERTEX
  5
8F
100
AcDbEntity
  8
GG1
 62
     1
100
AcDbVertex
100
AcDb2dVertex
 10
0.2783
 20
-1.6328
 30
0.0
  0
VERTEX
  5
90
100
AcDbEntity
  8
GG1
 62
     1
100
AcDbVertex
100
AcDb2dVertex
 10
0.2688
 20
-1.6424
 30
0.0
  0
VERTEX
  5
91
100
AcDbEntity
  8
GG1
 62
     1
100
AcDbVertex
100
AcDb2dVertex
 10
0.264
 20
-1.6567
 30
0.0
  0
VERTEX
  5
92
100
AcDbEntity
  8
GG1
 62
     1
100
AcDbVertex
100
AcDb2dVertex
 10
0.264
 20
-1.6662
 30
0.0
  0
VERTEX
  5
93
100
AcDbEntity
  8
GG1
 62
     1
100
AcDbVertex
100
AcDb2dVertex
 10
0.2688
 20
-1.6805
 30
0.0
  0
VERTEX
  5
94
100
AcDbEntity
  8
GG1
 62
     1
100
AcDbVertex
100
AcDb2dVertex
 10
0.2783
 20
-1.69
 30
0.0
  0
VERTEX
  5
95
100
AcDbEntity
  8
GG1
 62
     1
100
AcDbVertex
100
AcDb2dVertex
 10
0.2878
 20
-1.6947
 30
0.0
  0
VERTEX
  5
96
100
AcDbEntity
  8
GG1
 62
     1
100
AcDbVertex
100
AcDb2dVertex
 10
0.3021
 20
-1.6947
 30
0.0
  0
VERTEX
  5
97
100
AcDbEntity
  8
GG1
 62
     1
100
AcDbVertex
100
AcDb2dVertex
 10
0.3116
 20
-1.69
 30
0.0
  0
VERTEX
  5
98
100
AcDbEntity
  8
GG1
 62
     1
100
AcDbVertex
100
AcDb2dVertex
 10
0.3212
 20
-1.6805
 30
0.0
  0
SEQEND
  5
99
100
AcDbEntity
  8
GG1
 62
     1
  0
POLYLINE
  5
9A
100
AcDbEntity
  8
GG1
 62
     1
100
AcDb2dPolyline
 66
     1
 10
0.0
 20
0.0
 30
0.0
  0
VERTEX
  5
9B
100
AcDbEntity
  8
GG1
 62
     1
100
AcDbVertex
100
AcDb2dVertex
 10
0.3807
 20
-1.5948
 30
0.0
  0
VERTEX
  5
9C
100
AcDbEntity
  8
GG1
 62
     1
100
AcDbVertex
100
AcDb2dVertex
 10
0.3711
 20
-1.5948
 30
0.0
  0
VERTEX
  5
9D
100
AcDbEntity
  8
GG1
 62
     1
100
AcDbVertex
100
AcDb2dVertex
 10
0.3616
 20
-1.5995
 30
0.0
  0
VERTEX
  5
9E
100
AcDbEntity
  8
GG1
 62
     1
100
AcDbVertex
100
AcDb2dVertex
 10
0.3569
 20
-1.6138
 30
0.0
  0
VERTEX
  5
9F
100
AcDbEntity
  8
GG1
 62
     1
100
AcDbVertex
100
AcDb2dVertex
 10
0.3569
 20
-1.6947
 30
0.0
  0
SEQEND
  5
A0
100
AcDbEntity
  8
GG1
 62
     1
  0
POLYLINE
  5
A1
100
AcDbEntity
  8
GG1
 62
     1
100
AcDb2dPolyline
 66
     1
 10
0.0
 20
0.0
 30
0.0
  0
VERTEX
  5
A2
100
AcDbEntity
  8
GG1
 62
     1
100
AcDbVertex
100
AcDb2dVertex
 10
0.3426
 20
-1.6281
 30
0.0
  0
VERTEX
  5
A3
100
AcDbEntity
  8
GG1
 62
     1
100
AcDbVertex
100
AcDb2dVertex
 10
0.3759
 20
-1.6281
 30
0.0
  0
SEQEND
  5
A4
100
AcDbEntity
  8
GG1
 62
     1
  0
POLYLINE
  5
A5
100
AcDbEntity
  8
GG1
 62
     1
100
AcDb2dPolyline
 66
     1
 10
0.0
 20
0.0
 30
0.0
  0
VERTEX
  5
A6
100
AcDbEntity
  8
GG1
 62
     1
100
AcDbVertex
100
AcDb2dVertex
 10
0.4521
 20
-1.6281
 30
0.0
  0
VERTEX
  5
A7
100
AcDbEntity
  8
GG1
 62
     1
100
AcDbVertex
100
AcDb2dVertex
 10
0.4521
 20
-1.6947
 30
0.0
  0
SEQEND
  5
A8
100
AcDbEntity
  8
GG1
 62
     1
  0
POLYLINE
  5
A9
100
AcDbEntity
  8
GG1
 62
     1
100
AcDb2dPolyline
 66
     1
 10
0.0
 20
0.0
 30
0.0
  0
VERTEX
  5
AA
100
AcDbEntity
  8
GG1
 62
     1
100
AcDbVertex
100
AcDb2dVertex
 10
0.4521
 20
-1.6424
 30
0.0
  0
VERTEX
  5
AB
100
AcDbEntity
  8
GG1
 62
     1
100
AcDbVertex
100
AcDb2dVertex
 10
0.4426
 20
-1.6328
 30
0.0
  0
VERTEX
  5
AC
100
AcDbEntity
  8
GG1
 62
     1
100
AcDbVertex
100
AcDb2dVertex
 10
0.433
 20
-1.6281
 30
0.0
  0
VERTEX
  5
AD
100
AcDbEntity
  8
GG1
 62
     1
100
AcDbVertex
100
AcDb2dVertex
 10
0.4188
 20
-1.6281
 30
0.0
  0
VERTEX
  5
AE
100
AcDbEntity
  8
GG1
 62
     1
100
AcDbVertex
100
AcDb2dVertex
 10
0.4092
 20
-1.6328
 30
0.0
  0
VERTEX
  5
AF
100
AcDbEntity
  8
GG1
 62
     1
100
AcDbVertex
100
AcDb2dVertex
 10
0.3997
 20
-1.6424
 30
0.0
  0
VERTEX
  5
B0
100
AcDbEntity
  8
GG1
 62
     1
100
AcDbVertex
100
AcDb2dVertex
 10
0.395
 20
-1.6567
 30
0.0
  0
VERTEX
  5
B1
100
AcDbEntity
  8
GG1
 62
     1
100
AcDbVertex
100
AcDb2dVertex
 10
0.395
 20
-1.6662
 30
0.0
  0
VERTEX
  5
B2
100
AcDbEntity
  8
GG1
 62
     1
100
AcDbVertex
100
AcDb2dVertex
 10
0.3997
 20
-1.6805
 30
0.0
  0
VERTEX
  5
B3
100
AcDbEntity
  8
GG1
 62
     1
100
AcDbVertex
100
AcDb2dVertex
 10
0.4092
 20
-1.69
 30
0.0
  0
VERTEX
  5
B4
100
AcDbEntity
  8
GG1
 62
     1
100
AcDbVertex
100
AcDb2dVertex
 10
0.4188
 20
-1.6947
 30
0.0
  0
VERTEX
  5
B5
100
AcDbEntity
  8
GG1
 62
     1
100
AcDbVertex
100
AcDb2dVertex
 10
0.433
 20
-1.6947
 30
0.0
  0
VERTEX
  5
B6
100
AcDbEntity
  8
GG1
 62
     1
100
AcDbVertex
100
AcDb2dVertex
 10
0.4426
 20
-1.69
 30
0.0
  0
VERTEX
  5
B7
100
AcDbEntity
  8
GG1
 62
     1
100
AcDbVertex
100
AcDb2dVertex
 10
0.4521
 20
-1.6805
 30
0.0
  0
SEQEND
  5
B8
100
AcDbEntity
  8
GG1
 62
     1
  0
POLYLINE
  5
B9
100
AcDbEntity
  8
GG1
 62
     1
100
AcDb2dPolyline
 66
     1
 10
0.0
 20
0.0
 30
0.0
  0
VERTEX
  5
BA
100
AcDbEntity
  8
GG1
 62
     1
100
AcDbVertex
100
AcDb2dVertex
 10
0.4787
 20
-1.6281
 30
0.0
  0
VERTEX
  5
BB
100
AcDbEntity
  8
GG1
 62
     1
100
AcDbVertex
100
AcDb2dVertex
 10
0.4787
 20
-1.6757
 30
0.0
  0
VERTEX
  5
BC
100
AcDbEntity
  8
GG1
 62
     1
100
AcDbVertex
100
AcDb2dVertex
 10
0.4835
 20
-1.69
 30
0.0
  0
VERTEX
  5
BD
100
AcDbEntity
  8
GG1
 62
     1
100
AcDbVertex
100
AcDb2dVertex
 10
0.493
 20
-1.6947
 30
0.0
  0
VERTEX
  5
BE
100
AcDbEntity
  8
GG1
 62
     1
100
AcDbVertex
100
AcDb2dVertex
 10
0.5073
 20
-1.6947
 30
0.0
  0
VERTEX
  5
BF
100
AcDbEntity
  8
GG1
 62
     1
100
AcDbVertex
100
AcDb2dVertex
 10
0.5168
 20
-1.69
 30
0.0
  0
VERTEX
  5
C0
100
AcDbEntity
  8
GG1
 62
     1
100
AcDbVertex
100
AcDb2dVertex
 10
0.5311
 20
-1.6757
 30
0.0
  0
SEQEND
  5
C1
100
AcDbEntity
  8
GG1
 62
     1
  0
POLYLINE
  5
C2
100
AcDbEntity
  8
GG1
 62
     1
100
AcDb2dPolyline
 66
     1
 10
0.0
 20
0.0
 30
0.0
  0
VERTEX
  5
C3
100
AcDbEntity
  8
GG1
 62
     1
100
AcDbVertex
100
AcDb2dVertex
 10
0.5311
 20
-1.6281
 30
0.0
  0
VERTEX
  5
C4
100
AcDbEntity
  8
GG1
 62
     1
100
AcDbVertex
100
AcDb2dVertex
 10
0.5311
 20
-1.6947
 30
0.0
  0
SEQEND
  5
C5
100
AcDbEntity
  8
GG1
 62
     1
  0
POLYLINE
  5
C6
100
AcDbEntity
  8
GG1
 62
     1
100
AcDb2dPolyline
 66
     1
 10
0.0
 20
0.0
 30
0.0
  0
VERTEX
  5
C7
100
AcDbEntity
  8
GG1
 62
     1
100
AcDbVertex
100
AcDb2dVertex
 10
0.5573
 20
-1.5948
 30
0.0
  0
VERTEX
  5
C8
100
AcDbEntity
  8
GG1
 62
     1
100
AcDbVertex
100
AcDb2dVertex
 10
0.5573
 20
-1.6947
 30
0.0
  0
SEQEND
  5
C9
100
AcDbEntity
  8
GG1
 62
     1
  0
POLYLINE
  5
CA
100
AcDbEntity
  8
GG1
 62
     1
100
AcDb2dPolyline
 66
     1
 10
0.0
 20
0.0
 30
0.0
  0
VERTEX
  5
CB
100
AcDbEntity
  8
GG1
 62
     1
100
AcDbVertex
100
AcDb2dVertex
 10
0.5925
 20
-1.5948
 30
0.0
  0
VERTEX
  5
CC
100
AcDbEntity
  8
GG1
 62
     1
100
AcDbVertex
100
AcDb2dVertex
 10
0.5925
 20
-1.6757
 30
0.0
  0
VERTEX
  5
CD
100
AcDbEntity
  8
GG1
 62
     1
100
AcDbVertex
100
AcDb2dVertex
 10
0.5973
 20
-1.69
 30
0.0
  0
VERTEX
  5
CE
100
AcDbEntity
  8
GG1
 62
     1
100
AcDbVertex
100
AcDb2dVertex
 10
0.6068
 20
-1.6947
 30
0.0
  0
VERTEX
  5
CF
100
AcDbEntity
  8
GG1
 62
     1
100
AcDbVertex
100
AcDb2dVertex
 10
0.6163
 20
-1.6947
 30
0.0
  0
SEQEND
  5
D0
100
AcDbEntity
  8
GG1
 62
     1
  0
POLYLINE
  5
D1
100
AcDbEntity
  8
GG1
 62
     1
100
AcDb2dPolyline
 66
     1
 10
0.0
 20
0.0
 30
0.0
  0
VERTEX
  5
D2
100
AcDbEntity
  8
GG1
 62
     1
100
AcDbVertex
100
AcDb2dVertex
 10
0.5782
 20
-1.6281
 30
0.0
  0
VERTEX
  5
D3
100
AcDbEntity
  8
GG1
 62
     1
100
AcDbVertex
100
AcDb2dVertex
 10
0.6116
 20
-1.6281
 30
0.0
  0
SEQEND
  5
D4
100
AcDbEntity
  8
GG1
 62
     1
  0
POLYLINE
  5
D5
100
AcDbEntity
  8
GG1
 62
     1
100
AcDb2dPolyline
 66
     1
 10
0.0
 20
0.0
 30
0.0
  0
VERTEX
  5
D6
100
AcDbEntity
  8
GG1
 62
     1
100
AcDbVertex
100
AcDb2dVertex
 10
0.7425
 20
-1.5757
 30
0.0
  0
VERTEX
  5
D7
100
AcDbEntity
  8
GG1
 62
     1
100
AcDbVertex
100
AcDb2dVertex
 10
0.733
 20
-1.5852
 30
0.0
  0
VERTEX
  5
D8
100
AcDbEntity
  8
GG1
 62
     1
100
AcDbVertex
100
AcDb2dVertex
 10
0.7235
 20
-1.5995
 30
0.0
  0
VERTEX
  5
D9
100
AcDbEntity
  8
GG1
 62
     1
100
AcDbVertex
100
AcDb2dVertex
 10
0.7139
 20
-1.6186
 30
0.0
  0
VERTEX
  5
DA
100
AcDbEntity
  8
GG1
 62
     1
100
AcDbVertex
100
AcDb2dVertex
 10
0.7092
 20
-1.6424
 30
0.0
  0
VERTEX
  5
DB
100
AcDbEntity
  8
GG1
 62
     1
100
AcDbVertex
100
AcDb2dVertex
 10
0.7092
 20
-1.6614
 30
0.0
  0
VERTEX
  5
DC
100
AcDbEntity
  8
GG1
 62
     1
100
AcDbVertex
100
AcDb2dVertex
 10
0.7139
 20
-1.6852
 30
0.0
  0
VERTEX
  5
DD
100
AcDbEntity
  8
GG1
 62
     1
100
AcDbVertex
100
AcDb2dVertex
 10
0.7235
 20
-1.7043
 30
0.0
  0
VERTEX
  5
DE
100
AcDbEntity
  8
GG1
 62
     1
100
AcDbVertex
100
AcDb2dVertex
 10
0.733
 20
-1.7185
 30
0.0
  0
VERTEX
  5
DF
100
AcDbEntity
  8
GG1
 62
     1
100
AcDbVertex
100
AcDb2dVertex
 10
0.7425
 20
-1.7281
 30
0.0
  0
SEQEND
  5
E0
100
AcDbEntity
  8
GG1
 62
     1
  0
POLYLINE
  5
E1
100
AcDbEntity
  8
GG1
 62
     1
100
AcDb2dPolyline
 66
     1
 10
0.0
 20
0.0
 30
0.0
  0
VERTEX
  5
E2
100
AcDbEntity
  8
GG1
 62
     1
100
AcDbVertex
100
AcDb2dVertex
 10
0.733
 20
-1.5852
 30
0.0
  0
VERTEX
  5
E3
100
AcDbEntity
  8
GG1
 62
     1
100
AcDbVertex
100
AcDb2dVertex
 10
0.7235
 20
-1.6043
 30
0.0
  0
VERTEX
  5
E4
100
AcDbEntity
  8
GG1
 62
     1
100
AcDbVertex
100
AcDb2dVertex
 10
0.7187
 20
-1.6186
 30
0.0
  0
VERTEX
  5
E5
100
AcDbEntity
  8
GG1
 62
     1
100
AcDbVertex
100
AcDb2dVertex
 10
0.7139
 20
-1.6424
 30
0.0
  0
VERTEX
  5
E6
100
AcDbEntity
  8
GG1
 62
     1
100
AcDbVertex
100
AcDb2dVertex
 10
0.7139
 20
-1.6614
 30
0.0
  0
VERTEX
  5
E7
100
AcDbEntity
  8
GG1
 62
     1
100
AcDbVertex
100
AcDb2dVertex
 10
0.7187
 20
-1.6852
 30
0.0
  0
VERTEX
  5
E8
100
AcDbEntity
  8
GG1
 62
     1
100
AcDbVertex
100
AcDb2dVertex
 10
0.7235
 20
-1.6995
 30
0.0
  0
VERTEX
  5
E9
100
AcDbEntity
  8
GG1
 62
     1
100
AcDbVertex
100
AcDb2dVertex
 10
0.733
 20
-1.7185
 30
0.0
  0
SEQEND
  5
EA
100
AcDbEntity
  8
GG1
 62
     1
  0
POLYLINE
  5
EB
100
AcDbEntity
  8
GG1
 62
     1
100
AcDb2dPolyline
 66
     1
 10
0.0
 20
0.0
 30
0.0
  0
VERTEX
  5
EC
100
AcDbEntity
  8
GG1
 62
     1
100
AcDbVertex
100
AcDb2dVertex
 10
0.8044
 20
-1.609
 30
0.0
  0
VERTEX
  5
ED
100
AcDbEntity
  8
GG1
 62
     1
100
AcDbVertex
100
AcDb2dVertex
 10
0.8044
 20
-1.6947
 30
0.0
  0
SEQEND
  5
EE
100
AcDbEntity
  8
GG1
 62
     1
  0
POLYLINE
  5
EF
100
AcDbEntity
  8
GG1
 62
     1
100
AcDb2dPolyline
 66
     1
 10
0.0
 20
0.0
 30
0.0
  0
VERTEX
  5
F0
100
AcDbEntity
  8
GG1
 62
     1
100
AcDbVertex
100
AcDb2dVertex
 10
0.7615
 20
-1.6519
 30
0.0
  0
VERTEX
  5
F1
100
AcDbEntity
  8
GG1
 62
     1
100
AcDbVertex
100
AcDb2dVertex
 10
0.8472
 20
-1.6519
 30
0.0
  0
SEQEND
  5
F2
100
AcDbEntity
  8
GG1
 62
     1
  0
POLYLINE
  5
F3
100
AcDbEntity
  8
GG1
 62
     1
100
AcDb2dPolyline
 66
     1
 10
0.0
 20
0.0
 30
0.0
  0
VERTEX
  5
F4
100
AcDbEntity
  8
GG1
 62
     1
100
AcDbVertex
100
AcDb2dVertex
 10
0.8768
 20
-1.709
 30
0.0
  0
VERTEX
  5
F5
100
AcDbEntity
  8
GG1
 62
     1
100
AcDbVertex
100
AcDb2dVertex
 10
0.9434
 20
-1.5948
 30
0.0
  0
SEQEND
  5
F6
100
AcDbEntity
  8
GG1
 62
     1
  0
POLYLINE
  5
F7
100
AcDbEntity
  8
GG1
 62
     1
100
AcDb2dPolyline
 66
     1
 10
0.0
 20
0.0
 30
0.0
  0
VERTEX
  5
F8
100
AcDbEntity
  8
GG1
 62
     1
100
AcDbVertex
100
AcDb2dVertex
 10
0.9501
 20
-1.6519
 30
0.0
  0
VERTEX
  5
F9
100
AcDbEntity
  8
GG1
 62
     1
100
AcDbVertex
100
AcDb2dVertex
 10
1.0358
 20
-1.6519
 30
0.0
  0
SEQEND
  5
FA
100
AcDbEntity
  8
GG1
 62
     1
  0
POLYLINE
  5
FB
100
AcDbEntity
  8
GG1
 62
     1
100
AcDb2dPolyline
 66
     1
 10
0.0
 20
0.0
 30
0.0
  0
VERTEX
  5
FC
100
AcDbEntity
  8
GG1
 62
     1
100
AcDbVertex
100
AcDb2dVertex
 10
1.07
 20
-1.6852
 30
0.0
  0
VERTEX
  5
FD
100
AcDbEntity
  8
GG1
 62
     1
100
AcDbVertex
100
AcDb2dVertex
 10
1.0653
 20
-1.69
 30
0.0
  0
VERTEX
  5
FE
100
AcDbEntity
  8
GG1
 62
     1
100
AcDbVertex
100
AcDb2dVertex
 10
1.07
 20
-1.6947
 30
0.0
  0
VERTEX
  5
FF
100
AcDbEntity
  8
GG1
 62
     1
100
AcDbVertex
100
AcDb2dVertex
 10
1.0748
 20
-1.69
 30
0.0
  0
VERTEX
  5
100
100
AcDbEntity
  8
GG1
 62
     1
100
AcDbVertex
100
AcDb2dVertex
 10
1.07
 20
-1.6852
 30
0.0
  0
SEQEND
  5
101
100
AcDbEntity
  8
GG1
 62
     1
  0
POLYLINE
  5
102
100
AcDbEntity
  8
GG1
 62
     1
100
AcDb2dPolyline
 66
     1
 10
0.0
 20
0.0
 30
0.0
  0
VERTEX
  5
103
100
AcDbEntity
  8
GG1
 62
     1
100
AcDbVertex
100
AcDb2dVertex
 10
1.1253
 20
-1.5948
 30
0.0
  0
VERTEX
  5
104
100
AcDbEntity
  8
GG1
 62
     1
100
AcDbVertex
100
AcDb2dVertex
 10
1.111
 20
-1.5995
 30
0.0
  0
VERTEX
  5
105
100
AcDbEntity
  8
GG1
 62
     1
100
AcDbVertex
100
AcDb2dVertex
 10
1.1015
 20
-1.6138
 30
0.0
  0
VERTEX
  5
106
100
AcDbEntity
  8
GG1
 62
     1
100
AcDbVertex
100
AcDb2dVertex
 10
1.0967
 20
-1.6376
 30
0.0
  0
VERTEX
  5
107
100
AcDbEntity
  8
GG1
 62
     1
100
AcDbVertex
100
AcDb2dVertex
 10
1.0967
 20
-1.6519
 30
0.0
  0
VERTEX
  5
108
100
AcDbEntity
  8
GG1
 62
     1
100
AcDbVertex
100
AcDb2dVertex
 10
1.1015
 20
-1.6757
 30
0.0
  0
VERTEX
  5
109
100
AcDbEntity
  8
GG1
 62
     1
100
AcDbVertex
100
AcDb2dVertex
 10
1.111
 20
-1.69
 30
0.0
  0
VERTEX
  5
10A
100
AcDbEntity
  8
GG1
 62
     1
100
AcDbVertex
100
AcDb2dVertex
 10
1.1253
 20
-1.6947
 30
0.0
  0
VERTEX
  5
10B
100
AcDbEntity
  8
GG1
 62
     1
100
AcDbVertex
100
AcDb2dVertex
 10
1.1348
 20
-1.6947
 30
0.0
  0
VERTEX
  5
10C
100
AcDbEntity
  8
GG1
 62
     1
100
AcDbVertex
100
AcDb2dVertex
 10
1.1491
 20
-1.69
 30
0.0
  0
VERTEX
  5
10D
100
AcDbEntity
  8
GG1
 62
     1
100
AcDbVertex
100
AcDb2dVertex
 10
1.1586
 20
-1.6757
 30
0.0
  0
VERTEX
  5
10E
100
AcDbEntity
  8
GG1
 62
     1
100
AcDbVertex
100
AcDb2dVertex
 10
1.1634
 20
-1.6519
 30
0.0
  0
VERTEX
  5
10F
100
AcDbEntity
  8
GG1
 62
     1
100
AcDbVertex
100
AcDb2dVertex
 10
1.1634
 20
-1.6376
 30
0.0
  0
VERTEX
  5
110
100
AcDbEntity
  8
GG1
 62
     1
100
AcDbVertex
100
AcDb2dVertex
 10
1.1586
 20
-1.6138
 30
0.0
  0
VERTEX
  5
111
100
AcDbEntity
  8
GG1
 62
     1
100
AcDbVertex
100
AcDb2dVertex
 10
1.1491
 20
-1.5995
 30
0.0
  0
VERTEX
  5
112
100
AcDbEntity
  8
GG1
 62
     1
100
AcDbVertex
100
AcDb2dVertex
 10
1.1348
 20
-1.5948
 30
0.0
  0
VERTEX
  5
113
100
AcDbEntity
  8
GG1
 62
     1
100
AcDbVertex
100
AcDb2dVertex
 10
1.1253
 20
-1.5948
 30
0.0
  0
SEQEND
  5
114
100
AcDbEntity
  8
GG1
 62
     1
  0
POLYLINE
  5
115
100
AcDbEntity
  8
GG1
 62
     1
100
AcDb2dPolyline
 66
     1
 10
0.0
 20
0.0
 30
0.0
  0
VERTEX
  5
116
100
AcDbEntity
  8
GG1
 62
     1
100
AcDbVertex
100
AcDb2dVertex
 10
1.2143
 20
-1.5948
 30
0.0
  0
VERTEX
  5
117
100
AcDbEntity
  8
GG1
 62
     1
100
AcDbVertex
100
AcDb2dVertex
 10
1.2
 20
-1.5995
 30
0.0
  0
VERTEX
  5
118
100
AcDbEntity
  8
GG1
 62
     1
100
AcDbVertex
100
AcDb2dVertex
 10
1.1905
 20
-1.6138
 30
0.0
  0
VERTEX
  5
119
100
AcDbEntity
  8
GG1
 62
     1
100
AcDbVertex
100
AcDb2dVertex
 10
1.1857
 20
-1.6376
 30
0.0
  0
VERTEX
  5
11A
100
AcDbEntity
  8
GG1
 62
     1
100
AcDbVertex
100
AcDb2dVertex
 10
1.1857
 20
-1.6519
 30
0.0
  0
VERTEX
  5
11B
100
AcDbEntity
  8
GG1
 62
     1
100
AcDbVertex
100
AcDb2dVertex
 10
1.1905
 20
-1.6757
 30
0.0
  0
VERTEX
  5
11C
100
AcDbEntity
  8
GG1
 62
     1
100
AcDbVertex
100
AcDb2dVertex
 10
1.2
 20
-1.69
 30
0.0
  0
VERTEX
  5
11D
100
AcDbEntity
  8
GG1
 62
     1
100
AcDbVertex
100
AcDb2dVertex
 10
1.2143
 20
-1.6947
 30
0.0
  0
VERTEX
  5
11E
100
AcDbEntity
  8
GG1
 62
     1
100
AcDbVertex
100
AcDb2dVertex
 10
1.2238
 20
-1.6947
 30
0.0
  0
VERTEX
  5
11F
100
AcDbEntity
  8
GG1
 62
     1
100
AcDbVertex
100
AcDb2dVertex
 10
1.2381
 20
-1.69
 30
0.0
  0
VERTEX
  5
120
100
AcDbEntity
  8
GG1
 62
     1
100
AcDbVertex
100
AcDb2dVertex
 10
1.2476
 20
-1.6757
 30
0.0
  0
VERTEX
  5
121
100
AcDbEntity
  8
GG1
 62
     1
100
AcDbVertex
100
AcDb2dVertex
 10
1.2524
 20
-1.6519
 30
0.0
  0
VERTEX
  5
122
100
AcDbEntity
  8
GG1
 62
     1
100
AcDbVertex
100
AcDb2dVertex
 10
1.2524
 20
-1.6376
 30
0.0
  0
VERTEX
  5
123
100
AcDbEntity
  8
GG1
 62
     1
100
AcDbVertex
100
AcDb2dVertex
 10
1.2476
 20
-1.6138
 30
0.0
  0
VERTEX
  5
124
100
AcDbEntity
  8
GG1
 62
     1
100
AcDbVertex
100
AcDb2dVertex
 10
1.2381
 20
-1.5995
 30
0.0
  0
VERTEX
  5
125
100
AcDbEntity
  8
GG1
 62
     1
100
AcDbVertex
100
AcDb2dVertex
 10
1.2238
 20
-1.5948
 30
0.0
  0
VERTEX
  5
126
100
AcDbEntity
  8
GG1
 62
     1
100
AcDbVertex
100
AcDb2dVertex
 10
1.2143
 20
-1.5948
 30
0.0
  0
SEQEND
  5
127
100
AcDbEntity
  8
GG1
 62
     1
  0
POLYLINE
  5
128
100
AcDbEntity
  8
GG1
 62
     1
100
AcDb2dPolyline
 66
     1
 10
0.0
 20
0.0
 30
0.0
  0
VERTEX
  5
129
100
AcDbEntity
  8
GG1
 62
     1
100
AcDbVertex
100
AcDb2dVertex
 10
1.3319
 20
-1.5948
 30
0.0
  0
VERTEX
  5
12A
100
AcDbEntity
  8
GG1
 62
     1
100
AcDbVertex
100
AcDb2dVertex
 10
1.2843
 20
-1.5948
 30
0.0
  0
VERTEX
  5
12B
100
AcDbEntity
  8
GG1
 62
     1
100
AcDbVertex
100
AcDb2dVertex
 10
1.2795
 20
-1.6376
 30
0.0
  0
VERTEX
  5
12C
100
AcDbEntity
  8
GG1
 62
     1
100
AcDbVertex
100
AcDb2dVertex
 10
1.2843
 20
-1.6328
 30
0.0
  0
VERTEX
  5
12D
100
AcDbEntity
  8
GG1
 62
     1
100
AcDbVertex
100
AcDb2dVertex
 10
1.2986
 20
-1.6281
 30
0.0
  0
VERTEX
  5
12E
100
AcDbEntity
  8
GG1
 62
     1
100
AcDbVertex
100
AcDb2dVertex
 10
1.3129
 20
-1.6281
 30
0.0
  0
VERTEX
  5
12F
100
AcDbEntity
  8
GG1
 62
     1
100
AcDbVertex
100
AcDb2dVertex
 10
1.3271
 20
-1.6328
 30
0.0
  0
VERTEX
  5
130
100
AcDbEntity
  8
GG1
 62
     1
100
AcDbVertex
100
AcDb2dVertex
 10
1.3367
 20
-1.6424
 30
0.0
  0
VERTEX
  5
131
100
AcDbEntity
  8
GG1
 62
     1
100
AcDbVertex
100
AcDb2dVertex
 10
1.3414
 20
-1.6567
 30
0.0
  0
VERTEX
  5
132
100
AcDbEntity
  8
GG1
 62
     1
100
AcDbVertex
100
AcDb2dVertex
 10
1.3414
 20
-1.6662
 30
0.0
  0
VERTEX
  5
133
100
AcDbEntity
  8
GG1
 62
     1
100
AcDbVertex
100
AcDb2dVertex
 10
1.3367
 20
-1.6805
 30
0.0
  0
VERTEX
  5
134
100
AcDbEntity
  8
GG1
 62
     1
100
AcDbVertex
100
AcDb2dVertex
 10
1.3271
 20
-1.69
 30
0.0
  0
VERTEX
  5
135
100
AcDbEntity
  8
GG1
 62
     1
100
AcDbVertex
100
AcDb2dVertex
 10
1.3129
 20
-1.6947
 30
0.0
  0
VERTEX
  5
136
100
AcDbEntity
  8
GG1
 62
     1
100
AcDbVertex
100
AcDb2dVertex
 10
1.2986
 20
-1.6947
 30
0.0
  0
VERTEX
  5
137
100
AcDbEntity
  8
GG1
 62
     1
100
AcDbVertex
100
AcDb2dVertex
 10
1.2843
 20
-1.69
 30
0.0
  0
VERTEX
  5
138
100
AcDbEntity
  8
GG1
 62
     1
100
AcDbVertex
100
AcDb2dVertex
 10
1.2795
 20
-1.6852
 30
0.0
  0
VERTEX
  5
139
100
AcDbEntity
  8
GG1
 62
     1
100
AcDbVertex
100
AcDb2dVertex
 10
1.2748
 20
-1.6757
 30
0.0
  0
SEQEND
  5
13A
100
AcDbEntity
  8
GG1
 62
     1
  0
POLYLINE
  5
13B
100
AcDbEntity
  8
GG1
 62
     1
100
AcDb2dPolyline
 66
     1
 10
0.0
 20
0.0
 30
0.0
  0
VERTEX
  5
13C
100
AcDbEntity
  8
GG1
 62
     1
100
AcDbVertex
100
AcDb2dVertex
 10
1.4423
 20
-1.5948
 30
0.0
  0
VERTEX
  5
13D
100
AcDbEntity
  8
GG1
 62
     1
100
AcDbVertex
100
AcDb2dVertex
 10
1.4423
 20
-1.6947
 30
0.0
  0
SEQEND
  5
13E
100
AcDbEntity
  8
GG1
 62
     1
  0
POLYLINE
  5
13F
100
AcDbEntity
  8
GG1
 62
     1
100
AcDb2dPolyline
 66
     1
 10
0.0
 20
0.0
 30
0.0
  0
VERTEX
  5
140
100
AcDbEntity
  8
GG1
 62
     1
100
AcDbVertex
100
AcDb2dVertex
 10
1.4423
 20
-1.5948
 30
0.0
  0
VERTEX
  5
141
100
AcDbEntity
  8
GG1
 62
     1
100
AcDbVertex
100
AcDb2dVertex
 10
1.4757
 20
-1.5948
 30
0.0
  0
VERTEX
  5
142
100
AcDbEntity
  8
GG1
 62
     1
100
AcDbVertex
100
AcDb2dVertex
 10
1.49
 20
-1.5995
 30
0.0
  0
VERTEX
  5
143
100
AcDbEntity
  8
GG1
 62
     1
100
AcDbVertex
100
AcDb2dVertex
 10
1.4995
 20
-1.609
 30
0.0
  0
VERTEX
  5
144
100
AcDbEntity
  8
GG1
 62
     1
100
AcDbVertex
100
AcDb2dVertex
 10
1.5042
 20
-1.6186
 30
0.0
  0
VERTEX
  5
145
100
AcDbEntity
  8
GG1
 62
     1
100
AcDbVertex
100
AcDb2dVertex
 10
1.509
 20
-1.6328
 30
0.0
  0
VERTEX
  5
146
100
AcDbEntity
  8
GG1
 62
     1
100
AcDbVertex
100
AcDb2dVertex
 10
1.509
 20
-1.6567
 30
0.0
  0
VERTEX
  5
147
100
AcDbEntity
  8
GG1
 62
     1
100
AcDbVertex
100
AcDb2dVertex
 10
1.5042
 20
-1.6709
 30
0.0
  0
VERTEX
  5
148
100
AcDbEntity
  8
GG1
 62
     1
100
AcDbVertex
100
AcDb2dVertex
 10
1.4995
 20
-1.6805
 30
0.0
  0
VERTEX
  5
149
100
AcDbEntity
  8
GG1
 62
     1
100
AcDbVertex
100
AcDb2dVertex
 10
1.49
 20
-1.69
 30
0.0
  0
VERTEX
  5
14A
100
AcDbEntity
  8
GG1
 62
     1
100
AcDbVertex
100
AcDb2dVertex
 10
1.4757
 20
-1.6947
 30
0.0
  0
VERTEX
  5
14B
100
AcDbEntity
  8
GG1
 62
     1
100
AcDbVertex
100
AcDb2dVertex
 10
1.4423
 20
-1.6947
 30
0.0
  0
SEQEND
  5
14C
100
AcDbEntity
  8
GG1
 62
     1
  0
POLYLINE
  5
14D
100
AcDbEntity
  8
GG1
 62
     1
100
AcDb2dPolyline
 66
     1
 10
0.0
 20
0.0
 30
0.0
  0
VERTEX
  5
14E
100
AcDbEntity
  8
GG1
 62
     1
100
AcDbVertex
100
AcDb2dVertex
 10
1.5314
 20
-1.6281
 30
0.0
  0
VERTEX
  5
14F
100
AcDbEntity
  8
GG1
 62
     1
100
AcDbVertex
100
AcDb2dVertex
 10
1.5314
 20
-1.6947
 30
0.0
  0
SEQEND
  5
150
100
AcDbEntity
  8
GG1
 62
     1
  0
POLYLINE
  5
151
100
AcDbEntity
  8
GG1
 62
     1
100
AcDb2dPolyline
 66
     1
 10
0.0
 20
0.0
 30
0.0
  0
VERTEX
  5
152
100
AcDbEntity
  8
GG1
 62
     1
100
AcDbVertex
100
AcDb2dVertex
 10
1.5314
 20
-1.6567
 30
0.0
  0
VERTEX
  5
153
100
AcDbEntity
  8
GG1
 62
     1
100
AcDbVertex
100
AcDb2dVertex
 10
1.5361
 20
-1.6424
 30
0.0
  0
VERTEX
  5
154
100
AcDbEntity
  8
GG1
 62
     1
100
AcDbVertex
100
AcDb2dVertex
 10
1.5457
 20
-1.6328
 30
0.0
  0
VERTEX
  5
155
100
AcDbEntity
  8
GG1
 62
     1
100
AcDbVertex
100
AcDb2dVertex
 10
1.5552
 20
-1.6281
 30
0.0
  0
VERTEX
  5
156
100
AcDbEntity
  8
GG1
 62
     1
100
AcDbVertex
100
AcDb2dVertex
 10
1.5695
 20
-1.6281
 30
0.0
  0
SEQEND
  5
157
100
AcDbEntity
  8
GG1
 62
     1
  0
POLYLINE
  5
158
100
AcDbEntity
  8
GG1
 62
     1
100
AcDb2dPolyline
 66
     1
 10
0.0
 20
0.0
 30
0.0
  0
VERTEX
  5
159
100
AcDbEntity
  8
GG1
 62
     1
100
AcDbVertex
100
AcDb2dVertex
 10
1.588
 20
-1.5948
 30
0.0
  0
VERTEX
  5
15A
100
AcDbEntity
  8
GG1
 62
     1
100
AcDbVertex
100
AcDb2dVertex
 10
1.5928
 20
-1.5995
 30
0.0
  0
VERTEX
  5
15B
100
AcDbEntity
  8
GG1
 62
     1
100
AcDbVertex
100
AcDb2dVertex
 10
1.5976
 20
-1.5948
 30
0.0
  0
VERTEX
  5
15C
100
AcDbEntity
  8
GG1
 62
     1
100
AcDbVertex
100
AcDb2dVertex
 10
1.5928
 20
-1.59
 30
0.0
  0
VERTEX
  5
15D
100
AcDbEntity
  8
GG1
 62
     1
100
AcDbVertex
100
AcDb2dVertex
 10
1.588
 20
-1.5948
 30
0.0
  0
SEQEND
  5
15E
100
AcDbEntity
  8
GG1
 62
     1
  0
POLYLINE
  5
15F
100
AcDbEntity
  8
GG1
 62
     1
100
AcDb2dPolyline
 66
     1
 10
0.0
 20
0.0
 30
0.0
  0
VERTEX
  5
160
100
AcDbEntity
  8
GG1
 62
     1
100
AcDbVertex
100
AcDb2dVertex
 10
1.5928
 20
-1.6281
 30
0.0
  0
VERTEX
  5
161
100
AcDbEntity
  8
GG1
 62
     1
100
AcDbVertex
100
AcDb2dVertex
 10
1.5928
 20
-1.6947
 30
0.0
  0
SEQEND
  5
162
100
AcDbEntity
  8
GG1
 62
     1
  0
POLYLINE
  5
163
100
AcDbEntity
  8
GG1
 62
     1
100
AcDb2dPolyline
 66
     1
 10
0.0
 20
0.0
 30
0.0
  0
VERTEX
  5
164
100
AcDbEntity
  8
GG1
 62
     1
100
AcDbVertex
100
AcDb2dVertex
 10
1.6152
 20
-1.5948
 30
0.0
  0
VERTEX
  5
165
100
AcDbEntity
  8
GG1
 62
     1
100
AcDbVertex
100
AcDb2dVertex
 10
1.6152
 20
-1.6947
 30
0.0
  0
SEQEND
  5
166
100
AcDbEntity
  8
GG1
 62
     1
  0
POLYLINE
  5
167
100
AcDbEntity
  8
GG1
 62
     1
100
AcDb2dPolyline
 66
     1
 10
0.0
 20
0.0
 30
0.0
  0
VERTEX
  5
168
100
AcDbEntity
  8
GG1
 62
     1
100
AcDbVertex
100
AcDb2dVertex
 10
1.6361
 20
-1.5948
 30
0.0
  0
VERTEX
  5
169
100
AcDbEntity
  8
GG1
 62
     1
100
AcDbVertex
100
AcDb2dVertex
 10
1.6361
 20
-1.6947
 30
0.0
  0
SEQEND
  5
16A
100
AcDbEntity
  8
GG1
 62
     1
  0
POLYLINE
  5
16B
100
AcDbEntity
  8
GG1
 62
     1
100
AcDb2dPolyline
 66
     1
 10
0.0
 20
0.0
 30
0.0
  0
VERTEX
  5
16C
100
AcDbEntity
  8
GG1
 62
     1
100
AcDbVertex
100
AcDb2dVertex
 10
1.6666
 20
-1.69
 30
0.0
  0
VERTEX
  5
16D
100
AcDbEntity
  8
GG1
 62
     1
100
AcDbVertex
100
AcDb2dVertex
 10
1.6618
 20
-1.6947
 30
0.0
  0
VERTEX
  5
16E
100
AcDbEntity
  8
GG1
 62
     1
100
AcDbVertex
100
AcDb2dVertex
 10
1.6571
 20
-1.69
 30
0.0
  0
VERTEX
  5
16F
100
AcDbEntity
  8
GG1
 62
     1
100
AcDbVertex
100
AcDb2dVertex
 10
1.6618
 20
-1.6852
 30
0.0
  0
VERTEX
  5
170
100
AcDbEntity
  8
GG1
 62
     1
100
AcDbVertex
100
AcDb2dVertex
 10
1.6666
 20
-1.69
 30
0.0
  0
VERTEX
  5
171
100
AcDbEntity
  8
GG1
 62
     1
100
AcDbVertex
100
AcDb2dVertex
 10
1.6666
 20
-1.6995
 30
0.0
  0
VERTEX
  5
172
100
AcDbEntity
  8
GG1
 62
     1
100
AcDbVertex
100
AcDb2dVertex
 10
1.6618
 20
-1.709
 30
0.0
  0
VERTEX
  5
173
100
AcDbEntity
  8
GG1
 62
     1
100
AcDbVertex
100
AcDb2dVertex
 10
1.6571
 20
-1.7138
 30
0.0
  0
SEQEND
  5
174
100
AcDbEntity
  8
GG1
 62
     1
  0
POLYLINE
  5
175
100
AcDbEntity
  8
GG1
 62
     1
100
AcDb2dPolyline
 66
     1
 10
0.0
 20
0.0
 30
0.0
  0
VERTEX
  5
176
100
AcDbEntity
  8
GG1
 62
     1
100
AcDbVertex
100
AcDb2dVertex
 10
1.8099
 20
-1.609
 30
0.0
  0
VERTEX
  5
177
100
AcDbEntity
  8
GG1
 62
     1
100
AcDbVertex
100
AcDb2dVertex
 10
1.8099
 20
-1.6947
 30
0.0
  0
SEQEND
  5
178
100
AcDbEntity
  8
GG1
 62
     1
  0
POLYLINE
  5
179
100
AcDbEntity
  8
GG1
 62
     1
100
AcDb2dPolyline
 66
     1
 10
0.0
 20
0.0
 30
0.0
  0
VERTEX
  5
17A
100
AcDbEntity
  8
GG1
 62
     1
100
AcDbVertex
100
AcDb2dVertex
 10
1.767
 20
-1.6519
 30
0.0
  0
VERTEX
  5
17B
100
AcDbEntity
  8
GG1
 62
     1
100
AcDbVertex
100
AcDb2dVertex
 10
1.8527
 20
-1.6519
 30
0.0
  0
SEQEND
  5
17C
100
AcDbEntity
  8
GG1
 62
     1
  0
POLYLINE
  5
17D
100
AcDbEntity
  8
GG1
 62
     1
100
AcDb2dPolyline
 66
     1
 10
0.0
 20
0.0
 30
0.0
  0
VERTEX
  5
17E
100
AcDbEntity
  8
GG1
 62
     1
100
AcDbVertex
100
AcDb2dVertex
 10
1.8823
 20
-1.709
 30
0.0
  0
VERTEX
  5
17F
100
AcDbEntity
  8
GG1
 62
     1
100
AcDbVertex
100
AcDb2dVertex
 10
1.9489
 20
-1.5948
 30
0.0
  0
SEQEND
  5
180
100
AcDbEntity
  8
GG1
 62
     1
  0
POLYLINE
  5
181
100
AcDbEntity
  8
GG1
 62
     1
100
AcDb2dPolyline
 66
     1
 10
0.0
 20
0.0
 30
0.0
  0
VERTEX
  5
182
100
AcDbEntity
  8
GG1
 62
     1
100
AcDbVertex
100
AcDb2dVertex
 10
1.9556
 20
-1.6519
 30
0.0
  0
VERTEX
  5
183
100
AcDbEntity
  8
GG1
 62
     1
100
AcDbVertex
100
AcDb2dVertex
 10
2.0413
 20
-1.6519
 30
0.0
  0
SEQEND
  5
184
100
AcDbEntity
  8
GG1
 62
     1
  0
POLYLINE
  5
185
100
AcDbEntity
  8
GG1
 62
     1
100
AcDb2dPolyline
 66
     1
 10
0.0
 20
0.0
 30
0.0
  0
VERTEX
  5
186
100
AcDbEntity
  8
GG1
 62
     1
100
AcDbVertex
100
AcDb2dVertex
 10
2.0755
 20
-1.6852
 30
0.0
  0
VERTEX
  5
187
100
AcDbEntity
  8
GG1
 62
     1
100
AcDbVertex
100
AcDb2dVertex
 10
2.0708
 20
-1.69
 30
0.0
  0
VERTEX
  5
188
100
AcDbEntity
  8
GG1
 62
     1
100
AcDbVertex
100
AcDb2dVertex
 10
2.0755
 20
-1.6947
 30
0.0
  0
VERTEX
  5
189
100
AcDbEntity
  8
GG1
 62
     1
100
AcDbVertex
100
AcDb2dVertex
 10
2.0803
 20
-1.69
 30
0.0
  0
VERTEX
  5
18A
100
AcDbEntity
  8
GG1
 62
     1
100
AcDbVertex
100
AcDb2dVertex
 10
2.0755
 20
-1.6852
 30
0.0
  0
SEQEND
  5
18B
100
AcDbEntity
  8
GG1
 62
     1
  0
POLYLINE
  5
18C
100
AcDbEntity
  8
GG1
 62
     1
100
AcDb2dPolyline
 66
     1
 10
0.0
 20
0.0
 30
0.0
  0
VERTEX
  5
18D
100
AcDbEntity
  8
GG1
 62
     1
100
AcDbVertex
100
AcDb2dVertex
 10
2.1308
 20
-1.5948
 30
0.0
  0
VERTEX
  5
18E
100
AcDbEntity
  8
GG1
 62
     1
100
AcDbVertex
100
AcDb2dVertex
 10
2.1165
 20
-1.5995
 30
0.0
  0
VERTEX
  5
18F
100
AcDbEntity
  8
GG1
 62
     1
100
AcDbVertex
100
AcDb2dVertex
 10
2.107
 20
-1.6138
 30
0.0
  0
VERTEX
  5
190
100
AcDbEntity
  8
GG1
 62
     1
100
AcDbVertex
100
AcDb2dVertex
 10
2.1022
 20
-1.6376
 30
0.0
  0
VERTEX
  5
191
100
AcDbEntity
  8
GG1
 62
     1
100
AcDbVertex
100
AcDb2dVertex
 10
2.1022
 20
-1.6519
 30
0.0
  0
VERTEX
  5
192
100
AcDbEntity
  8
GG1
 62
     1
100
AcDbVertex
100
AcDb2dVertex
 10
2.107
 20
-1.6757
 30
0.0
  0
VERTEX
  5
193
100
AcDbEntity
  8
GG1
 62
     1
100
AcDbVertex
100
AcDb2dVertex
 10
2.1165
 20
-1.69
 30
0.0
  0
VERTEX
  5
194
100
AcDbEntity
  8
GG1
 62
     1
100
AcDbVertex
100
AcDb2dVertex
 10
2.1308
 20
-1.6947
 30
0.0
  0
VERTEX
  5
195
100
AcDbEntity
  8
GG1
 62
     1
100
AcDbVertex
100
AcDb2dVertex
 10
2.1403
 20
-1.6947
 30
0.0
  0
VERTEX
  5
196
100
AcDbEntity
  8
GG1
 62
     1
100
AcDbVertex
100
AcDb2dVertex
 10
2.1546
 20
-1.69
 30
0.0
  0
VERTEX
  5
197
100
AcDbEntity
  8
GG1
 62
     1
100
AcDbVertex
100
AcDb2dVertex
 10
2.1641
 20
-1.6757
 30
0.0
  0
VERTEX
  5
198
100
AcDbEntity
  8
GG1
 62
     1
100
AcDbVertex
100
AcDb2dVertex
 10
2.1689
 20
-1.6519
 30
0.0
  0
VERTEX
  5
199
100
AcDbEntity
  8
GG1
 62
     1
100
AcDbVertex
100
AcDb2dVertex
 10
2.1689
 20
-1.6376
 30
0.0
  0
VERTEX
  5
19A
100
AcDbEntity
  8
GG1
 62
     1
100
AcDbVertex
100
AcDb2dVertex
 10
2.1641
 20
-1.6138
 30
0.0
  0
VERTEX
  5
19B
100
AcDbEntity
  8
GG1
 62
     1
100
AcDbVertex
100
AcDb2dVertex
 10
2.1546
 20
-1.5995
 30
0.0
  0
VERTEX
  5
19C
100
AcDbEntity
  8
GG1
 62
     1
100
AcDbVertex
100
AcDb2dVertex
 10
2.1403
 20
-1.5948
 30
0.0
  0
VERTEX
  5
19D
100
AcDbEntity
  8
GG1
 62
     1
100
AcDbVertex
100
AcDb2dVertex
 10
2.1308
 20
-1.5948
 30
0.0
  0
SEQEND
  5
19E
100
AcDbEntity
  8
GG1
 62
     1
  0
POLYLINE
  5
19F
100
AcDbEntity
  8
GG1
 62
     1
100
AcDb2dPolyline
 66
     1
 10
0.0
 20
0.0
 30
0.0
  0
VERTEX
  5
1A0
100
AcDbEntity
  8
GG1
 62
     1
100
AcDbVertex
100
AcDb2dVertex
 10
2.1912
 20
-1.6138
 30
0.0
  0
VERTEX
  5
1A1
100
AcDbEntity
  8
GG1
 62
     1
100
AcDbVertex
100
AcDb2dVertex
 10
2.2008
 20
-1.609
 30
0.0
  0
VERTEX
  5
1A2
100
AcDbEntity
  8
GG1
 62
     1
100
AcDbVertex
100
AcDb2dVertex
 10
2.215
 20
-1.5948
 30
0.0
  0
VERTEX
  5
1A3
100
AcDbEntity
  8
GG1
 62
     1
100
AcDbVertex
100
AcDb2dVertex
 10
2.215
 20
-1.6947
 30
0.0
  0
SEQEND
  5
1A4
100
AcDbEntity
  8
GG1
 62
     1
  0
POLYLINE
  5
1A5
100
AcDbEntity
  8
GG1
 62
     1
100
AcDb2dPolyline
 66
     1
 10
0.0
 20
0.0
 30
0.0
  0
VERTEX
  5
1A6
100
AcDbEntity
  8
GG1
 62
     1
100
AcDbVertex
100
AcDb2dVertex
 10
2.2931
 20
-1.5948
 30
0.0
  0
VERTEX
  5
1A7
100
AcDbEntity
  8
GG1
 62
     1
100
AcDbVertex
100
AcDb2dVertex
 10
2.2788
 20
-1.5995
 30
0.0
  0
VERTEX
  5
1A8
100
AcDbEntity
  8
GG1
 62
     1
100
AcDbVertex
100
AcDb2dVertex
 10
2.2693
 20
-1.6138
 30
0.0
  0
VERTEX
  5
1A9
100
AcDbEntity
  8
GG1
 62
     1
100
AcDbVertex
100
AcDb2dVertex
 10
2.2646
 20
-1.6376
 30
0.0
  0
VERTEX
  5
1AA
100
AcDbEntity
  8
GG1
 62
     1
100
AcDbVertex
100
AcDb2dVertex
 10
2.2646
 20
-1.6519
 30
0.0
  0
VERTEX
  5
1AB
100
AcDbEntity
  8
GG1
 62
     1
100
AcDbVertex
100
AcDb2dVertex
 10
2.2693
 20
-1.6757
 30
0.0
  0
VERTEX
  5
1AC
100
AcDbEntity
  8
GG1
 62
     1
100
AcDbVertex
100
AcDb2dVertex
 10
2.2788
 20
-1.69
 30
0.0
  0
VERTEX
  5
1AD
100
AcDbEntity
  8
GG1
 62
     1
100
AcDbVertex
100
AcDb2dVertex
 10
2.2931
 20
-1.6947
 30
0.0
  0
VERTEX
  5
1AE
100
AcDbEntity
  8
GG1
 62
     1
100
AcDbVertex
100
AcDb2dVertex
 10
2.3026
 20
-1.6947
 30
0.0
  0
VERTEX
  5
1AF
100
AcDbEntity
  8
GG1
 62
     1
100
AcDbVertex
100
AcDb2dVertex
 10
2.3169
 20
-1.69
 30
0.0
  0
VERTEX
  5
1B0
100
AcDbEntity
  8
GG1
 62
     1
100
AcDbVertex
100
AcDb2dVertex
 10
2.3264
 20
-1.6757
 30
0.0
  0
VERTEX
  5
1B1
100
AcDbEntity
  8
GG1
 62
     1
100
AcDbVertex
100
AcDb2dVertex
 10
2.3312
 20
-1.6519
 30
0.0
  0
VERTEX
  5
1B2
100
AcDbEntity
  8
GG1
 62
     1
100
AcDbVertex
100
AcDb2dVertex
 10
2.3312
 20
-1.6376
 30
0.0
  0
VERTEX
  5
1B3
100
AcDbEntity
  8
GG1
 62
     1
100
AcDbVertex
100
AcDb2dVertex
 10
2.3264
 20
-1.6138
 30
0.0
  0
VERTEX
  5
1B4
100
AcDbEntity
  8
GG1
 62
     1
100
AcDbVertex
100
AcDb2dVertex
 10
2.3169
 20
-1.5995
 30
0.0
  0
VERTEX
  5
1B5
100
AcDbEntity
  8
GG1
 62
     1
100
AcDbVertex
100
AcDb2dVertex
 10
2.3026
 20
-1.5948
 30
0.0
  0
VERTEX
  5
1B6
100
AcDbEntity
  8
GG1
 62
     1
100
AcDbVertex
100
AcDb2dVertex
 10
2.2931
 20
-1.5948
 30
0.0
  0
SEQEND
  5
1B7
100
AcDbEntity
  8
GG1
 62
     1
  0
POLYLINE
  5
1B8
100
AcDbEntity
  8
GG1
 62
     1
100
AcDb2dPolyline
 66
     1
 10
0.0
 20
0.0
 30
0.0
  0
VERTEX
  5
1B9
100
AcDbEntity
  8
GG1
 62
     1
100
AcDbVertex
100
AcDb2dVertex
 10
2.4321
 20
-1.5948
 30
0.0
  0
VERTEX
  5
1BA
100
AcDbEntity
  8
GG1
 62
     1
100
AcDbVertex
100
AcDb2dVertex
 10
2.4321
 20
-1.6947
 30
0.0
  0
SEQEND
  5
1BB
100
AcDbEntity
  8
GG1
 62
     1
  0
POLYLINE
  5
1BC
100
AcDbEntity
  8
GG1
 62
     1
100
AcDb2dPolyline
 66
     1
 10
0.0
 20
0.0
 30
0.0
  0
VERTEX
  5
1BD
100
AcDbEntity
  8
GG1
 62
     1
100
AcDbVertex
100
AcDb2dVertex
 10
2.4321
 20
-1.5948
 30
0.0
  0
VERTEX
  5
1BE
100
AcDbEntity
  8
GG1
 62
     1
100
AcDbVertex
100
AcDb2dVertex
 10
2.494
 20
-1.5948
 30
0.0
  0
SEQEND
  5
1BF
100
AcDbEntity
  8
GG1
 62
     1
  0
POLYLINE
  5
1C0
100
AcDbEntity
  8
GG1
 62
     1
100
AcDb2dPolyline
 66
     1
 10
0.0
 20
0.0
 30
0.0
  0
VERTEX
  5
1C1
100
AcDbEntity
  8
GG1
 62
     1
100
AcDbVertex
100
AcDb2dVertex
 10
2.4321
 20
-1.6424
 30
0.0
  0
VERTEX
  5
1C2
100
AcDbEntity
  8
GG1
 62
     1
100
AcDbVertex
100
AcDb2dVertex
 10
2.4702
 20
-1.6424
 30
0.0
  0
SEQEND
  5
1C3
100
AcDbEntity
  8
GG1
 62
     1
  0
POLYLINE
  5
1C4
100
AcDbEntity
  8
GG1
 62
     1
100
AcDb2dPolyline
 66
     1
 10
0.0
 20
0.0
 30
0.0
  0
VERTEX
  5
1C5
100
AcDbEntity
  8
GG1
 62
     1
100
AcDbVertex
100
AcDb2dVertex
 10
2.5626
 20
-1.6281
 30
0.0
  0
VERTEX
  5
1C6
100
AcDbEntity
  8
GG1
 62
     1
100
AcDbVertex
100
AcDb2dVertex
 10
2.5626
 20
-1.6947
 30
0.0
  0
SEQEND
  5
1C7
100
AcDbEntity
  8
GG1
 62
     1
  0
POLYLINE
  5
1C8
100
AcDbEntity
  8
GG1
 62
     1
100
AcDb2dPolyline
 66
     1
 10
0.0
 20
0.0
 30
0.0
  0
VERTEX
  5
1C9
100
AcDbEntity
  8
GG1
 62
     1
100
AcDbVertex
100
AcDb2dVertex
 10
2.5626
 20
-1.6424
 30
0.0
  0
VERTEX
  5
1CA
100
AcDbEntity
  8
GG1
 62
     1
100
AcDbVertex
100
AcDb2dVertex
 10
2.5531
 20
-1.6328
 30
0.0
  0
VERTEX
  5
1CB
100
AcDbEntity
  8
GG1
 62
     1
100
AcDbVertex
100
AcDb2dVertex
 10
2.5435
 20
-1.6281
 30
0.0
  0
VERTEX
  5
1CC
100
AcDbEntity
  8
GG1
 62
     1
100
AcDbVertex
100
AcDb2dVertex
 10
2.5293
 20
-1.6281
 30
0.0
  0
VERTEX
  5
1CD
100
AcDbEntity
  8
GG1
 62
     1
100
AcDbVertex
100
AcDb2dVertex
 10
2.5197
 20
-1.6328
 30
0.0
  0
VERTEX
  5
1CE
100
AcDbEntity
  8
GG1
 62
     1
100
AcDbVertex
100
AcDb2dVertex
 10
2.5102
 20
-1.6424
 30
0.0
  0
VERTEX
  5
1CF
100
AcDbEntity
  8
GG1
 62
     1
100
AcDbVertex
100
AcDb2dVertex
 10
2.5055
 20
-1.6567
 30
0.0
  0
VERTEX
  5
1D0
100
AcDbEntity
  8
GG1
 62
     1
100
AcDbVertex
100
AcDb2dVertex
 10
2.5055
 20
-1.6662
 30
0.0
  0
VERTEX
  5
1D1
100
AcDbEntity
  8
GG1
 62
     1
100
AcDbVertex
100
AcDb2dVertex
 10
2.5102
 20
-1.6805
 30
0.0
  0
VERTEX
  5
1D2
100
AcDbEntity
  8
GG1
 62
     1
100
AcDbVertex
100
AcDb2dVertex
 10
2.5197
 20
-1.69
 30
0.0
  0
VERTEX
  5
1D3
100
AcDbEntity
  8
GG1
 62
     1
100
AcDbVertex
100
AcDb2dVertex
 10
2.5293
 20
-1.6947
 30
0.0
  0
VERTEX
  5
1D4
100
AcDbEntity
  8
GG1
 62
     1
100
AcDbVertex
100
AcDb2dVertex
 10
2.5435
 20
-1.6947
 30
0.0
  0
VERTEX
  5
1D5
100
AcDbEntity
  8
GG1
 62
     1
100
AcDbVertex
100
AcDb2dVertex
 10
2.5531
 20
-1.69
 30
0.0
  0
VERTEX
  5
1D6
100
AcDbEntity
  8
GG1
 62
     1
100
AcDbVertex
100
AcDb2dVertex
 10
2.5626
 20
-1.6805
 30
0.0
  0
SEQEND
  5
1D7
100
AcDbEntity
  8
GG1
 62
     1
  0
POLYLINE
  5
1D8
100
AcDbEntity
  8
GG1
 62
     1
100
AcDb2dPolyline
 66
     1
 10
0.0
 20
0.0
 30
0.0
  0
VERTEX
  5
1D9
100
AcDbEntity
  8
GG1
 62
     1
100
AcDbVertex
100
AcDb2dVertex
 10
2.5892
 20
-1.5948
 30
0.0
  0
VERTEX
  5
1DA
100
AcDbEntity
  8
GG1
 62
     1
100
AcDbVertex
100
AcDb2dVertex
 10
2.5892
 20
-1.6947
 30
0.0
  0
SEQEND
  5
1DB
100
AcDbEntity
  8
GG1
 62
     1
  0
POLYLINE
  5
1DC
100
AcDbEntity
  8
GG1
 62
     1
100
AcDb2dPolyline
 66
     1
 10
0.0
 20
0.0
 30
0.0
  0
VERTEX
  5
1DD
100
AcDbEntity
  8
GG1
 62
     1
100
AcDbVertex
100
AcDb2dVertex
 10
2.5892
 20
-1.6424
 30
0.0
  0
VERTEX
  5
1DE
100
AcDbEntity
  8
GG1
 62
     1
100
AcDbVertex
100
AcDb2dVertex
 10
2.5988
 20
-1.6328
 30
0.0
  0
VERTEX
  5
1DF
100
AcDbEntity
  8
GG1
 62
     1
100
AcDbVertex
100
AcDb2dVertex
 10
2.6083
 20
-1.6281
 30
0.0
  0
VERTEX
  5
1E0
100
AcDbEntity
  8
GG1
 62
     1
100
AcDbVertex
100
AcDb2dVertex
 10
2.6226
 20
-1.6281
 30
0.0
  0
VERTEX
  5
1E1
100
AcDbEntity
  8
GG1
 62
     1
100
AcDbVertex
100
AcDb2dVertex
 10
2.6321
 20
-1.6328
 30
0.0
  0
VERTEX
  5
1E2
100
AcDbEntity
  8
GG1
 62
     1
100
AcDbVertex
100
AcDb2dVertex
 10
2.6416
 20
-1.6424
 30
0.0
  0
VERTEX
  5
1E3
100
AcDbEntity
  8
GG1
 62
     1
100
AcDbVertex
100
AcDb2dVertex
 10
2.6464
 20
-1.6567
 30
0.0
  0
VERTEX
  5
1E4
100
AcDbEntity
  8
GG1
 62
     1
100
AcDbVertex
100
AcDb2dVertex
 10
2.6464
 20
-1.6662
 30
0.0
  0
VERTEX
  5
1E5
100
AcDbEntity
  8
GG1
 62
     1
100
AcDbVertex
100
AcDb2dVertex
 10
2.6416
 20
-1.6805
 30
0.0
  0
VERTEX
  5
1E6
100
AcDbEntity
  8
GG1
 62
     1
100
AcDbVertex
100
AcDb2dVertex
 10
2.6321
 20
-1.69
 30
0.0
  0
VERTEX
  5
1E7
100
AcDbEntity
  8
GG1
 62
     1
100
AcDbVertex
100
AcDb2dVertex
 10
2.6226
 20
-1.6947
 30
0.0
  0
VERTEX
  5
1E8
100
AcDbEntity
  8
GG1
 62
     1
100
AcDbVertex
100
AcDb2dVertex
 10
2.6083
 20
-1.6947
 30
0.0
  0
VERTEX
  5
1E9
100
AcDbEntity
  8
GG1
 62
     1
100
AcDbVertex
100
AcDb2dVertex
 10
2.5988
 20
-1.69
 30
0.0
  0
VERTEX
  5
1EA
100
AcDbEntity
  8
GG1
 62
     1
100
AcDbVertex
100
AcDb2dVertex
 10
2.5892
 20
-1.6805
 30
0.0
  0
SEQEND
  5
1EB
100
AcDbEntity
  8
GG1
 62
     1
  0
POLYLINE
  5
1EC
100
AcDbEntity
  8
GG1
 62
     1
100
AcDb2dPolyline
 66
     1
 10
0.0
 20
0.0
 30
0.0
  0
VERTEX
  5
1ED
100
AcDbEntity
  8
GG1
 62
     1
100
AcDbVertex
100
AcDb2dVertex
 10
2.6678
 20
-1.5757
 30
0.0
  0
VERTEX
  5
1EE
100
AcDbEntity
  8
GG1
 62
     1
100
AcDbVertex
100
AcDb2dVertex
 10
2.6773
 20
-1.5852
 30
0.0
  0
VERTEX
  5
1EF
100
AcDbEntity
  8
GG1
 62
     1
100
AcDbVertex
100
AcDb2dVertex
 10
2.6868
 20
-1.5995
 30
0.0
  0
VERTEX
  5
1F0
100
AcDbEntity
  8
GG1
 62
     1
100
AcDbVertex
100
AcDb2dVertex
 10
2.6964
 20
-1.6186
 30
0.0
  0
VERTEX
  5
1F1
100
AcDbEntity
  8
GG1
 62
     1
100
AcDbVertex
100
AcDb2dVertex
 10
2.7011
 20
-1.6424
 30
0.0
  0
VERTEX
  5
1F2
100
AcDbEntity
  8
GG1
 62
     1
100
AcDbVertex
100
AcDb2dVertex
 10
2.7011
 20
-1.6614
 30
0.0
  0
VERTEX
  5
1F3
100
AcDbEntity
  8
GG1
 62
     1
100
AcDbVertex
100
AcDb2dVertex
 10
2.6964
 20
-1.6852
 30
0.0
  0
VERTEX
  5
1F4
100
AcDbEntity
  8
GG1
 62
     1
100
AcDbVertex
100
AcDb2dVertex
 10
2.6868
 20
-1.7043
 30
0.0
  0
VERTEX
  5
1F5
100
AcDbEntity
  8
GG1
 62
     1
100
AcDbVertex
100
AcDb2dVertex
 10
2.6773
 20
-1.7185
 30
0.0
  0
VERTEX
  5
1F6
100
AcDbEntity
  8
GG1
 62
     1
100
AcDbVertex
100
AcDb2dVertex
 10
2.6678
 20
-1.7281
 30
0.0
  0
SEQEND
  5
1F7
100
AcDbEntity
  8
GG1
 62
     1
  0
POLYLINE
  5
1F8
100
AcDbEntity
  8
GG1
 62
     1
100
AcDb2dPolyline
 66
     1
 10
0.0
 20
0.0
 30
0.0
  0
VERTEX
  5
1F9
100
AcDbEntity
  8
GG1
 62
     1
100
AcDbVertex
100
AcDb2dVertex
 10
2.6773
 20
-1.5852
 30
0.0
  0
VERTEX
  5
1FA
100
AcDbEntity
  8
GG1
 62
     1
100
AcDbVertex
100
AcDb2dVertex
 10
2.6868
 20
-1.6043
 30
0.0
  0
VERTEX
  5
1FB
100
AcDbEntity
  8
GG1
 62
     1
100
AcDbVertex
100
AcDb2dVertex
 10
2.6916
 20
-1.6186
 30
0.0
  0
VERTEX
  5
1FC
100
AcDbEntity
  8
GG1
 62
     1
100
AcDbVertex
100
AcDb2dVertex
 10
2.6964
 20
-1.6424
 30
0.0
  0
VERTEX
  5
1FD
100
AcDbEntity
  8
GG1
 62
     1
100
AcDbVertex
100
AcDb2dVertex
 10
2.6964
 20
-1.6614
 30
0.0
  0
VERTEX
  5
1FE
100
AcDbEntity
  8
GG1
 62
     1
100
AcDbVertex
100
AcDb2dVertex
 10
2.6916
 20
-1.6852
 30
0.0
  0
VERTEX
  5
1FF
100
AcDbEntity
  8
GG1
 62
     1
100
AcDbVertex
100
AcDb2dVertex
 10
2.6868
 20
-1.6995
 30
0.0
  0
VERTEX
  5
200
100
AcDbEntity
  8
GG1
 62
     1
100
AcDbVertex
100
AcDb2dVertex
 10
2.6773
 20
-1.7185
 30
0.0
  0
SEQEND
  5
201
100
AcDbEntity
  8
GG1
 62
     1
  0
POLYLINE
  5
202
100
AcDbEntity
  8
GG1
 62
     1
100
AcDb2dPolyline
 66
     1
 10
0.0
 20
0.0
 30
0.0
  0
VERTEX
  5
203
100
AcDbEntity
  8
GG1
 62
     1
100
AcDbVertex
100
AcDb2dVertex
 10
0.0583
 20
-1.3948
 30
0.0
  0
VERTEX
  5
204
100
AcDbEntity
  8
GG1
 62
     1
100
AcDbVertex
100
AcDb2dVertex
 10
0.0583
 20
-1.4947
 30
0.0
  0
SEQEND
  5
205
100
AcDbEntity
  8
GG1
 62
     1
  0
POLYLINE
  5
206
100
AcDbEntity
  8
GG1
 62
     1
100
AcDb2dPolyline
 66
     1
 10
0.0
 20
0.0
 30
0.0
  0
VERTEX
  5
207
100
AcDbEntity
  8
GG1
 62
     1
100
AcDbVertex
100
AcDb2dVertex
 10
0.025
 20
-1.3948
 30
0.0
  0
VERTEX
  5
208
100
AcDbEntity
  8
GG1
 62
     1
100
AcDbVertex
100
AcDb2dVertex
 10
0.0917
 20
-1.3948
 30
0.0
  0
SEQEND
  5
209
100
AcDbEntity
  8
GG1
 62
     1
  0
POLYLINE
  5
20A
100
AcDbEntity
  8
GG1
 62
     1
100
AcDb2dPolyline
 66
     1
 10
0.0
 20
0.0
 30
0.0
  0
VERTEX
  5
20B
100
AcDbEntity
  8
GG1
 62
     1
100
AcDbVertex
100
AcDb2dVertex
 10
0.1274
 20
-1.4281
 30
0.0
  0
VERTEX
  5
20C
100
AcDbEntity
  8
GG1
 62
     1
100
AcDbVertex
100
AcDb2dVertex
 10
0.1178
 20
-1.4328
 30
0.0
  0
VERTEX
  5
20D
100
AcDbEntity
  8
GG1
 62
     1
100
AcDbVertex
100
AcDb2dVertex
 10
0.1083
 20
-1.4424
 30
0.0
  0
VERTEX
  5
20E
100
AcDbEntity
  8
GG1
 62
     1
100
AcDbVertex
100
AcDb2dVertex
 10
0.1036
 20
-1.4567
 30
0.0
  0
VERTEX
  5
20F
100
AcDbEntity
  8
GG1
 62
     1
100
AcDbVertex
100
AcDb2dVertex
 10
0.1036
 20
-1.4662
 30
0.0
  0
VERTEX
  5
210
100
AcDbEntity
  8
GG1
 62
     1
100
AcDbVertex
100
AcDb2dVertex
 10
0.1083
 20
-1.4805
 30
0.0
  0
VERTEX
  5
211
100
AcDbEntity
  8
GG1
 62
     1
100
AcDbVertex
100
AcDb2dVertex
 10
0.1178
 20
-1.49
 30
0.0
  0
VERTEX
  5
212
100
AcDbEntity
  8
GG1
 62
     1
100
AcDbVertex
100
AcDb2dVertex
 10
0.1274
 20
-1.4947
 30
0.0
  0
VERTEX
  5
213
100
AcDbEntity
  8
GG1
 62
     1
100
AcDbVertex
100
AcDb2dVertex
 10
0.1416
 20
-1.4947
 30
0.0
  0
VERTEX
  5
214
100
AcDbEntity
  8
GG1
 62
     1
100
AcDbVertex
100
AcDb2dVertex
 10
0.1512
 20
-1.49
 30
0.0
  0
VERTEX
  5
215
100
AcDbEntity
  8
GG1
 62
     1
100
AcDbVertex
100
AcDb2dVertex
 10
0.1607
 20
-1.4805
 30
0.0
  0
VERTEX
  5
216
100
AcDbEntity
  8
GG1
 62
     1
100
AcDbVertex
100
AcDb2dVertex
 10
0.1654
 20
-1.4662
 30
0.0
  0
VERTEX
  5
217
100
AcDbEntity
  8
GG1
 62
     1
100
AcDbVertex
100
AcDb2dVertex
 10
0.1654
 20
-1.4567
 30
0.0
  0
VERTEX
  5
218
100
AcDbEntity
  8
GG1
 62
     1
100
AcDbVertex
100
AcDb2dVertex
 10
0.1607
 20
-1.4424
 30
0.0
  0
VERTEX
  5
219
100
AcDbEntity
  8
GG1
 62
     1
100
AcDbVertex
100
AcDb2dVertex
 10
0.1512
 20
-1.4328
 30
0.0
  0
VERTEX
  5
21A
100
AcDbEntity
  8
GG1
 62
     1
100
AcDbVertex
100
AcDb2dVertex
 10
0.1416
 20
-1.4281
 30
0.0
  0
VERTEX
  5
21B
100
AcDbEntity
  8
GG1
 62
     1
100
AcDbVertex
100
AcDb2dVertex
 10
0.1274
 20
-1.4281
 30
0.0
  0
SEQEND
  5
21C
100
AcDbEntity
  8
GG1
 62
     1
  0
POLYLINE
  5
21D
100
AcDbEntity
  8
GG1
 62
     1
100
AcDb2dPolyline
 66
     1
 10
0.0
 20
0.0
 30
0.0
  0
VERTEX
  5
21E
100
AcDbEntity
  8
GG1
 62
     1
100
AcDbVertex
100
AcDb2dVertex
 10
0.1873
 20
-1.3948
 30
0.0
  0
VERTEX
  5
21F
100
AcDbEntity
  8
GG1
 62
     1
100
AcDbVertex
100
AcDb2dVertex
 10
0.1873
 20
-1.4947
 30
0.0
  0
SEQEND
  5
220
100
AcDbEntity
  8
GG1
 62
     1
  0
POLYLINE
  5
221
100
AcDbEntity
  8
GG1
 62
     1
100
AcDb2dPolyline
 66
     1
 10
0.0
 20
0.0
 30
0.0
  0
VERTEX
  5
222
100
AcDbEntity
  8
GG1
 62
     1
100
AcDbVertex
100
AcDb2dVertex
 10
0.2083
 20
-1.4567
 30
0.0
  0
VERTEX
  5
223
100
AcDbEntity
  8
GG1
 62
     1
100
AcDbVertex
100
AcDb2dVertex
 10
0.2654
 20
-1.4567
 30
0.0
  0
VERTEX
  5
224
100
AcDbEntity
  8
GG1
 62
     1
100
AcDbVertex
100
AcDb2dVertex
 10
0.2654
 20
-1.4471
 30
0.0
  0
VERTEX
  5
225
100
AcDbEntity
  8
GG1
 62
     1
100
AcDbVertex
100
AcDb2dVertex
 10
0.2607
 20
-1.4376
 30
0.0
  0
VERTEX
  5
226
100
AcDbEntity
  8
GG1
 62
     1
100
AcDbVertex
100
AcDb2dVertex
 10
0.2559
 20
-1.4328
 30
0.0
  0
VERTEX
  5
227
100
AcDbEntity
  8
GG1
 62
     1
100
AcDbVertex
100
AcDb2dVertex
 10
0.2464
 20
-1.4281
 30
0.0
  0
VERTEX
  5
228
100
AcDbEntity
  8
GG1
 62
     1
100
AcDbVertex
100
AcDb2dVertex
 10
0.2321
 20
-1.4281
 30
0.0
  0
VERTEX
  5
229
100
AcDbEntity
  8
GG1
 62
     1
100
AcDbVertex
100
AcDb2dVertex
 10
0.2226
 20
-1.4328
 30
0.0
  0
VERTEX
  5
22A
100
AcDbEntity
  8
GG1
 62
     1
100
AcDbVertex
100
AcDb2dVertex
 10
0.2131
 20
-1.4424
 30
0.0
  0
VERTEX
  5
22B
100
AcDbEntity
  8
GG1
 62
     1
100
AcDbVertex
100
AcDb2dVertex
 10
0.2083
 20
-1.4567
 30
0.0
  0
VERTEX
  5
22C
100
AcDbEntity
  8
GG1
 62
     1
100
AcDbVertex
100
AcDb2dVertex
 10
0.2083
 20
-1.4662
 30
0.0
  0
VERTEX
  5
22D
100
AcDbEntity
  8
GG1
 62
     1
100
AcDbVertex
100
AcDb2dVertex
 10
0.2131
 20
-1.4805
 30
0.0
  0
VERTEX
  5
22E
100
AcDbEntity
  8
GG1
 62
     1
100
AcDbVertex
100
AcDb2dVertex
 10
0.2226
 20
-1.49
 30
0.0
  0
VERTEX
  5
22F
100
AcDbEntity
  8
GG1
 62
     1
100
AcDbVertex
100
AcDb2dVertex
 10
0.2321
 20
-1.4947
 30
0.0
  0
VERTEX
  5
230
100
AcDbEntity
  8
GG1
 62
     1
100
AcDbVertex
100
AcDb2dVertex
 10
0.2464
 20
-1.4947
 30
0.0
  0
VERTEX
  5
231
100
AcDbEntity
  8
GG1
 62
     1
100
AcDbVertex
100
AcDb2dVertex
 10
0.2559
 20
-1.49
 30
0.0
  0
VERTEX
  5
232
100
AcDbEntity
  8
GG1
 62
     1
100
AcDbVertex
100
AcDb2dVertex
 10
0.2654
 20
-1.4805
 30
0.0
  0
SEQEND
  5
233
100
AcDbEntity
  8
GG1
 62
     1
  0
POLYLINE
  5
234
100
AcDbEntity
  8
GG1
 62
     1
100
AcDb2dPolyline
 66
     1
 10
0.0
 20
0.0
 30
0.0
  0
VERTEX
  5
235
100
AcDbEntity
  8
GG1
 62
     1
100
AcDbVertex
100
AcDb2dVertex
 10
0.2868
 20
-1.4281
 30
0.0
  0
VERTEX
  5
236
100
AcDbEntity
  8
GG1
 62
     1
100
AcDbVertex
100
AcDb2dVertex
 10
0.2868
 20
-1.4947
 30
0.0
  0
SEQEND
  5
237
100
AcDbEntity
  8
GG1
 62
     1
  0
POLYLINE
  5
238
100
AcDbEntity
  8
GG1
 62
     1
100
AcDb2dPolyline
 66
     1
 10
0.0
 20
0.0
 30
0.0
  0
VERTEX
  5
239
100
AcDbEntity
  8
GG1
 62
     1
100
AcDbVertex
100
AcDb2dVertex
 10
0.2868
 20
-1.4567
 30
0.0
  0
VERTEX
  5
23A
100
AcDbEntity
  8
GG1
 62
     1
100
AcDbVertex
100
AcDb2dVertex
 10
0.2916
 20
-1.4424
 30
0.0
  0
VERTEX
  5
23B
100
AcDbEntity
  8
GG1
 62
     1
100
AcDbVertex
100
AcDb2dVertex
 10
0.3011
 20
-1.4328
 30
0.0
  0
VERTEX
  5
23C
100
AcDbEntity
  8
GG1
 62
     1
100
AcDbVertex
100
AcDb2dVertex
 10
0.3107
 20
-1.4281
 30
0.0
  0
VERTEX
  5
23D
100
AcDbEntity
  8
GG1
 62
     1
100
AcDbVertex
100
AcDb2dVertex
 10
0.3249
 20
-1.4281
 30
0.0
  0
SEQEND
  5
23E
100
AcDbEntity
  8
GG1
 62
     1
  0
POLYLINE
  5
23F
100
AcDbEntity
  8
GG1
 62
     1
100
AcDb2dPolyline
 66
     1
 10
0.0
 20
0.0
 30
0.0
  0
VERTEX
  5
240
100
AcDbEntity
  8
GG1
 62
     1
100
AcDbVertex
100
AcDb2dVertex
 10
0.3911
 20
-1.4281
 30
0.0
  0
VERTEX
  5
241
100
AcDbEntity
  8
GG1
 62
     1
100
AcDbVertex
100
AcDb2dVertex
 10
0.3911
 20
-1.4947
 30
0.0
  0
SEQEND
  5
242
100
AcDbEntity
  8
GG1
 62
     1
  0
POLYLINE
  5
243
100
AcDbEntity
  8
GG1
 62
     1
100
AcDb2dPolyline
 66
     1
 10
0.0
 20
0.0
 30
0.0
  0
VERTEX
  5
244
100
AcDbEntity
  8
GG1
 62
     1
100
AcDbVertex
100
AcDb2dVertex
 10
0.3911
 20
-1.4424
 30
0.0
  0
VERTEX
  5
245
100
AcDbEntity
  8
GG1
 62
     1
100
AcDbVertex
100
AcDb2dVertex
 10
0.3816
 20
-1.4328
 30
0.0
  0
VERTEX
  5
246
100
AcDbEntity
  8
GG1
 62
     1
100
AcDbVertex
100
AcDb2dVertex
 10
0.3721
 20
-1.4281
 30
0.0
  0
VERTEX
  5
247
100
AcDbEntity
  8
GG1
 62
     1
100
AcDbVertex
100
AcDb2dVertex
 10
0.3578
 20
-1.4281
 30
0.0
  0
VERTEX
  5
248
100
AcDbEntity
  8
GG1
 62
     1
100
AcDbVertex
100
AcDb2dVertex
 10
0.3483
 20
-1.4328
 30
0.0
  0
VERTEX
  5
249
100
AcDbEntity
  8
GG1
 62
     1
100
AcDbVertex
100
AcDb2dVertex
 10
0.3387
 20
-1.4424
 30
0.0
  0
VERTEX
  5
24A
100
AcDbEntity
  8
GG1
 62
     1
100
AcDbVertex
100
AcDb2dVertex
 10
0.334
 20
-1.4567
 30
0.0
  0
VERTEX
  5
24B
100
AcDbEntity
  8
GG1
 62
     1
100
AcDbVertex
100
AcDb2dVertex
 10
0.334
 20
-1.4662
 30
0.0
  0
VERTEX
  5
24C
100
AcDbEntity
  8
GG1
 62
     1
100
AcDbVertex
100
AcDb2dVertex
 10
0.3387
 20
-1.4805
 30
0.0
  0
VERTEX
  5
24D
100
AcDbEntity
  8
GG1
 62
     1
100
AcDbVertex
100
AcDb2dVertex
 10
0.3483
 20
-1.49
 30
0.0
  0
VERTEX
  5
24E
100
AcDbEntity
  8
GG1
 62
     1
100
AcDbVertex
100
AcDb2dVertex
 10
0.3578
 20
-1.4947
 30
0.0
  0
VERTEX
  5
24F
100
AcDbEntity
  8
GG1
 62
     1
100
AcDbVertex
100
AcDb2dVertex
 10
0.3721
 20
-1.4947
 30
0.0
  0
VERTEX
  5
250
100
AcDbEntity
  8
GG1
 62
     1
100
AcDbVertex
100
AcDb2dVertex
 10
0.3816
 20
-1.49
 30
0.0
  0
VERTEX
  5
251
100
AcDbEntity
  8
GG1
 62
     1
100
AcDbVertex
100
AcDb2dVertex
 10
0.3911
 20
-1.4805
 30
0.0
  0
SEQEND
  5
252
100
AcDbEntity
  8
GG1
 62
     1
  0
POLYLINE
  5
253
100
AcDbEntity
  8
GG1
 62
     1
100
AcDb2dPolyline
 66
     1
 10
0.0
 20
0.0
 30
0.0
  0
VERTEX
  5
254
100
AcDbEntity
  8
GG1
 62
     1
100
AcDbVertex
100
AcDb2dVertex
 10
0.4178
 20
-1.4281
 30
0.0
  0
VERTEX
  5
255
100
AcDbEntity
  8
GG1
 62
     1
100
AcDbVertex
100
AcDb2dVertex
 10
0.4178
 20
-1.4947
 30
0.0
  0
SEQEND
  5
256
100
AcDbEntity
  8
GG1
 62
     1
  0
POLYLINE
  5
257
100
AcDbEntity
  8
GG1
 62
     1
100
AcDb2dPolyline
 66
     1
 10
0.0
 20
0.0
 30
0.0
  0
VERTEX
  5
258
100
AcDbEntity
  8
GG1
 62
     1
100
AcDbVertex
100
AcDb2dVertex
 10
0.4178
 20
-1.4471
 30
0.0
  0
VERTEX
  5
259
100
AcDbEntity
  8
GG1
 62
     1
100
AcDbVertex
100
AcDb2dVertex
 10
0.4321
 20
-1.4328
 30
0.0
  0
VERTEX
  5
25A
100
AcDbEntity
  8
GG1
 62
     1
100
AcDbVertex
100
AcDb2dVertex
 10
0.4416
 20
-1.4281
 30
0.0
  0
VERTEX
  5
25B
100
AcDbEntity
  8
GG1
 62
     1
100
AcDbVertex
100
AcDb2dVertex
 10
0.4559
 20
-1.4281
 30
0.0
  0
VERTEX
  5
25C
100
AcDbEntity
  8
GG1
 62
     1
100
AcDbVertex
100
AcDb2dVertex
 10
0.4654
 20
-1.4328
 30
0.0
  0
VERTEX
  5
25D
100
AcDbEntity
  8
GG1
 62
     1
100
AcDbVertex
100
AcDb2dVertex
 10
0.4701
 20
-1.4471
 30
0.0
  0
VERTEX
  5
25E
100
AcDbEntity
  8
GG1
 62
     1
100
AcDbVertex
100
AcDb2dVertex
 10
0.4701
 20
-1.4947
 30
0.0
  0
SEQEND
  5
25F
100
AcDbEntity
  8
GG1
 62
     1
  0
POLYLINE
  5
260
100
AcDbEntity
  8
GG1
 62
     1
100
AcDb2dPolyline
 66
     1
 10
0.0
 20
0.0
 30
0.0
  0
VERTEX
  5
261
100
AcDbEntity
  8
GG1
 62
     1
100
AcDbVertex
100
AcDb2dVertex
 10
0.5535
 20
-1.4424
 30
0.0
  0
VERTEX
  5
262
100
AcDbEntity
  8
GG1
 62
     1
100
AcDbVertex
100
AcDb2dVertex
 10
0.5439
 20
-1.4328
 30
0.0
  0
VERTEX
  5
263
100
AcDbEntity
  8
GG1
 62
     1
100
AcDbVertex
100
AcDb2dVertex
 10
0.5344
 20
-1.4281
 30
0.0
  0
VERTEX
  5
264
100
AcDbEntity
  8
GG1
 62
     1
100
AcDbVertex
100
AcDb2dVertex
 10
0.5201
 20
-1.4281
 30
0.0
  0
VERTEX
  5
265
100
AcDbEntity
  8
GG1
 62
     1
100
AcDbVertex
100
AcDb2dVertex
 10
0.5106
 20
-1.4328
 30
0.0
  0
VERTEX
  5
266
100
AcDbEntity
  8
GG1
 62
     1
100
AcDbVertex
100
AcDb2dVertex
 10
0.5011
 20
-1.4424
 30
0.0
  0
VERTEX
  5
267
100
AcDbEntity
  8
GG1
 62
     1
100
AcDbVertex
100
AcDb2dVertex
 10
0.4963
 20
-1.4567
 30
0.0
  0
VERTEX
  5
268
100
AcDbEntity
  8
GG1
 62
     1
100
AcDbVertex
100
AcDb2dVertex
 10
0.4963
 20
-1.4662
 30
0.0
  0
VERTEX
  5
269
100
AcDbEntity
  8
GG1
 62
     1
100
AcDbVertex
100
AcDb2dVertex
 10
0.5011
 20
-1.4805
 30
0.0
  0
VERTEX
  5
26A
100
AcDbEntity
  8
GG1
 62
     1
100
AcDbVertex
100
AcDb2dVertex
 10
0.5106
 20
-1.49
 30
0.0
  0
VERTEX
  5
26B
100
AcDbEntity
  8
GG1
 62
     1
100
AcDbVertex
100
AcDb2dVertex
 10
0.5201
 20
-1.4947
 30
0.0
  0
VERTEX
  5
26C
100
AcDbEntity
  8
GG1
 62
     1
100
AcDbVertex
100
AcDb2dVertex
 10
0.5344
 20
-1.4947
 30
0.0
  0
VERTEX
  5
26D
100
AcDbEntity
  8
GG1
 62
     1
100
AcDbVertex
100
AcDb2dVertex
 10
0.5439
 20
-1.49
 30
0.0
  0
VERTEX
  5
26E
100
AcDbEntity
  8
GG1
 62
     1
100
AcDbVertex
100
AcDb2dVertex
 10
0.5535
 20
-1.4805
 30
0.0
  0
SEQEND
  5
26F
100
AcDbEntity
  8
GG1
 62
     1
  0
POLYLINE
  5
270
100
AcDbEntity
  8
GG1
 62
     1
100
AcDb2dPolyline
 66
     1
 10
0.0
 20
0.0
 30
0.0
  0
VERTEX
  5
271
100
AcDbEntity
  8
GG1
 62
     1
100
AcDbVertex
100
AcDb2dVertex
 10
0.5749
 20
-1.4567
 30
0.0
  0
VERTEX
  5
272
100
AcDbEntity
  8
GG1
 62
     1
100
AcDbVertex
100
AcDb2dVertex
 10
0.632
 20
-1.4567
 30
0.0
  0
VERTEX
  5
273
100
AcDbEntity
  8
GG1
 62
     1
100
AcDbVertex
100
AcDb2dVertex
 10
0.632
 20
-1.4471
 30
0.0
  0
VERTEX
  5
274
100
AcDbEntity
  8
GG1
 62
     1
100
AcDbVertex
100
AcDb2dVertex
 10
0.6273
 20
-1.4376
 30
0.0
  0
VERTEX
  5
275
100
AcDbEntity
  8
GG1
 62
     1
100
AcDbVertex
100
AcDb2dVertex
 10
0.6225
 20
-1.4328
 30
0.0
  0
VERTEX
  5
276
100
AcDbEntity
  8
GG1
 62
     1
100
AcDbVertex
100
AcDb2dVertex
 10
0.613
 20
-1.4281
 30
0.0
  0
VERTEX
  5
277
100
AcDbEntity
  8
GG1
 62
     1
100
AcDbVertex
100
AcDb2dVertex
 10
0.5987
 20
-1.4281
 30
0.0
  0
VERTEX
  5
278
100
AcDbEntity
  8
GG1
 62
     1
100
AcDbVertex
100
AcDb2dVertex
 10
0.5892
 20
-1.4328
 30
0.0
  0
VERTEX
  5
279
100
AcDbEntity
  8
GG1
 62
     1
100
AcDbVertex
100
AcDb2dVertex
 10
0.5796
 20
-1.4424
 30
0.0
  0
VERTEX
  5
27A
100
AcDbEntity
  8
GG1
 62
     1
100
AcDbVertex
100
AcDb2dVertex
 10
0.5749
 20
-1.4567
 30
0.0
  0
VERTEX
  5
27B
100
AcDbEntity
  8
GG1
 62
     1
100
AcDbVertex
100
AcDb2dVertex
 10
0.5749
 20
-1.4662
 30
0.0
  0
VERTEX
  5
27C
100
AcDbEntity
  8
GG1
 62
     1
100
AcDbVertex
100
AcDb2dVertex
 10
0.5796
 20
-1.4805
 30
0.0
  0
VERTEX
  5
27D
100
AcDbEntity
  8
GG1
 62
     1
100
AcDbVertex
100
AcDb2dVertex
 10
0.5892
 20
-1.49
 30
0.0
  0
VERTEX
  5
27E
100
AcDbEntity
  8
GG1
 62
     1
100
AcDbVertex
100
AcDb2dVertex
 10
0.5987
 20
-1.4947
 30
0.0
  0
VERTEX
  5
27F
100
AcDbEntity
  8
GG1
 62
     1
100
AcDbVertex
100
AcDb2dVertex
 10
0.613
 20
-1.4947
 30
0.0
  0
VERTEX
  5
280
100
AcDbEntity
  8
GG1
 62
     1
100
AcDbVertex
100
AcDb2dVertex
 10
0.6225
 20
-1.49
 30
0.0
  0
VERTEX
  5
281
100
AcDbEntity
  8
GG1
 62
     1
100
AcDbVertex
100
AcDb2dVertex
 10
0.632
 20
-1.4805
 30
0.0
  0
SEQEND
  5
282
100
AcDbEntity
  8
GG1
 62
     1
  0
POLYLINE
  5
283
100
AcDbEntity
  8
GG1
 62
     1
100
AcDb2dPolyline
 66
     1
 10
0.0
 20
0.0
 30
0.0
  0
VERTEX
  5
284
100
AcDbEntity
  8
GG1
 62
     1
100
AcDbVertex
100
AcDb2dVertex
 10
0.7844
 20
-1.4424
 30
0.0
  0
VERTEX
  5
285
100
AcDbEntity
  8
GG1
 62
     1
100
AcDbVertex
100
AcDb2dVertex
 10
0.7796
 20
-1.4328
 30
0.0
  0
VERTEX
  5
286
100
AcDbEntity
  8
GG1
 62
     1
100
AcDbVertex
100
AcDb2dVertex
 10
0.7653
 20
-1.4281
 30
0.0
  0
VERTEX
  5
287
100
AcDbEntity
  8
GG1
 62
     1
100
AcDbVertex
100
AcDb2dVertex
 10
0.751
 20
-1.4281
 30
0.0
  0
VERTEX
  5
288
100
AcDbEntity
  8
GG1
 62
     1
100
AcDbVertex
100
AcDb2dVertex
 10
0.7368
 20
-1.4328
 30
0.0
  0
VERTEX
  5
289
100
AcDbEntity
  8
GG1
 62
     1
100
AcDbVertex
100
AcDb2dVertex
 10
0.732
 20
-1.4424
 30
0.0
  0
VERTEX
  5
28A
100
AcDbEntity
  8
GG1
 62
     1
100
AcDbVertex
100
AcDb2dVertex
 10
0.7368
 20
-1.4519
 30
0.0
  0
VERTEX
  5
28B
100
AcDbEntity
  8
GG1
 62
     1
100
AcDbVertex
100
AcDb2dVertex
 10
0.7463
 20
-1.4567
 30
0.0
  0
VERTEX
  5
28C
100
AcDbEntity
  8
GG1
 62
     1
100
AcDbVertex
100
AcDb2dVertex
 10
0.7701
 20
-1.4614
 30
0.0
  0
VERTEX
  5
28D
100
AcDbEntity
  8
GG1
 62
     1
100
AcDbVertex
100
AcDb2dVertex
 10
0.7796
 20
-1.4662
 30
0.0
  0
VERTEX
  5
28E
100
AcDbEntity
  8
GG1
 62
     1
100
AcDbVertex
100
AcDb2dVertex
 10
0.7844
 20
-1.4757
 30
0.0
  0
VERTEX
  5
28F
100
AcDbEntity
  8
GG1
 62
     1
100
AcDbVertex
100
AcDb2dVertex
 10
0.7844
 20
-1.4805
 30
0.0
  0
VERTEX
  5
290
100
AcDbEntity
  8
GG1
 62
     1
100
AcDbVertex
100
AcDb2dVertex
 10
0.7796
 20
-1.49
 30
0.0
  0
VERTEX
  5
291
100
AcDbEntity
  8
GG1
 62
     1
100
AcDbVertex
100
AcDb2dVertex
 10
0.7653
 20
-1.4947
 30
0.0
  0
VERTEX
  5
292
100
AcDbEntity
  8
GG1
 62
     1
100
AcDbVertex
100
AcDb2dVertex
 10
0.751
 20
-1.4947
 30
0.0
  0
VERTEX
  5
293
100
AcDbEntity
  8
GG1
 62
     1
100
AcDbVertex
100
AcDb2dVertex
 10
0.7368
 20
-1.49
 30
0.0
  0
VERTEX
  5
294
100
AcDbEntity
  8
GG1
 62
     1
100
AcDbVertex
100
AcDb2dVertex
 10
0.732
 20
-1.4805
 30
0.0
  0
SEQEND
  5
295
100
AcDbEntity
  8
GG1
 62
     1
  0
POLYLINE
  5
296
100
AcDbEntity
  8
GG1
 62
     1
100
AcDb2dPolyline
 66
     1
 10
0.0
 20
0.0
 30
0.0
  0
VERTEX
  5
297
100
AcDbEntity
  8
GG1
 62
     1
100
AcDbVertex
100
AcDb2dVertex
 10
0.8053
 20
-1.4281
 30
0.0
  0
VERTEX
  5
298
100
AcDbEntity
  8
GG1
 62
     1
100
AcDbVertex
100
AcDb2dVertex
 10
0.8053
 20
-1.5281
 30
0.0
  0
SEQEND
  5
299
100
AcDbEntity
  8
GG1
 62
     1
  0
POLYLINE
  5
29A
100
AcDbEntity
  8
GG1
 62
     1
100
AcDb2dPolyline
 66
     1
 10
0.0
 20
0.0
 30
0.0
  0
VERTEX
  5
29B
100
AcDbEntity
  8
GG1
 62
     1
100
AcDbVertex
100
AcDb2dVertex
 10
0.8053
 20
-1.4424
 30
0.0
  0
VERTEX
  5
29C
100
AcDbEntity
  8
GG1
 62
     1
100
AcDbVertex
100
AcDb2dVertex
 10
0.8148
 20
-1.4328
 30
0.0
  0
VERTEX
  5
29D
100
AcDbEntity
  8
GG1
 62
     1
100
AcDbVertex
100
AcDb2dVertex
 10
0.8244
 20
-1.4281
 30
0.0
  0
VERTEX
  5
29E
100
AcDbEntity
  8
GG1
 62
     1
100
AcDbVertex
100
AcDb2dVertex
 10
0.8386
 20
-1.4281
 30
0.0
  0
VERTEX
  5
29F
100
AcDbEntity
  8
GG1
 62
     1
100
AcDbVertex
100
AcDb2dVertex
 10
0.8482
 20
-1.4328
 30
0.0
  0
VERTEX
  5
2A0
100
AcDbEntity
  8
GG1
 62
     1
100
AcDbVertex
100
AcDb2dVertex
 10
0.8577
 20
-1.4424
 30
0.0
  0
VERTEX
  5
2A1
100
AcDbEntity
  8
GG1
 62
     1
100
AcDbVertex
100
AcDb2dVertex
 10
0.8624
 20
-1.4567
 30
0.0
  0
VERTEX
  5
2A2
100
AcDbEntity
  8
GG1
 62
     1
100
AcDbVertex
100
AcDb2dVertex
 10
0.8624
 20
-1.4662
 30
0.0
  0
VERTEX
  5
2A3
100
AcDbEntity
  8
GG1
 62
     1
100
AcDbVertex
100
AcDb2dVertex
 10
0.8577
 20
-1.4805
 30
0.0
  0
VERTEX
  5
2A4
100
AcDbEntity
  8
GG1
 62
     1
100
AcDbVertex
100
AcDb2dVertex
 10
0.8482
 20
-1.49
 30
0.0
  0
VERTEX
  5
2A5
100
AcDbEntity
  8
GG1
 62
     1
100
AcDbVertex
100
AcDb2dVertex
 10
0.8386
 20
-1.4947
 30
0.0
  0
VERTEX
  5
2A6
100
AcDbEntity
  8
GG1
 62
     1
100
AcDbVertex
100
AcDb2dVertex
 10
0.8244
 20
-1.4947
 30
0.0
  0
VERTEX
  5
2A7
100
AcDbEntity
  8
GG1
 62
     1
100
AcDbVertex
100
AcDb2dVertex
 10
0.8148
 20
-1.49
 30
0.0
  0
VERTEX
  5
2A8
100
AcDbEntity
  8
GG1
 62
     1
100
AcDbVertex
100
AcDb2dVertex
 10
0.8053
 20
-1.4805
 30
0.0
  0
SEQEND
  5
2A9
100
AcDbEntity
  8
GG1
 62
     1
  0
POLYLINE
  5
2AA
100
AcDbEntity
  8
GG1
 62
     1
100
AcDb2dPolyline
 66
     1
 10
0.0
 20
0.0
 30
0.0
  0
VERTEX
  5
2AB
100
AcDbEntity
  8
GG1
 62
     1
100
AcDbVertex
100
AcDb2dVertex
 10
0.8839
 20
-1.4567
 30
0.0
  0
VERTEX
  5
2AC
100
AcDbEntity
  8
GG1
 62
     1
100
AcDbVertex
100
AcDb2dVertex
 10
0.941
 20
-1.4567
 30
0.0
  0
VERTEX
  5
2AD
100
AcDbEntity
  8
GG1
 62
     1
100
AcDbVertex
100
AcDb2dVertex
 10
0.941
 20
-1.4471
 30
0.0
  0
VERTEX
  5
2AE
100
AcDbEntity
  8
GG1
 62
     1
100
AcDbVertex
100
AcDb2dVertex
 10
0.9362
 20
-1.4376
 30
0.0
  0
VERTEX
  5
2AF
100
AcDbEntity
  8
GG1
 62
     1
100
AcDbVertex
100
AcDb2dVertex
 10
0.9315
 20
-1.4328
 30
0.0
  0
VERTEX
  5
2B0
100
AcDbEntity
  8
GG1
 62
     1
100
AcDbVertex
100
AcDb2dVertex
 10
0.922
 20
-1.4281
 30
0.0
  0
VERTEX
  5
2B1
100
AcDbEntity
  8
GG1
 62
     1
100
AcDbVertex
100
AcDb2dVertex
 10
0.9077
 20
-1.4281
 30
0.0
  0
VERTEX
  5
2B2
100
AcDbEntity
  8
GG1
 62
     1
100
AcDbVertex
100
AcDb2dVertex
 10
0.8981
 20
-1.4328
 30
0.0
  0
VERTEX
  5
2B3
100
AcDbEntity
  8
GG1
 62
     1
100
AcDbVertex
100
AcDb2dVertex
 10
0.8886
 20
-1.4424
 30
0.0
  0
VERTEX
  5
2B4
100
AcDbEntity
  8
GG1
 62
     1
100
AcDbVertex
100
AcDb2dVertex
 10
0.8839
 20
-1.4567
 30
0.0
  0
VERTEX
  5
2B5
100
AcDbEntity
  8
GG1
 62
     1
100
AcDbVertex
100
AcDb2dVertex
 10
0.8839
 20
-1.4662
 30
0.0
  0
VERTEX
  5
2B6
100
AcDbEntity
  8
GG1
 62
     1
100
AcDbVertex
100
AcDb2dVertex
 10
0.8886
 20
-1.4805
 30
0.0
  0
VERTEX
  5
2B7
100
AcDbEntity
  8
GG1
 62
     1
100
AcDbVertex
100
AcDb2dVertex
 10
0.8981
 20
-1.49
 30
0.0
  0
VERTEX
  5
2B8
100
AcDbEntity
  8
GG1
 62
     1
100
AcDbVertex
100
AcDb2dVertex
 10
0.9077
 20
-1.4947
 30
0.0
  0
VERTEX
  5
2B9
100
AcDbEntity
  8
GG1
 62
     1
100
AcDbVertex
100
AcDb2dVertex
 10
0.922
 20
-1.4947
 30
0.0
  0
VERTEX
  5
2BA
100
AcDbEntity
  8
GG1
 62
     1
100
AcDbVertex
100
AcDb2dVertex
 10
0.9315
 20
-1.49
 30
0.0
  0
VERTEX
  5
2BB
100
AcDbEntity
  8
GG1
 62
     1
100
AcDbVertex
100
AcDb2dVertex
 10
0.941
 20
-1.4805
 30
0.0
  0
SEQEND
  5
2BC
100
AcDbEntity
  8
GG1
 62
     1
  0
POLYLINE
  5
2BD
100
AcDbEntity
  8
GG1
 62
     1
100
AcDb2dPolyline
 66
     1
 10
0.0
 20
0.0
 30
0.0
  0
VERTEX
  5
2BE
100
AcDbEntity
  8
GG1
 62
     1
100
AcDbVertex
100
AcDb2dVertex
 10
1.0195
 20
-1.4424
 30
0.0
  0
VERTEX
  5
2BF
100
AcDbEntity
  8
GG1
 62
     1
100
AcDbVertex
100
AcDb2dVertex
 10
1.01
 20
-1.4328
 30
0.0
  0
VERTEX
  5
2C0
100
AcDbEntity
  8
GG1
 62
     1
100
AcDbVertex
100
AcDb2dVertex
 10
1.0005
 20
-1.4281
 30
0.0
  0
VERTEX
  5
2C1
100
AcDbEntity
  8
GG1
 62
     1
100
AcDbVertex
100
AcDb2dVertex
 10
0.9862
 20
-1.4281
 30
0.0
  0
VERTEX
  5
2C2
100
AcDbEntity
  8
GG1
 62
     1
100
AcDbVertex
100
AcDb2dVertex
 10
0.9767
 20
-1.4328
 30
0.0
  0
VERTEX
  5
2C3
100
AcDbEntity
  8
GG1
 62
     1
100
AcDbVertex
100
AcDb2dVertex
 10
0.9672
 20
-1.4424
 30
0.0
  0
VERTEX
  5
2C4
100
AcDbEntity
  8
GG1
 62
     1
100
AcDbVertex
100
AcDb2dVertex
 10
0.9624
 20
-1.4567
 30
0.0
  0
VERTEX
  5
2C5
100
AcDbEntity
  8
GG1
 62
     1
100
AcDbVertex
100
AcDb2dVertex
 10
0.9624
 20
-1.4662
 30
0.0
  0
VERTEX
  5
2C6
100
AcDbEntity
  8
GG1
 62
     1
100
AcDbVertex
100
AcDb2dVertex
 10
0.9672
 20
-1.4805
 30
0.0
  0
VERTEX
  5
2C7
100
AcDbEntity
  8
GG1
 62
     1
100
AcDbVertex
100
AcDb2dVertex
 10
0.9767
 20
-1.49
 30
0.0
  0
VERTEX
  5
2C8
100
AcDbEntity
  8
GG1
 62
     1
100
AcDbVertex
100
AcDb2dVertex
 10
0.9862
 20
-1.4947
 30
0.0
  0
VERTEX
  5
2C9
100
AcDbEntity
  8
GG1
 62
     1
100
AcDbVertex
100
AcDb2dVertex
 10
1.0005
 20
-1.4947
 30
0.0
  0
VERTEX
  5
2CA
100
AcDbEntity
  8
GG1
 62
     1
100
AcDbVertex
100
AcDb2dVertex
 10
1.01
 20
-1.49
 30
0.0
  0
VERTEX
  5
2CB
100
AcDbEntity
  8
GG1
 62
     1
100
AcDbVertex
100
AcDb2dVertex
 10
1.0195
 20
-1.4805
 30
0.0
  0
SEQEND
  5
2CC
100
AcDbEntity
  8
GG1
 62
     1
  0
POLYLINE
  5
2CD
100
AcDbEntity
  8
GG1
 62
     1
100
AcDb2dPolyline
 66
     1
 10
0.0
 20
0.0
 30
0.0
  0
VERTEX
  5
2CE
100
AcDbEntity
  8
GG1
 62
     1
100
AcDbVertex
100
AcDb2dVertex
 10
1.0505
 20
-1.3948
 30
0.0
  0
VERTEX
  5
2CF
100
AcDbEntity
  8
GG1
 62
     1
100
AcDbVertex
100
AcDb2dVertex
 10
1.0553
 20
-1.3995
 30
0.0
  0
VERTEX
  5
2D0
100
AcDbEntity
  8
GG1
 62
     1
100
AcDbVertex
100
AcDb2dVertex
 10
1.06
 20
-1.3948
 30
0.0
  0
VERTEX
  5
2D1
100
AcDbEntity
  8
GG1
 62
     1
100
AcDbVertex
100
AcDb2dVertex
 10
1.0553
 20
-1.39
 30
0.0
  0
VERTEX
  5
2D2
100
AcDbEntity
  8
GG1
 62
     1
100
AcDbVertex
100
AcDb2dVertex
 10
1.0505
 20
-1.3948
 30
0.0
  0
SEQEND
  5
2D3
100
AcDbEntity
  8
GG1
 62
     1
  0
POLYLINE
  5
2D4
100
AcDbEntity
  8
GG1
 62
     1
100
AcDb2dPolyline
 66
     1
 10
0.0
 20
0.0
 30
0.0
  0
VERTEX
  5
2D5
100
AcDbEntity
  8
GG1
 62
     1
100
AcDbVertex
100
AcDb2dVertex
 10
1.0553
 20
-1.4281
 30
0.0
  0
VERTEX
  5
2D6
100
AcDbEntity
  8
GG1
 62
     1
100
AcDbVertex
100
AcDb2dVertex
 10
1.0553
 20
-1.4947
 30
0.0
  0
SEQEND
  5
2D7
100
AcDbEntity
  8
GG1
 62
     1
  0
POLYLINE
  5
2D8
100
AcDbEntity
  8
GG1
 62
     1
100
AcDb2dPolyline
 66
     1
 10
0.0
 20
0.0
 30
0.0
  0
VERTEX
  5
2D9
100
AcDbEntity
  8
GG1
 62
     1
100
AcDbVertex
100
AcDb2dVertex
 10
1.1157
 20
-1.3948
 30
0.0
  0
VERTEX
  5
2DA
100
AcDbEntity
  8
GG1
 62
     1
100
AcDbVertex
100
AcDb2dVertex
 10
1.1062
 20
-1.3948
 30
0.0
  0
VERTEX
  5
2DB
100
AcDbEntity
  8
GG1
 62
     1
100
AcDbVertex
100
AcDb2dVertex
 10
1.0967
 20
-1.3995
 30
0.0
  0
VERTEX
  5
2DC
100
AcDbEntity
  8
GG1
 62
     1
100
AcDbVertex
100
AcDb2dVertex
 10
1.0919
 20
-1.4138
 30
0.0
  0
VERTEX
  5
2DD
100
AcDbEntity
  8
GG1
 62
     1
100
AcDbVertex
100
AcDb2dVertex
 10
1.0919
 20
-1.4947
 30
0.0
  0
SEQEND
  5
2DE
100
AcDbEntity
  8
GG1
 62
     1
  0
POLYLINE
  5
2DF
100
AcDbEntity
  8
GG1
 62
     1
100
AcDb2dPolyline
 66
     1
 10
0.0
 20
0.0
 30
0.0
  0
VERTEX
  5
2E0
100
AcDbEntity
  8
GG1
 62
     1
100
AcDbVertex
100
AcDb2dVertex
 10
1.0776
 20
-1.4281
 30
0.0
  0
VERTEX
  5
2E1
100
AcDbEntity
  8
GG1
 62
     1
100
AcDbVertex
100
AcDb2dVertex
 10
1.111
 20
-1.4281
 30
0.0
  0
SEQEND
  5
2E2
100
AcDbEntity
  8
GG1
 62
     1
  0
POLYLINE
  5
2E3
100
AcDbEntity
  8
GG1
 62
     1
100
AcDb2dPolyline
 66
     1
 10
0.0
 20
0.0
 30
0.0
  0
VERTEX
  5
2E4
100
AcDbEntity
  8
GG1
 62
     1
100
AcDbVertex
100
AcDb2dVertex
 10
1.1395
 20
-1.3948
 30
0.0
  0
VERTEX
  5
2E5
100
AcDbEntity
  8
GG1
 62
     1
100
AcDbVertex
100
AcDb2dVertex
 10
1.1443
 20
-1.3995
 30
0.0
  0
VERTEX
  5
2E6
100
AcDbEntity
  8
GG1
 62
     1
100
AcDbVertex
100
AcDb2dVertex
 10
1.149
 20
-1.3948
 30
0.0
  0
VERTEX
  5
2E7
100
AcDbEntity
  8
GG1
 62
     1
100
AcDbVertex
100
AcDb2dVertex
 10
1.1443
 20
-1.39
 30
0.0
  0
VERTEX
  5
2E8
100
AcDbEntity
  8
GG1
 62
     1
100
AcDbVertex
100
AcDb2dVertex
 10
1.1395
 20
-1.3948
 30
0.0
  0
SEQEND
  5
2E9
100
AcDbEntity
  8
GG1
 62
     1
  0
POLYLINE
  5
2EA
100
AcDbEntity
  8
GG1
 62
     1
100
AcDb2dPolyline
 66
     1
 10
0.0
 20
0.0
 30
0.0
  0
VERTEX
  5
2EB
100
AcDbEntity
  8
GG1
 62
     1
100
AcDbVertex
100
AcDb2dVertex
 10
1.1443
 20
-1.4281
 30
0.0
  0
VERTEX
  5
2EC
100
AcDbEntity
  8
GG1
 62
     1
100
AcDbVertex
100
AcDb2dVertex
 10
1.1443
 20
-1.4947
 30
0.0
  0
SEQEND
  5
2ED
100
AcDbEntity
  8
GG1
 62
     1
  0
POLYLINE
  5
2EE
100
AcDbEntity
  8
GG1
 62
     1
100
AcDb2dPolyline
 66
     1
 10
0.0
 20
0.0
 30
0.0
  0
VERTEX
  5
2EF
100
AcDbEntity
  8
GG1
 62
     1
100
AcDbVertex
100
AcDb2dVertex
 10
1.2238
 20
-1.4424
 30
0.0
  0
VERTEX
  5
2F0
100
AcDbEntity
  8
GG1
 62
     1
100
AcDbVertex
100
AcDb2dVertex
 10
1.2143
 20
-1.4328
 30
0.0
  0
VERTEX
  5
2F1
100
AcDbEntity
  8
GG1
 62
     1
100
AcDbVertex
100
AcDb2dVertex
 10
1.2047
 20
-1.4281
 30
0.0
  0
VERTEX
  5
2F2
100
AcDbEntity
  8
GG1
 62
     1
100
AcDbVertex
100
AcDb2dVertex
 10
1.1905
 20
-1.4281
 30
0.0
  0
VERTEX
  5
2F3
100
AcDbEntity
  8
GG1
 62
     1
100
AcDbVertex
100
AcDb2dVertex
 10
1.1809
 20
-1.4328
 30
0.0
  0
VERTEX
  5
2F4
100
AcDbEntity
  8
GG1
 62
     1
100
AcDbVertex
100
AcDb2dVertex
 10
1.1714
 20
-1.4424
 30
0.0
  0
VERTEX
  5
2F5
100
AcDbEntity
  8
GG1
 62
     1
100
AcDbVertex
100
AcDb2dVertex
 10
1.1667
 20
-1.4567
 30
0.0
  0
VERTEX
  5
2F6
100
AcDbEntity
  8
GG1
 62
     1
100
AcDbVertex
100
AcDb2dVertex
 10
1.1667
 20
-1.4662
 30
0.0
  0
VERTEX
  5
2F7
100
AcDbEntity
  8
GG1
 62
     1
100
AcDbVertex
100
AcDb2dVertex
 10
1.1714
 20
-1.4805
 30
0.0
  0
VERTEX
  5
2F8
100
AcDbEntity
  8
GG1
 62
     1
100
AcDbVertex
100
AcDb2dVertex
 10
1.1809
 20
-1.49
 30
0.0
  0
VERTEX
  5
2F9
100
AcDbEntity
  8
GG1
 62
     1
100
AcDbVertex
100
AcDb2dVertex
 10
1.1905
 20
-1.4947
 30
0.0
  0
VERTEX
  5
2FA
100
AcDbEntity
  8
GG1
 62
     1
100
AcDbVertex
100
AcDb2dVertex
 10
1.2047
 20
-1.4947
 30
0.0
  0
VERTEX
  5
2FB
100
AcDbEntity
  8
GG1
 62
     1
100
AcDbVertex
100
AcDb2dVertex
 10
1.2143
 20
-1.49
 30
0.0
  0
VERTEX
  5
2FC
100
AcDbEntity
  8
GG1
 62
     1
100
AcDbVertex
100
AcDb2dVertex
 10
1.2238
 20
-1.4805
 30
0.0
  0
SEQEND
  5
2FD
100
AcDbEntity
  8
GG1
 62
     1
  0
POLYLINE
  5
2FE
100
AcDbEntity
  8
GG1
 62
     1
100
AcDb2dPolyline
 66
     1
 10
0.0
 20
0.0
 30
0.0
  0
VERTEX
  5
2FF
100
AcDbEntity
  8
GG1
 62
     1
100
AcDbVertex
100
AcDb2dVertex
 10
1.3023
 20
-1.4281
 30
0.0
  0
VERTEX
  5
300
100
AcDbEntity
  8
GG1
 62
     1
100
AcDbVertex
100
AcDb2dVertex
 10
1.3023
 20
-1.4947
 30
0.0
  0
SEQEND
  5
301
100
AcDbEntity
  8
GG1
 62
     1
  0
POLYLINE
  5
302
100
AcDbEntity
  8
GG1
 62
     1
100
AcDb2dPolyline
 66
     1
 10
0.0
 20
0.0
 30
0.0
  0
VERTEX
  5
303
100
AcDbEntity
  8
GG1
 62
     1
100
AcDbVertex
100
AcDb2dVertex
 10
1.3023
 20
-1.4424
 30
0.0
  0
VERTEX
  5
304
100
AcDbEntity
  8
GG1
 62
     1
100
AcDbVertex
100
AcDb2dVertex
 10
1.2928
 20
-1.4328
 30
0.0
  0
VERTEX
  5
305
100
AcDbEntity
  8
GG1
 62
     1
100
AcDbVertex
100
AcDb2dVertex
 10
1.2833
 20
-1.4281
 30
0.0
  0
VERTEX
  5
306
100
AcDbEntity
  8
GG1
 62
     1
100
AcDbVertex
100
AcDb2dVertex
 10
1.269
 20
-1.4281
 30
0.0
  0
VERTEX
  5
307
100
AcDbEntity
  8
GG1
 62
     1
100
AcDbVertex
100
AcDb2dVertex
 10
1.2595
 20
-1.4328
 30
0.0
  0
VERTEX
  5
308
100
AcDbEntity
  8
GG1
 62
     1
100
AcDbVertex
100
AcDb2dVertex
 10
1.25
 20
-1.4424
 30
0.0
  0
VERTEX
  5
309
100
AcDbEntity
  8
GG1
 62
     1
100
AcDbVertex
100
AcDb2dVertex
 10
1.2452
 20
-1.4567
 30
0.0
  0
VERTEX
  5
30A
100
AcDbEntity
  8
GG1
 62
     1
100
AcDbVertex
100
AcDb2dVertex
 10
1.2452
 20
-1.4662
 30
0.0
  0
VERTEX
  5
30B
100
AcDbEntity
  8
GG1
 62
     1
100
AcDbVertex
100
AcDb2dVertex
 10
1.25
 20
-1.4805
 30
0.0
  0
VERTEX
  5
30C
100
AcDbEntity
  8
GG1
 62
     1
100
AcDbVertex
100
AcDb2dVertex
 10
1.2595
 20
-1.49
 30
0.0
  0
VERTEX
  5
30D
100
AcDbEntity
  8
GG1
 62
     1
100
AcDbVertex
100
AcDb2dVertex
 10
1.269
 20
-1.4947
 30
0.0
  0
VERTEX
  5
30E
100
AcDbEntity
  8
GG1
 62
     1
100
AcDbVertex
100
AcDb2dVertex
 10
1.2833
 20
-1.4947
 30
0.0
  0
VERTEX
  5
30F
100
AcDbEntity
  8
GG1
 62
     1
100
AcDbVertex
100
AcDb2dVertex
 10
1.2928
 20
-1.49
 30
0.0
  0
VERTEX
  5
310
100
AcDbEntity
  8
GG1
 62
     1
100
AcDbVertex
100
AcDb2dVertex
 10
1.3023
 20
-1.4805
 30
0.0
  0
SEQEND
  5
311
100
AcDbEntity
  8
GG1
 62
     1
  0
POLYLINE
  5
312
100
AcDbEntity
  8
GG1
 62
     1
100
AcDb2dPolyline
 66
     1
 10
0.0
 20
0.0
 30
0.0
  0
VERTEX
  5
313
100
AcDbEntity
  8
GG1
 62
     1
100
AcDbVertex
100
AcDb2dVertex
 10
1.3433
 20
-1.3948
 30
0.0
  0
VERTEX
  5
314
100
AcDbEntity
  8
GG1
 62
     1
100
AcDbVertex
100
AcDb2dVertex
 10
1.3433
 20
-1.4757
 30
0.0
  0
VERTEX
  5
315
100
AcDbEntity
  8
GG1
 62
     1
100
AcDbVertex
100
AcDb2dVertex
 10
1.348
 20
-1.49
 30
0.0
  0
VERTEX
  5
316
100
AcDbEntity
  8
GG1
 62
     1
100
AcDbVertex
100
AcDb2dVertex
 10
1.3576
 20
-1.4947
 30
0.0
  0
VERTEX
  5
317
100
AcDbEntity
  8
GG1
 62
     1
100
AcDbVertex
100
AcDb2dVertex
 10
1.3671
 20
-1.4947
 30
0.0
  0
SEQEND
  5
318
100
AcDbEntity
  8
GG1
 62
     1
  0
POLYLINE
  5
319
100
AcDbEntity
  8
GG1
 62
     1
100
AcDb2dPolyline
 66
     1
 10
0.0
 20
0.0
 30
0.0
  0
VERTEX
  5
31A
100
AcDbEntity
  8
GG1
 62
     1
100
AcDbVertex
100
AcDb2dVertex
 10
1.329
 20
-1.4281
 30
0.0
  0
VERTEX
  5
31B
100
AcDbEntity
  8
GG1
 62
     1
100
AcDbVertex
100
AcDb2dVertex
 10
1.3623
 20
-1.4281
 30
0.0
  0
SEQEND
  5
31C
100
AcDbEntity
  8
GG1
 62
     1
  0
POLYLINE
  5
31D
100
AcDbEntity
  8
GG1
 62
     1
100
AcDb2dPolyline
 66
     1
 10
0.0
 20
0.0
 30
0.0
  0
VERTEX
  5
31E
100
AcDbEntity
  8
GG1
 62
     1
100
AcDbVertex
100
AcDb2dVertex
 10
1.3909
 20
-1.3948
 30
0.0
  0
VERTEX
  5
31F
100
AcDbEntity
  8
GG1
 62
     1
100
AcDbVertex
100
AcDb2dVertex
 10
1.3957
 20
-1.3995
 30
0.0
  0
VERTEX
  5
320
100
AcDbEntity
  8
GG1
 62
     1
100
AcDbVertex
100
AcDb2dVertex
 10
1.4004
 20
-1.3948
 30
0.0
  0
VERTEX
  5
321
100
AcDbEntity
  8
GG1
 62
     1
100
AcDbVertex
100
AcDb2dVertex
 10
1.3957
 20
-1.39
 30
0.0
  0
VERTEX
  5
322
100
AcDbEntity
  8
GG1
 62
     1
100
AcDbVertex
100
AcDb2dVertex
 10
1.3909
 20
-1.3948
 30
0.0
  0
SEQEND
  5
323
100
AcDbEntity
  8
GG1
 62
     1
  0
POLYLINE
  5
324
100
AcDbEntity
  8
GG1
 62
     1
100
AcDb2dPolyline
 66
     1
 10
0.0
 20
0.0
 30
0.0
  0
VERTEX
  5
325
100
AcDbEntity
  8
GG1
 62
     1
100
AcDbVertex
100
AcDb2dVertex
 10
1.3957
 20
-1.4281
 30
0.0
  0
VERTEX
  5
326
100
AcDbEntity
  8
GG1
 62
     1
100
AcDbVertex
100
AcDb2dVertex
 10
1.3957
 20
-1.4947
 30
0.0
  0
SEQEND
  5
327
100
AcDbEntity
  8
GG1
 62
     1
  0
POLYLINE
  5
328
100
AcDbEntity
  8
GG1
 62
     1
100
AcDb2dPolyline
 66
     1
 10
0.0
 20
0.0
 30
0.0
  0
VERTEX
  5
329
100
AcDbEntity
  8
GG1
 62
     1
100
AcDbVertex
100
AcDb2dVertex
 10
1.4418
 20
-1.4281
 30
0.0
  0
VERTEX
  5
32A
100
AcDbEntity
  8
GG1
 62
     1
100
AcDbVertex
100
AcDb2dVertex
 10
1.4323
 20
-1.4328
 30
0.0
  0
VERTEX
  5
32B
100
AcDbEntity
  8
GG1
 62
     1
100
AcDbVertex
100
AcDb2dVertex
 10
1.4228
 20
-1.4424
 30
0.0
  0
VERTEX
  5
32C
100
AcDbEntity
  8
GG1
 62
     1
100
AcDbVertex
100
AcDb2dVertex
 10
1.418
 20
-1.4567
 30
0.0
  0
VERTEX
  5
32D
100
AcDbEntity
  8
GG1
 62
     1
100
AcDbVertex
100
AcDb2dVertex
 10
1.418
 20
-1.4662
 30
0.0
  0
VERTEX
  5
32E
100
AcDbEntity
  8
GG1
 62
     1
100
AcDbVertex
100
AcDb2dVertex
 10
1.4228
 20
-1.4805
 30
0.0
  0
VERTEX
  5
32F
100
AcDbEntity
  8
GG1
 62
     1
100
AcDbVertex
100
AcDb2dVertex
 10
1.4323
 20
-1.49
 30
0.0
  0
VERTEX
  5
330
100
AcDbEntity
  8
GG1
 62
     1
100
AcDbVertex
100
AcDb2dVertex
 10
1.4418
 20
-1.4947
 30
0.0
  0
VERTEX
  5
331
100
AcDbEntity
  8
GG1
 62
     1
100
AcDbVertex
100
AcDb2dVertex
 10
1.4561
 20
-1.4947
 30
0.0
  0
VERTEX
  5
332
100
AcDbEntity
  8
GG1
 62
     1
100
AcDbVertex
100
AcDb2dVertex
 10
1.4656
 20
-1.49
 30
0.0
  0
VERTEX
  5
333
100
AcDbEntity
  8
GG1
 62
     1
100
AcDbVertex
100
AcDb2dVertex
 10
1.4752
 20
-1.4805
 30
0.0
  0
VERTEX
  5
334
100
AcDbEntity
  8
GG1
 62
     1
100
AcDbVertex
100
AcDb2dVertex
 10
1.4799
 20
-1.4662
 30
0.0
  0
VERTEX
  5
335
100
AcDbEntity
  8
GG1
 62
     1
100
AcDbVertex
100
AcDb2dVertex
 10
1.4799
 20
-1.4567
 30
0.0
  0
VERTEX
  5
336
100
AcDbEntity
  8
GG1
 62
     1
100
AcDbVertex
100
AcDb2dVertex
 10
1.4752
 20
-1.4424
 30
0.0
  0
VERTEX
  5
337
100
AcDbEntity
  8
GG1
 62
     1
100
AcDbVertex
100
AcDb2dVertex
 10
1.4656
 20
-1.4328
 30
0.0
  0
VERTEX
  5
338
100
AcDbEntity
  8
GG1
 62
     1
100
AcDbVertex
100
AcDb2dVertex
 10
1.4561
 20
-1.4281
 30
0.0
  0
VERTEX
  5
339
100
AcDbEntity
  8
GG1
 62
     1
100
AcDbVertex
100
AcDb2dVertex
 10
1.4418
 20
-1.4281
 30
0.0
  0
SEQEND
  5
33A
100
AcDbEntity
  8
GG1
 62
     1
  0
POLYLINE
  5
33B
100
AcDbEntity
  8
GG1
 62
     1
100
AcDb2dPolyline
 66
     1
 10
0.0
 20
0.0
 30
0.0
  0
VERTEX
  5
33C
100
AcDbEntity
  8
GG1
 62
     1
100
AcDbVertex
100
AcDb2dVertex
 10
1.5018
 20
-1.4281
 30
0.0
  0
VERTEX
  5
33D
100
AcDbEntity
  8
GG1
 62
     1
100
AcDbVertex
100
AcDb2dVertex
 10
1.5018
 20
-1.4947
 30
0.0
  0
SEQEND
  5
33E
100
AcDbEntity
  8
GG1
 62
     1
  0
POLYLINE
  5
33F
100
AcDbEntity
  8
GG1
 62
     1
100
AcDb2dPolyline
 66
     1
 10
0.0
 20
0.0
 30
0.0
  0
VERTEX
  5
340
100
AcDbEntity
  8
GG1
 62
     1
100
AcDbVertex
100
AcDb2dVertex
 10
1.5018
 20
-1.4471
 30
0.0
  0
VERTEX
  5
341
100
AcDbEntity
  8
GG1
 62
     1
100
AcDbVertex
100
AcDb2dVertex
 10
1.5161
 20
-1.4328
 30
0.0
  0
VERTEX
  5
342
100
AcDbEntity
  8
GG1
 62
     1
100
AcDbVertex
100
AcDb2dVertex
 10
1.5256
 20
-1.4281
 30
0.0
  0
VERTEX
  5
343
100
AcDbEntity
  8
GG1
 62
     1
100
AcDbVertex
100
AcDb2dVertex
 10
1.5399
 20
-1.4281
 30
0.0
  0
VERTEX
  5
344
100
AcDbEntity
  8
GG1
 62
     1
100
AcDbVertex
100
AcDb2dVertex
 10
1.5494
 20
-1.4328
 30
0.0
  0
VERTEX
  5
345
100
AcDbEntity
  8
GG1
 62
     1
100
AcDbVertex
100
AcDb2dVertex
 10
1.5542
 20
-1.4471
 30
0.0
  0
VERTEX
  5
346
100
AcDbEntity
  8
GG1
 62
     1
100
AcDbVertex
100
AcDb2dVertex
 10
1.5542
 20
-1.4947
 30
0.0
  0
SEQEND
  5
347
100
AcDbEntity
  8
GG1
 62
     1
  0
POLYLINE
  5
348
100
AcDbEntity
  8
GG1
 62
     1
100
AcDb2dPolyline
 66
     1
 10
0.0
 20
0.0
 30
0.0
  0
VERTEX
  5
349
100
AcDbEntity
  8
GG1
 62
     1
100
AcDbVertex
100
AcDb2dVertex
 10
1.6328
 20
-1.4424
 30
0.0
  0
VERTEX
  5
34A
100
AcDbEntity
  8
GG1
 62
     1
100
AcDbVertex
100
AcDb2dVertex
 10
1.628
 20
-1.4328
 30
0.0
  0
VERTEX
  5
34B
100
AcDbEntity
  8
GG1
 62
     1
100
AcDbVertex
100
AcDb2dVertex
 10
1.6137
 20
-1.4281
 30
0.0
  0
VERTEX
  5
34C
100
AcDbEntity
  8
GG1
 62
     1
100
AcDbVertex
100
AcDb2dVertex
 10
1.5994
 20
-1.4281
 30
0.0
  0
VERTEX
  5
34D
100
AcDbEntity
  8
GG1
 62
     1
100
AcDbVertex
100
AcDb2dVertex
 10
1.5851
 20
-1.4328
 30
0.0
  0
VERTEX
  5
34E
100
AcDbEntity
  8
GG1
 62
     1
100
AcDbVertex
100
AcDb2dVertex
 10
1.5804
 20
-1.4424
 30
0.0
  0
VERTEX
  5
34F
100
AcDbEntity
  8
GG1
 62
     1
100
AcDbVertex
100
AcDb2dVertex
 10
1.5851
 20
-1.4519
 30
0.0
  0
VERTEX
  5
350
100
AcDbEntity
  8
GG1
 62
     1
100
AcDbVertex
100
AcDb2dVertex
 10
1.5947
 20
-1.4567
 30
0.0
  0
VERTEX
  5
351
100
AcDbEntity
  8
GG1
 62
     1
100
AcDbVertex
100
AcDb2dVertex
 10
1.6185
 20
-1.4614
 30
0.0
  0
VERTEX
  5
352
100
AcDbEntity
  8
GG1
 62
     1
100
AcDbVertex
100
AcDb2dVertex
 10
1.628
 20
-1.4662
 30
0.0
  0
VERTEX
  5
353
100
AcDbEntity
  8
GG1
 62
     1
100
AcDbVertex
100
AcDb2dVertex
 10
1.6328
 20
-1.4757
 30
0.0
  0
VERTEX
  5
354
100
AcDbEntity
  8
GG1
 62
     1
100
AcDbVertex
100
AcDb2dVertex
 10
1.6328
 20
-1.4805
 30
0.0
  0
VERTEX
  5
355
100
AcDbEntity
  8
GG1
 62
     1
100
AcDbVertex
100
AcDb2dVertex
 10
1.628
 20
-1.49
 30
0.0
  0
VERTEX
  5
356
100
AcDbEntity
  8
GG1
 62
     1
100
AcDbVertex
100
AcDb2dVertex
 10
1.6137
 20
-1.4947
 30
0.0
  0
VERTEX
  5
357
100
AcDbEntity
  8
GG1
 62
     1
100
AcDbVertex
100
AcDb2dVertex
 10
1.5994
 20
-1.4947
 30
0.0
  0
VERTEX
  5
358
100
AcDbEntity
  8
GG1
 62
     1
100
AcDbVertex
100
AcDb2dVertex
 10
1.5851
 20
-1.49
 30
0.0
  0
VERTEX
  5
359
100
AcDbEntity
  8
GG1
 62
     1
100
AcDbVertex
100
AcDb2dVertex
 10
1.5804
 20
-1.4805
 30
0.0
  0
SEQEND
  5
35A
100
AcDbEntity
  8
GG1
 62
     1
  0
POLYLINE
  5
35B
100
AcDbEntity
  8
GG1
 62
     1
100
AcDb2dPolyline
 66
     1
 10
0.0
 20
0.0
 30
0.0
  0
VERTEX
  5
35C
100
AcDbEntity
  8
GG1
 62
     1
100
AcDbVertex
100
AcDb2dVertex
 10
1.6585
 20
-1.4281
 30
0.0
  0
VERTEX
  5
35D
100
AcDbEntity
  8
GG1
 62
     1
100
AcDbVertex
100
AcDb2dVertex
 10
1.6537
 20
-1.4328
 30
0.0
  0
VERTEX
  5
35E
100
AcDbEntity
  8
GG1
 62
     1
100
AcDbVertex
100
AcDb2dVertex
 10
1.6585
 20
-1.4376
 30
0.0
  0
VERTEX
  5
35F
100
AcDbEntity
  8
GG1
 62
     1
100
AcDbVertex
100
AcDb2dVertex
 10
1.6632
 20
-1.4328
 30
0.0
  0
VERTEX
  5
360
100
AcDbEntity
  8
GG1
 62
     1
100
AcDbVertex
100
AcDb2dVertex
 10
1.6585
 20
-1.4281
 30
0.0
  0
SEQEND
  5
361
100
AcDbEntity
  8
GG1
 62
     1
  0
POLYLINE
  5
362
100
AcDbEntity
  8
GG1
 62
     1
100
AcDb2dPolyline
 66
     1
 10
0.0
 20
0.0
 30
0.0
  0
VERTEX
  5
363
100
AcDbEntity
  8
GG1
 62
     1
100
AcDbVertex
100
AcDb2dVertex
 10
1.6585
 20
-1.4852
 30
0.0
  0
VERTEX
  5
364
100
AcDbEntity
  8
GG1
 62
     1
100
AcDbVertex
100
AcDb2dVertex
 10
1.6537
 20
-1.49
 30
0.0
  0
VERTEX
  5
365
100
AcDbEntity
  8
GG1
 62
     1
100
AcDbVertex
100
AcDb2dVertex
 10
1.6585
 20
-1.4947
 30
0.0
  0
VERTEX
  5
366
100
AcDbEntity
  8
GG1
 62
     1
100
AcDbVertex
100
AcDb2dVertex
 10
1.6632
 20
-1.49
 30
0.0
  0
VERTEX
  5
367
100
AcDbEntity
  8
GG1
 62
     1
100
AcDbVertex
100
AcDb2dVertex
 10
1.6585
 20
-1.4852
 30
0.0
  0
SEQEND
  5
368
100
AcDbEntity
  8
GG1
 62
     1
  0
POLYLINE
  5
369
100
AcDbEntity
  8
GG1
 62
     1
100
AcDb2dPolyline
 66
     1
 10
0.0
 20
0.0
 30
0.0
  0
VERTEX
  5
36A
100
AcDbEntity
  8
GG1
 62
     1
100
AcDbVertex
100
AcDb2dVertex
 10
0.1214
 20
-1.2436
 30
0.0
  0
VERTEX
  5
36B
100
AcDbEntity
  8
GG1
 62
     1
100
AcDbVertex
100
AcDb2dVertex
 10
0.1167
 20
-1.234
 30
0.0
  0
VERTEX
  5
36C
100
AcDbEntity
  8
GG1
 62
     1
100
AcDbVertex
100
AcDb2dVertex
 10
0.1071
 20
-1.2245
 30
0.0
  0
VERTEX
  5
36D
100
AcDbEntity
  8
GG1
 62
     1
100
AcDbVertex
100
AcDb2dVertex
 10
0.0976
 20
-1.2198
 30
0.0
  0
VERTEX
  5
36E
100
AcDbEntity
  8
GG1
 62
     1
100
AcDbVertex
100
AcDb2dVertex
 10
0.0786
 20
-1.2198
 30
0.0
  0
VERTEX
  5
36F
100
AcDbEntity
  8
GG1
 62
     1
100
AcDbVertex
100
AcDb2dVertex
 10
0.069
 20
-1.2245
 30
0.0
  0
VERTEX
  5
370
100
AcDbEntity
  8
GG1
 62
     1
100
AcDbVertex
100
AcDb2dVertex
 10
0.0595
 20
-1.234
 30
0.0
  0
VERTEX
  5
371
100
AcDbEntity
  8
GG1
 62
     1
100
AcDbVertex
100
AcDb2dVertex
 10
0.0548
 20
-1.2436
 30
0.0
  0
VERTEX
  5
372
100
AcDbEntity
  8
GG1
 62
     1
100
AcDbVertex
100
AcDb2dVertex
 10
0.05
 20
-1.2578
 30
0.0
  0
VERTEX
  5
373
100
AcDbEntity
  8
GG1
 62
     1
100
AcDbVertex
100
AcDb2dVertex
 10
0.05
 20
-1.2817
 30
0.0
  0
VERTEX
  5
374
100
AcDbEntity
  8
GG1
 62
     1
100
AcDbVertex
100
AcDb2dVertex
 10
0.0548
 20
-1.2959
 30
0.0
  0
VERTEX
  5
375
100
AcDbEntity
  8
GG1
 62
     1
100
AcDbVertex
100
AcDb2dVertex
 10
0.0595
 20
-1.3055
 30
0.0
  0
VERTEX
  5
376
100
AcDbEntity
  8
GG1
 62
     1
100
AcDbVertex
100
AcDb2dVertex
 10
0.069
 20
-1.315
 30
0.0
  0
VERTEX
  5
377
100
AcDbEntity
  8
GG1
 62
     1
100
AcDbVertex
100
AcDb2dVertex
 10
0.0786
 20
-1.3197
 30
0.0
  0
VERTEX
  5
378
100
AcDbEntity
  8
GG1
 62
     1
100
AcDbVertex
100
AcDb2dVertex
 10
0.0976
 20
-1.3197
 30
0.0
  0
VERTEX
  5
379
100
AcDbEntity
  8
GG1
 62
     1
100
AcDbVertex
100
AcDb2dVertex
 10
0.1071
 20
-1.315
 30
0.0
  0
VERTEX
  5
37A
100
AcDbEntity
  8
GG1
 62
     1
100
AcDbVertex
100
AcDb2dVertex
 10
0.1167
 20
-1.3055
 30
0.0
  0
VERTEX
  5
37B
100
AcDbEntity
  8
GG1
 62
     1
100
AcDbVertex
100
AcDb2dVertex
 10
0.1214
 20
-1.2959
 30
0.0
  0
SEQEND
  5
37C
100
AcDbEntity
  8
GG1
 62
     1
  0
POLYLINE
  5
37D
100
AcDbEntity
  8
GG1
 62
     1
100
AcDb2dPolyline
 66
     1
 10
0.0
 20
0.0
 30
0.0
  0
VERTEX
  5
37E
100
AcDbEntity
  8
GG1
 62
     1
100
AcDbVertex
100
AcDb2dVertex
 10
0.1733
 20
-1.2531
 30
0.0
  0
VERTEX
  5
37F
100
AcDbEntity
  8
GG1
 62
     1
100
AcDbVertex
100
AcDb2dVertex
 10
0.1638
 20
-1.2578
 30
0.0
  0
VERTEX
  5
380
100
AcDbEntity
  8
GG1
 62
     1
100
AcDbVertex
100
AcDb2dVertex
 10
0.1543
 20
-1.2674
 30
0.0
  0
VERTEX
  5
381
100
AcDbEntity
  8
GG1
 62
     1
100
AcDbVertex
100
AcDb2dVertex
 10
0.1495
 20
-1.2817
 30
0.0
  0
VERTEX
  5
382
100
AcDbEntity
  8
GG1
 62
     1
100
AcDbVertex
100
AcDb2dVertex
 10
0.1495
 20
-1.2912
 30
0.0
  0
VERTEX
  5
383
100
AcDbEntity
  8
GG1
 62
     1
100
AcDbVertex
100
AcDb2dVertex
 10
0.1543
 20
-1.3055
 30
0.0
  0
VERTEX
  5
384
100
AcDbEntity
  8
GG1
 62
     1
100
AcDbVertex
100
AcDb2dVertex
 10
0.1638
 20
-1.315
 30
0.0
  0
VERTEX
  5
385
100
AcDbEntity
  8
GG1
 62
     1
100
AcDbVertex
100
AcDb2dVertex
 10
0.1733
 20
-1.3197
 30
0.0
  0
VERTEX
  5
386
100
AcDbEntity
  8
GG1
 62
     1
100
AcDbVertex
100
AcDb2dVertex
 10
0.1876
 20
-1.3197
 30
0.0
  0
VERTEX
  5
387
100
AcDbEntity
  8
GG1
 62
     1
100
AcDbVertex
100
AcDb2dVertex
 10
0.1971
 20
-1.315
 30
0.0
  0
VERTEX
  5
388
100
AcDbEntity
  8
GG1
 62
     1
100
AcDbVertex
100
AcDb2dVertex
 10
0.2066
 20
-1.3055
 30
0.0
  0
VERTEX
  5
389
100
AcDbEntity
  8
GG1
 62
     1
100
AcDbVertex
100
AcDb2dVertex
 10
0.2114
 20
-1.2912
 30
0.0
  0
VERTEX
  5
38A
100
AcDbEntity
  8
GG1
 62
     1
100
AcDbVertex
100
AcDb2dVertex
 10
0.2114
 20
-1.2817
 30
0.0
  0
VERTEX
  5
38B
100
AcDbEntity
  8
GG1
 62
     1
100
AcDbVertex
100
AcDb2dVertex
 10
0.2066
 20
-1.2674
 30
0.0
  0
VERTEX
  5
38C
100
AcDbEntity
  8
GG1
 62
     1
100
AcDbVertex
100
AcDb2dVertex
 10
0.1971
 20
-1.2578
 30
0.0
  0
VERTEX
  5
38D
100
AcDbEntity
  8
GG1
 62
     1
100
AcDbVertex
100
AcDb2dVertex
 10
0.1876
 20
-1.2531
 30
0.0
  0
VERTEX
  5
38E
100
AcDbEntity
  8
GG1
 62
     1
100
AcDbVertex
100
AcDb2dVertex
 10
0.1733
 20
-1.2531
 30
0.0
  0
SEQEND
  5
38F
100
AcDbEntity
  8
GG1
 62
     1
  0
POLYLINE
  5
390
100
AcDbEntity
  8
GG1
 62
     1
100
AcDb2dPolyline
 66
     1
 10
0.0
 20
0.0
 30
0.0
  0
VERTEX
  5
391
100
AcDbEntity
  8
GG1
 62
     1
100
AcDbVertex
100
AcDb2dVertex
 10
0.2333
 20
-1.2531
 30
0.0
  0
VERTEX
  5
392
100
AcDbEntity
  8
GG1
 62
     1
100
AcDbVertex
100
AcDb2dVertex
 10
0.2333
 20
-1.3531
 30
0.0
  0
SEQEND
  5
393
100
AcDbEntity
  8
GG1
 62
     1
  0
POLYLINE
  5
394
100
AcDbEntity
  8
GG1
 62
     1
100
AcDb2dPolyline
 66
     1
 10
0.0
 20
0.0
 30
0.0
  0
VERTEX
  5
395
100
AcDbEntity
  8
GG1
 62
     1
100
AcDbVertex
100
AcDb2dVertex
 10
0.2333
 20
-1.2674
 30
0.0
  0
VERTEX
  5
396
100
AcDbEntity
  8
GG1
 62
     1
100
AcDbVertex
100
AcDb2dVertex
 10
0.2428
 20
-1.2578
 30
0.0
  0
VERTEX
  5
397
100
AcDbEntity
  8
GG1
 62
     1
100
AcDbVertex
100
AcDb2dVertex
 10
0.2523
 20
-1.2531
 30
0.0
  0
VERTEX
  5
398
100
AcDbEntity
  8
GG1
 62
     1
100
AcDbVertex
100
AcDb2dVertex
 10
0.2666
 20
-1.2531
 30
0.0
  0
VERTEX
  5
399
100
AcDbEntity
  8
GG1
 62
     1
100
AcDbVertex
100
AcDb2dVertex
 10
0.2761
 20
-1.2578
 30
0.0
  0
VERTEX
  5
39A
100
AcDbEntity
  8
GG1
 62
     1
100
AcDbVertex
100
AcDb2dVertex
 10
0.2857
 20
-1.2674
 30
0.0
  0
VERTEX
  5
39B
100
AcDbEntity
  8
GG1
 62
     1
100
AcDbVertex
100
AcDb2dVertex
 10
0.2904
 20
-1.2817
 30
0.0
  0
VERTEX
  5
39C
100
AcDbEntity
  8
GG1
 62
     1
100
AcDbVertex
100
AcDb2dVertex
 10
0.2904
 20
-1.2912
 30
0.0
  0
VERTEX
  5
39D
100
AcDbEntity
  8
GG1
 62
     1
100
AcDbVertex
100
AcDb2dVertex
 10
0.2857
 20
-1.3055
 30
0.0
  0
VERTEX
  5
39E
100
AcDbEntity
  8
GG1
 62
     1
100
AcDbVertex
100
AcDb2dVertex
 10
0.2761
 20
-1.315
 30
0.0
  0
VERTEX
  5
39F
100
AcDbEntity
  8
GG1
 62
     1
100
AcDbVertex
100
AcDb2dVertex
 10
0.2666
 20
-1.3197
 30
0.0
  0
VERTEX
  5
3A0
100
AcDbEntity
  8
GG1
 62
     1
100
AcDbVertex
100
AcDb2dVertex
 10
0.2523
 20
-1.3197
 30
0.0
  0
VERTEX
  5
3A1
100
AcDbEntity
  8
GG1
 62
     1
100
AcDbVertex
100
AcDb2dVertex
 10
0.2428
 20
-1.315
 30
0.0
  0
VERTEX
  5
3A2
100
AcDbEntity
  8
GG1
 62
     1
100
AcDbVertex
100
AcDb2dVertex
 10
0.2333
 20
-1.3055
 30
0.0
  0
SEQEND
  5
3A3
100
AcDbEntity
  8
GG1
 62
     1
  0
POLYLINE
  5
3A4
100
AcDbEntity
  8
GG1
 62
     1
100
AcDb2dPolyline
 66
     1
 10
0.0
 20
0.0
 30
0.0
  0
VERTEX
  5
3A5
100
AcDbEntity
  8
GG1
 62
     1
100
AcDbVertex
100
AcDb2dVertex
 10
0.3118
 20
-1.2531
 30
0.0
  0
VERTEX
  5
3A6
100
AcDbEntity
  8
GG1
 62
     1
100
AcDbVertex
100
AcDb2dVertex
 10
0.3118
 20
-1.3531
 30
0.0
  0
SEQEND
  5
3A7
100
AcDbEntity
  8
GG1
 62
     1
  0
POLYLINE
  5
3A8
100
AcDbEntity
  8
GG1
 62
     1
100
AcDb2dPolyline
 66
     1
 10
0.0
 20
0.0
 30
0.0
  0
VERTEX
  5
3A9
100
AcDbEntity
  8
GG1
 62
     1
100
AcDbVertex
100
AcDb2dVertex
 10
0.3118
 20
-1.2674
 30
0.0
  0
VERTEX
  5
3AA
100
AcDbEntity
  8
GG1
 62
     1
100
AcDbVertex
100
AcDb2dVertex
 10
0.3214
 20
-1.2578
 30
0.0
  0
VERTEX
  5
3AB
100
AcDbEntity
  8
GG1
 62
     1
100
AcDbVertex
100
AcDb2dVertex
 10
0.3309
 20
-1.2531
 30
0.0
  0
VERTEX
  5
3AC
100
AcDbEntity
  8
GG1
 62
     1
100
AcDbVertex
100
AcDb2dVertex
 10
0.3452
 20
-1.2531
 30
0.0
  0
VERTEX
  5
3AD
100
AcDbEntity
  8
GG1
 62
     1
100
AcDbVertex
100
AcDb2dVertex
 10
0.3547
 20
-1.2578
 30
0.0
  0
VERTEX
  5
3AE
100
AcDbEntity
  8
GG1
 62
     1
100
AcDbVertex
100
AcDb2dVertex
 10
0.3642
 20
-1.2674
 30
0.0
  0
VERTEX
  5
3AF
100
AcDbEntity
  8
GG1
 62
     1
100
AcDbVertex
100
AcDb2dVertex
 10
0.369
 20
-1.2817
 30
0.0
  0
VERTEX
  5
3B0
100
AcDbEntity
  8
GG1
 62
     1
100
AcDbVertex
100
AcDb2dVertex
 10
0.369
 20
-1.2912
 30
0.0
  0
VERTEX
  5
3B1
100
AcDbEntity
  8
GG1
 62
     1
100
AcDbVertex
100
AcDb2dVertex
 10
0.3642
 20
-1.3055
 30
0.0
  0
VERTEX
  5
3B2
100
AcDbEntity
  8
GG1
 62
     1
100
AcDbVertex
100
AcDb2dVertex
 10
0.3547
 20
-1.315
 30
0.0
  0
VERTEX
  5
3B3
100
AcDbEntity
  8
GG1
 62
     1
100
AcDbVertex
100
AcDb2dVertex
 10
0.3452
 20
-1.3197
 30
0.0
  0
VERTEX
  5
3B4
100
AcDbEntity
  8
GG1
 62
     1
100
AcDbVertex
100
AcDb2dVertex
 10
0.3309
 20
-1.3197
 30
0.0
  0
VERTEX
  5
3B5
100
AcDbEntity
  8
GG1
 62
     1
100
AcDbVertex
100
AcDb2dVertex
 10
0.3214
 20
-1.315
 30
0.0
  0
VERTEX
  5
3B6
100
AcDbEntity
  8
GG1
 62
     1
100
AcDbVertex
100
AcDb2dVertex
 10
0.3118
 20
-1.3055
 30
0.0
  0
SEQEND
  5
3B7
100
AcDbEntity
  8
GG1
 62
     1
  0
POLYLINE
  5
3B8
100
AcDbEntity
  8
GG1
 62
     1
100
AcDb2dPolyline
 66
     1
 10
0.0
 20
0.0
 30
0.0
  0
VERTEX
  5
3B9
100
AcDbEntity
  8
GG1
 62
     1
100
AcDbVertex
100
AcDb2dVertex
 10
0.3904
 20
-1.2817
 30
0.0
  0
VERTEX
  5
3BA
100
AcDbEntity
  8
GG1
 62
     1
100
AcDbVertex
100
AcDb2dVertex
 10
0.4475
 20
-1.2817
 30
0.0
  0
VERTEX
  5
3BB
100
AcDbEntity
  8
GG1
 62
     1
100
AcDbVertex
100
AcDb2dVertex
 10
0.4475
 20
-1.2721
 30
0.0
  0
VERTEX
  5
3BC
100
AcDbEntity
  8
GG1
 62
     1
100
AcDbVertex
100
AcDb2dVertex
 10
0.4428
 20
-1.2626
 30
0.0
  0
VERTEX
  5
3BD
100
AcDbEntity
  8
GG1
 62
     1
100
AcDbVertex
100
AcDb2dVertex
 10
0.438
 20
-1.2578
 30
0.0
  0
VERTEX
  5
3BE
100
AcDbEntity
  8
GG1
 62
     1
100
AcDbVertex
100
AcDb2dVertex
 10
0.4285
 20
-1.2531
 30
0.0
  0
VERTEX
  5
3BF
100
AcDbEntity
  8
GG1
 62
     1
100
AcDbVertex
100
AcDb2dVertex
 10
0.4142
 20
-1.2531
 30
0.0
  0
VERTEX
  5
3C0
100
AcDbEntity
  8
GG1
 62
     1
100
AcDbVertex
100
AcDb2dVertex
 10
0.4047
 20
-1.2578
 30
0.0
  0
VERTEX
  5
3C1
100
AcDbEntity
  8
GG1
 62
     1
100
AcDbVertex
100
AcDb2dVertex
 10
0.3952
 20
-1.2674
 30
0.0
  0
VERTEX
  5
3C2
100
AcDbEntity
  8
GG1
 62
     1
100
AcDbVertex
100
AcDb2dVertex
 10
0.3904
 20
-1.2817
 30
0.0
  0
VERTEX
  5
3C3
100
AcDbEntity
  8
GG1
 62
     1
100
AcDbVertex
100
AcDb2dVertex
 10
0.3904
 20
-1.2912
 30
0.0
  0
VERTEX
  5
3C4
100
AcDbEntity
  8
GG1
 62
     1
100
AcDbVertex
100
AcDb2dVertex
 10
0.3952
 20
-1.3055
 30
0.0
  0
VERTEX
  5
3C5
100
AcDbEntity
  8
GG1
 62
     1
100
AcDbVertex
100
AcDb2dVertex
 10
0.4047
 20
-1.315
 30
0.0
  0
VERTEX
  5
3C6
100
AcDbEntity
  8
GG1
 62
     1
100
AcDbVertex
100
AcDb2dVertex
 10
0.4142
 20
-1.3197
 30
0.0
  0
VERTEX
  5
3C7
100
AcDbEntity
  8
GG1
 62
     1
100
AcDbVertex
100
AcDb2dVertex
 10
0.4285
 20
-1.3197
 30
0.0
  0
VERTEX
  5
3C8
100
AcDbEntity
  8
GG1
 62
     1
100
AcDbVertex
100
AcDb2dVertex
 10
0.438
 20
-1.315
 30
0.0
  0
VERTEX
  5
3C9
100
AcDbEntity
  8
GG1
 62
     1
100
AcDbVertex
100
AcDb2dVertex
 10
0.4475
 20
-1.3055
 30
0.0
  0
SEQEND
  5
3CA
100
AcDbEntity
  8
GG1
 62
     1
  0
POLYLINE
  5
3CB
100
AcDbEntity
  8
GG1
 62
     1
100
AcDb2dPolyline
 66
     1
 10
0.0
 20
0.0
 30
0.0
  0
VERTEX
  5
3CC
100
AcDbEntity
  8
GG1
 62
     1
100
AcDbVertex
100
AcDb2dVertex
 10
0.469
 20
-1.2531
 30
0.0
  0
VERTEX
  5
3CD
100
AcDbEntity
  8
GG1
 62
     1
100
AcDbVertex
100
AcDb2dVertex
 10
0.469
 20
-1.3197
 30
0.0
  0
SEQEND
  5
3CE
100
AcDbEntity
  8
GG1
 62
     1
  0
POLYLINE
  5
3CF
100
AcDbEntity
  8
GG1
 62
     1
100
AcDb2dPolyline
 66
     1
 10
0.0
 20
0.0
 30
0.0
  0
VERTEX
  5
3D0
100
AcDbEntity
  8
GG1
 62
     1
100
AcDbVertex
100
AcDb2dVertex
 10
0.469
 20
-1.2817
 30
0.0
  0
VERTEX
  5
3D1
100
AcDbEntity
  8
GG1
 62
     1
100
AcDbVertex
100
AcDb2dVertex
 10
0.4737
 20
-1.2674
 30
0.0
  0
VERTEX
  5
3D2
100
AcDbEntity
  8
GG1
 62
     1
100
AcDbVertex
100
AcDb2dVertex
 10
0.4832
 20
-1.2578
 30
0.0
  0
VERTEX
  5
3D3
100
AcDbEntity
  8
GG1
 62
     1
100
AcDbVertex
100
AcDb2dVertex
 10
0.4928
 20
-1.2531
 30
0.0
  0
VERTEX
  5
3D4
100
AcDbEntity
  8
GG1
 62
     1
100
AcDbVertex
100
AcDb2dVertex
 10
0.507
 20
-1.2531
 30
0.0
  0
SEQEND
  5
3D5
100
AcDbEntity
  8
GG1
 62
     1
  0
POLYLINE
  5
3D6
100
AcDbEntity
  8
GG1
 62
     1
100
AcDb2dPolyline
 66
     1
 10
0.0
 20
0.0
 30
0.0
  0
VERTEX
  5
3D7
100
AcDbEntity
  8
GG1
 62
     1
100
AcDbVertex
100
AcDb2dVertex
 10
0.5946
 20
-1.2198
 30
0.0
  0
VERTEX
  5
3D8
100
AcDbEntity
  8
GG1
 62
     1
100
AcDbVertex
100
AcDb2dVertex
 10
0.6184
 20
-1.3197
 30
0.0
  0
SEQEND
  5
3D9
100
AcDbEntity
  8
GG1
 62
     1
  0
POLYLINE
  5
3DA
100
AcDbEntity
  8
GG1
 62
     1
100
AcDb2dPolyline
 66
     1
 10
0.0
 20
0.0
 30
0.0
  0
VERTEX
  5
3DB
100
AcDbEntity
  8
GG1
 62
     1
100
AcDbVertex
100
AcDb2dVertex
 10
0.6423
 20
-1.2198
 30
0.0
  0
VERTEX
  5
3DC
100
AcDbEntity
  8
GG1
 62
     1
100
AcDbVertex
100
AcDb2dVertex
 10
0.6184
 20
-1.3197
 30
0.0
  0
SEQEND
  5
3DD
100
AcDbEntity
  8
GG1
 62
     1
  0
POLYLINE
  5
3DE
100
AcDbEntity
  8
GG1
 62
     1
100
AcDb2dPolyline
 66
     1
 10
0.0
 20
0.0
 30
0.0
  0
VERTEX
  5
3DF
100
AcDbEntity
  8
GG1
 62
     1
100
AcDbVertex
100
AcDb2dVertex
 10
0.6423
 20
-1.2198
 30
0.0
  0
VERTEX
  5
3E0
100
AcDbEntity
  8
GG1
 62
     1
100
AcDbVertex
100
AcDb2dVertex
 10
0.6661
 20
-1.3197
 30
0.0
  0
SEQEND
  5
3E1
100
AcDbEntity
  8
GG1
 62
     1
  0
POLYLINE
  5
3E2
100
AcDbEntity
  8
GG1
 62
     1
100
AcDb2dPolyline
 66
     1
 10
0.0
 20
0.0
 30
0.0
  0
VERTEX
  5
3E3
100
AcDbEntity
  8
GG1
 62
     1
100
AcDbVertex
100
AcDb2dVertex
 10
0.6899
 20
-1.2198
 30
0.0
  0
VERTEX
  5
3E4
100
AcDbEntity
  8
GG1
 62
     1
100
AcDbVertex
100
AcDb2dVertex
 10
0.6661
 20
-1.3197
 30
0.0
  0
SEQEND
  5
3E5
100
AcDbEntity
  8
GG1
 62
     1
  0
POLYLINE
  5
3E6
100
AcDbEntity
  8
GG1
 62
     1
100
AcDb2dPolyline
 66
     1
 10
0.0
 20
0.0
 30
0.0
  0
VERTEX
  5
3E7
100
AcDbEntity
  8
GG1
 62
     1
100
AcDbVertex
100
AcDb2dVertex
 10
0.7099
 20
-1.2817
 30
0.0
  0
VERTEX
  5
3E8
100
AcDbEntity
  8
GG1
 62
     1
100
AcDbVertex
100
AcDb2dVertex
 10
0.767
 20
-1.2817
 30
0.0
  0
VERTEX
  5
3E9
100
AcDbEntity
  8
GG1
 62
     1
100
AcDbVertex
100
AcDb2dVertex
 10
0.767
 20
-1.2721
 30
0.0
  0
VERTEX
  5
3EA
100
AcDbEntity
  8
GG1
 62
     1
100
AcDbVertex
100
AcDb2dVertex
 10
0.7622
 20
-1.2626
 30
0.0
  0
VERTEX
  5
3EB
100
AcDbEntity
  8
GG1
 62
     1
100
AcDbVertex
100
AcDb2dVertex
 10
0.7575
 20
-1.2578
 30
0.0
  0
VERTEX
  5
3EC
100
AcDbEntity
  8
GG1
 62
     1
100
AcDbVertex
100
AcDb2dVertex
 10
0.7479
 20
-1.2531
 30
0.0
  0
VERTEX
  5
3ED
100
AcDbEntity
  8
GG1
 62
     1
100
AcDbVertex
100
AcDb2dVertex
 10
0.7337
 20
-1.2531
 30
0.0
  0
VERTEX
  5
3EE
100
AcDbEntity
  8
GG1
 62
     1
100
AcDbVertex
100
AcDb2dVertex
 10
0.7241
 20
-1.2578
 30
0.0
  0
VERTEX
  5
3EF
100
AcDbEntity
  8
GG1
 62
     1
100
AcDbVertex
100
AcDb2dVertex
 10
0.7146
 20
-1.2674
 30
0.0
  0
VERTEX
  5
3F0
100
AcDbEntity
  8
GG1
 62
     1
100
AcDbVertex
100
AcDb2dVertex
 10
0.7099
 20
-1.2817
 30
0.0
  0
VERTEX
  5
3F1
100
AcDbEntity
  8
GG1
 62
     1
100
AcDbVertex
100
AcDb2dVertex
 10
0.7099
 20
-1.2912
 30
0.0
  0
VERTEX
  5
3F2
100
AcDbEntity
  8
GG1
 62
     1
100
AcDbVertex
100
AcDb2dVertex
 10
0.7146
 20
-1.3055
 30
0.0
  0
VERTEX
  5
3F3
100
AcDbEntity
  8
GG1
 62
     1
100
AcDbVertex
100
AcDb2dVertex
 10
0.7241
 20
-1.315
 30
0.0
  0
VERTEX
  5
3F4
100
AcDbEntity
  8
GG1
 62
     1
100
AcDbVertex
100
AcDb2dVertex
 10
0.7337
 20
-1.3197
 30
0.0
  0
VERTEX
  5
3F5
100
AcDbEntity
  8
GG1
 62
     1
100
AcDbVertex
100
AcDb2dVertex
 10
0.7479
 20
-1.3197
 30
0.0
  0
VERTEX
  5
3F6
100
AcDbEntity
  8
GG1
 62
     1
100
AcDbVertex
100
AcDb2dVertex
 10
0.7575
 20
-1.315
 30
0.0
  0
VERTEX
  5
3F7
100
AcDbEntity
  8
GG1
 62
     1
100
AcDbVertex
100
AcDb2dVertex
 10
0.767
 20
-1.3055
 30
0.0
  0
SEQEND
  5
3F8
100
AcDbEntity
  8
GG1
 62
     1
  0
POLYLINE
  5
3F9
100
AcDbEntity
  8
GG1
 62
     1
100
AcDb2dPolyline
 66
     1
 10
0.0
 20
0.0
 30
0.0
  0
VERTEX
  5
3FA
100
AcDbEntity
  8
GG1
 62
     1
100
AcDbVertex
100
AcDb2dVertex
 10
0.7979
 20
-1.2198
 30
0.0
  0
VERTEX
  5
3FB
100
AcDbEntity
  8
GG1
 62
     1
100
AcDbVertex
100
AcDb2dVertex
 10
0.8027
 20
-1.2245
 30
0.0
  0
VERTEX
  5
3FC
100
AcDbEntity
  8
GG1
 62
     1
100
AcDbVertex
100
AcDb2dVertex
 10
0.8075
 20
-1.2198
 30
0.0
  0
VERTEX
  5
3FD
100
AcDbEntity
  8
GG1
 62
     1
100
AcDbVertex
100
AcDb2dVertex
 10
0.8027
 20
-1.215
 30
0.0
  0
VERTEX
  5
3FE
100
AcDbEntity
  8
GG1
 62
     1
100
AcDbVertex
100
AcDb2dVertex
 10
0.7979
 20
-1.2198
 30
0.0
  0
SEQEND
  5
3FF
100
AcDbEntity
  8
GG1
 62
     1
  0
POLYLINE
  5
400
100
AcDbEntity
  8
GG1
 62
     1
100
AcDb2dPolyline
 66
     1
 10
0.0
 20
0.0
 30
0.0
  0
VERTEX
  5
401
100
AcDbEntity
  8
GG1
 62
     1
100
AcDbVertex
100
AcDb2dVertex
 10
0.8027
 20
-1.2531
 30
0.0
  0
VERTEX
  5
402
100
AcDbEntity
  8
GG1
 62
     1
100
AcDbVertex
100
AcDb2dVertex
 10
0.8027
 20
-1.3197
 30
0.0
  0
SEQEND
  5
403
100
AcDbEntity
  8
GG1
 62
     1
  0
POLYLINE
  5
404
100
AcDbEntity
  8
GG1
 62
     1
100
AcDb2dPolyline
 66
     1
 10
0.0
 20
0.0
 30
0.0
  0
VERTEX
  5
405
100
AcDbEntity
  8
GG1
 62
     1
100
AcDbVertex
100
AcDb2dVertex
 10
0.8822
 20
-1.2531
 30
0.0
  0
VERTEX
  5
406
100
AcDbEntity
  8
GG1
 62
     1
100
AcDbVertex
100
AcDb2dVertex
 10
0.8822
 20
-1.3293
 30
0.0
  0
VERTEX
  5
407
100
AcDbEntity
  8
GG1
 62
     1
100
AcDbVertex
100
AcDb2dVertex
 10
0.8774
 20
-1.3435
 30
0.0
  0
VERTEX
  5
408
100
AcDbEntity
  8
GG1
 62
     1
100
AcDbVertex
100
AcDb2dVertex
 10
0.8727
 20
-1.3483
 30
0.0
  0
VERTEX
  5
409
100
AcDbEntity
  8
GG1
 62
     1
100
AcDbVertex
100
AcDb2dVertex
 10
0.8632
 20
-1.3531
 30
0.0
  0
VERTEX
  5
40A
100
AcDbEntity
  8
GG1
 62
     1
100
AcDbVertex
100
AcDb2dVertex
 10
0.8489
 20
-1.3531
 30
0.0
  0
VERTEX
  5
40B
100
AcDbEntity
  8
GG1
 62
     1
100
AcDbVertex
100
AcDb2dVertex
 10
0.8394
 20
-1.3483
 30
0.0
  0
SEQEND
  5
40C
100
AcDbEntity
  8
GG1
 62
     1
  0
POLYLINE
  5
40D
100
AcDbEntity
  8
GG1
 62
     1
100
AcDb2dPolyline
 66
     1
 10
0.0
 20
0.0
 30
0.0
  0
VERTEX
  5
40E
100
AcDbEntity
  8
GG1
 62
     1
100
AcDbVertex
100
AcDb2dVertex
 10
0.8822
 20
-1.2674
 30
0.0
  0
VERTEX
  5
40F
100
AcDbEntity
  8
GG1
 62
     1
100
AcDbVertex
100
AcDb2dVertex
 10
0.8727
 20
-1.2578
 30
0.0
  0
VERTEX
  5
410
100
AcDbEntity
  8
GG1
 62
     1
100
AcDbVertex
100
AcDb2dVertex
 10
0.8632
 20
-1.2531
 30
0.0
  0
VERTEX
  5
411
100
AcDbEntity
  8
GG1
 62
     1
100
AcDbVertex
100
AcDb2dVertex
 10
0.8489
 20
-1.2531
 30
0.0
  0
VERTEX
  5
412
100
AcDbEntity
  8
GG1
 62
     1
100
AcDbVertex
100
AcDb2dVertex
 10
0.8394
 20
-1.2578
 30
0.0
  0
VERTEX
  5
413
100
AcDbEntity
  8
GG1
 62
     1
100
AcDbVertex
100
AcDb2dVertex
 10
0.8298
 20
-1.2674
 30
0.0
  0
VERTEX
  5
414
100
AcDbEntity
  8
GG1
 62
     1
100
AcDbVertex
100
AcDb2dVertex
 10
0.8251
 20
-1.2817
 30
0.0
  0
VERTEX
  5
415
100
AcDbEntity
  8
GG1
 62
     1
100
AcDbVertex
100
AcDb2dVertex
 10
0.8251
 20
-1.2912
 30
0.0
  0
VERTEX
  5
416
100
AcDbEntity
  8
GG1
 62
     1
100
AcDbVertex
100
AcDb2dVertex
 10
0.8298
 20
-1.3055
 30
0.0
  0
VERTEX
  5
417
100
AcDbEntity
  8
GG1
 62
     1
100
AcDbVertex
100
AcDb2dVertex
 10
0.8394
 20
-1.315
 30
0.0
  0
VERTEX
  5
418
100
AcDbEntity
  8
GG1
 62
     1
100
AcDbVertex
100
AcDb2dVertex
 10
0.8489
 20
-1.3197
 30
0.0
  0
VERTEX
  5
419
100
AcDbEntity
  8
GG1
 62
     1
100
AcDbVertex
100
AcDb2dVertex
 10
0.8632
 20
-1.3197
 30
0.0
  0
VERTEX
  5
41A
100
AcDbEntity
  8
GG1
 62
     1
100
AcDbVertex
100
AcDb2dVertex
 10
0.8727
 20
-1.315
 30
0.0
  0
VERTEX
  5
41B
100
AcDbEntity
  8
GG1
 62
     1
100
AcDbVertex
100
AcDb2dVertex
 10
0.8822
 20
-1.3055
 30
0.0
  0
SEQEND
  5
41C
100
AcDbEntity
  8
GG1
 62
     1
  0
POLYLINE
  5
41D
100
AcDbEntity
  8
GG1
 62
     1
100
AcDb2dPolyline
 66
     1
 10
0.0
 20
0.0
 30
0.0
  0
VERTEX
  5
41E
100
AcDbEntity
  8
GG1
 62
     1
100
AcDbVertex
100
AcDb2dVertex
 10
0.9089
 20
-1.2198
 30
0.0
  0
VERTEX
  5
41F
100
AcDbEntity
  8
GG1
 62
     1
100
AcDbVertex
100
AcDb2dVertex
 10
0.9089
 20
-1.3197
 30
0.0
  0
SEQEND
  5
420
100
AcDbEntity
  8
GG1
 62
     1
  0
POLYLINE
  5
421
100
AcDbEntity
  8
GG1
 62
     1
100
AcDb2dPolyline
 66
     1
 10
0.0
 20
0.0
 30
0.0
  0
VERTEX
  5
422
100
AcDbEntity
  8
GG1
 62
     1
100
AcDbVertex
100
AcDb2dVertex
 10
0.9089
 20
-1.2721
 30
0.0
  0
VERTEX
  5
423
100
AcDbEntity
  8
GG1
 62
     1
100
AcDbVertex
100
AcDb2dVertex
 10
0.9231
 20
-1.2578
 30
0.0
  0
VERTEX
  5
424
100
AcDbEntity
  8
GG1
 62
     1
100
AcDbVertex
100
AcDb2dVertex
 10
0.9327
 20
-1.2531
 30
0.0
  0
VERTEX
  5
425
100
AcDbEntity
  8
GG1
 62
     1
100
AcDbVertex
100
AcDb2dVertex
 10
0.947
 20
-1.2531
 30
0.0
  0
VERTEX
  5
426
100
AcDbEntity
  8
GG1
 62
     1
100
AcDbVertex
100
AcDb2dVertex
 10
0.9565
 20
-1.2578
 30
0.0
  0
VERTEX
  5
427
100
AcDbEntity
  8
GG1
 62
     1
100
AcDbVertex
100
AcDb2dVertex
 10
0.9612
 20
-1.2721
 30
0.0
  0
VERTEX
  5
428
100
AcDbEntity
  8
GG1
 62
     1
100
AcDbVertex
100
AcDb2dVertex
 10
0.9612
 20
-1.3197
 30
0.0
  0
SEQEND
  5
429
100
AcDbEntity
  8
GG1
 62
     1
  0
POLYLINE
  5
42A
100
AcDbEntity
  8
GG1
 62
     1
100
AcDb2dPolyline
 66
     1
 10
0.0
 20
0.0
 30
0.0
  0
VERTEX
  5
42B
100
AcDbEntity
  8
GG1
 62
     1
100
AcDbVertex
100
AcDb2dVertex
 10
1.0017
 20
-1.2198
 30
0.0
  0
VERTEX
  5
42C
100
AcDbEntity
  8
GG1
 62
     1
100
AcDbVertex
100
AcDb2dVertex
 10
1.0017
 20
-1.3007
 30
0.0
  0
VERTEX
  5
42D
100
AcDbEntity
  8
GG1
 62
     1
100
AcDbVertex
100
AcDb2dVertex
 10
1.0065
 20
-1.315
 30
0.0
  0
VERTEX
  5
42E
100
AcDbEntity
  8
GG1
 62
     1
100
AcDbVertex
100
AcDb2dVertex
 10
1.016
 20
-1.3197
 30
0.0
  0
VERTEX
  5
42F
100
AcDbEntity
  8
GG1
 62
     1
100
AcDbVertex
100
AcDb2dVertex
 10
1.0255
 20
-1.3197
 30
0.0
  0
SEQEND
  5
430
100
AcDbEntity
  8
GG1
 62
     1
  0
POLYLINE
  5
431
100
AcDbEntity
  8
GG1
 62
     1
100
AcDb2dPolyline
 66
     1
 10
0.0
 20
0.0
 30
0.0
  0
VERTEX
  5
432
100
AcDbEntity
  8
GG1
 62
     1
100
AcDbVertex
100
AcDb2dVertex
 10
0.9874
 20
-1.2531
 30
0.0
  0
VERTEX
  5
433
100
AcDbEntity
  8
GG1
 62
     1
100
AcDbVertex
100
AcDb2dVertex
 10
1.0207
 20
-1.2531
 30
0.0
  0
SEQEND
  5
434
100
AcDbEntity
  8
GG1
 62
     1
  0
POLYLINE
  5
435
100
AcDbEntity
  8
GG1
 62
     1
100
AcDb2dPolyline
 66
     1
 10
0.0
 20
0.0
 30
0.0
  0
VERTEX
  5
436
100
AcDbEntity
  8
GG1
 62
     1
100
AcDbVertex
100
AcDb2dVertex
 10
1.0445
 20
-1.2531
 30
0.0
  0
VERTEX
  5
437
100
AcDbEntity
  8
GG1
 62
     1
100
AcDbVertex
100
AcDb2dVertex
 10
1.0398
 20
-1.2578
 30
0.0
  0
VERTEX
  5
438
100
AcDbEntity
  8
GG1
 62
     1
100
AcDbVertex
100
AcDb2dVertex
 10
1.0445
 20
-1.2626
 30
0.0
  0
VERTEX
  5
439
100
AcDbEntity
  8
GG1
 62
     1
100
AcDbVertex
100
AcDb2dVertex
 10
1.0493
 20
-1.2578
 30
0.0
  0
VERTEX
  5
43A
100
AcDbEntity
  8
GG1
 62
     1
100
AcDbVertex
100
AcDb2dVertex
 10
1.0445
 20
-1.2531
 30
0.0
  0
SEQEND
  5
43B
100
AcDbEntity
  8
GG1
 62
     1
  0
POLYLINE
  5
43C
100
AcDbEntity
  8
GG1
 62
     1
100
AcDb2dPolyline
 66
     1
 10
0.0
 20
0.0
 30
0.0
  0
VERTEX
  5
43D
100
AcDbEntity
  8
GG1
 62
     1
100
AcDbVertex
100
AcDb2dVertex
 10
1.0445
 20
-1.3102
 30
0.0
  0
VERTEX
  5
43E
100
AcDbEntity
  8
GG1
 62
     1
100
AcDbVertex
100
AcDb2dVertex
 10
1.0398
 20
-1.315
 30
0.0
  0
VERTEX
  5
43F
100
AcDbEntity
  8
GG1
 62
     1
100
AcDbVertex
100
AcDb2dVertex
 10
1.0445
 20
-1.3197
 30
0.0
  0
VERTEX
  5
440
100
AcDbEntity
  8
GG1
 62
     1
100
AcDbVertex
100
AcDb2dVertex
 10
1.0493
 20
-1.315
 30
0.0
  0
VERTEX
  5
441
100
AcDbEntity
  8
GG1
 62
     1
100
AcDbVertex
100
AcDb2dVertex
 10
1.0445
 20
-1.3102
 30
0.0
  0
SEQEND
  5
442
100
AcDbEntity
  8
GG1
 62
     1
  0
POLYLINE
  5
443
100
AcDbEntity
  8
GG1
 62
     1
100
AcDb2dPolyline
 66
     1
 10
0.0
 20
0.0
 30
0.0
  0
VERTEX
  5
444
100
AcDbEntity
  8
GG1
 62
     1
100
AcDbVertex
100
AcDb2dVertex
 10
1.1545
 20
-1.2436
 30
0.0
  0
VERTEX
  5
445
100
AcDbEntity
  8
GG1
 62
     1
100
AcDbVertex
100
AcDb2dVertex
 10
1.1545
 20
-1.2388
 30
0.0
  0
VERTEX
  5
446
100
AcDbEntity
  8
GG1
 62
     1
100
AcDbVertex
100
AcDb2dVertex
 10
1.1593
 20
-1.2293
 30
0.0
  0
VERTEX
  5
447
100
AcDbEntity
  8
GG1
 62
     1
100
AcDbVertex
100
AcDb2dVertex
 10
1.164
 20
-1.2245
 30
0.0
  0
VERTEX
  5
448
100
AcDbEntity
  8
GG1
 62
     1
100
AcDbVertex
100
AcDb2dVertex
 10
1.1736
 20
-1.2198
 30
0.0
  0
VERTEX
  5
449
100
AcDbEntity
  8
GG1
 62
     1
100
AcDbVertex
100
AcDb2dVertex
 10
1.1926
 20
-1.2198
 30
0.0
  0
VERTEX
  5
44A
100
AcDbEntity
  8
GG1
 62
     1
100
AcDbVertex
100
AcDb2dVertex
 10
1.2021
 20
-1.2245
 30
0.0
  0
VERTEX
  5
44B
100
AcDbEntity
  8
GG1
 62
     1
100
AcDbVertex
100
AcDb2dVertex
 10
1.2069
 20
-1.2293
 30
0.0
  0
VERTEX
  5
44C
100
AcDbEntity
  8
GG1
 62
     1
100
AcDbVertex
100
AcDb2dVertex
 10
1.2117
 20
-1.2388
 30
0.0
  0
VERTEX
  5
44D
100
AcDbEntity
  8
GG1
 62
     1
100
AcDbVertex
100
AcDb2dVertex
 10
1.2117
 20
-1.2483
 30
0.0
  0
VERTEX
  5
44E
100
AcDbEntity
  8
GG1
 62
     1
100
AcDbVertex
100
AcDb2dVertex
 10
1.2069
 20
-1.2578
 30
0.0
  0
VERTEX
  5
44F
100
AcDbEntity
  8
GG1
 62
     1
100
AcDbVertex
100
AcDb2dVertex
 10
1.1974
 20
-1.2721
 30
0.0
  0
VERTEX
  5
450
100
AcDbEntity
  8
GG1
 62
     1
100
AcDbVertex
100
AcDb2dVertex
 10
1.1498
 20
-1.3197
 30
0.0
  0
VERTEX
  5
451
100
AcDbEntity
  8
GG1
 62
     1
100
AcDbVertex
100
AcDb2dVertex
 10
1.2164
 20
-1.3197
 30
0.0
  0
SEQEND
  5
452
100
AcDbEntity
  8
GG1
 62
     1
  0
POLYLINE
  5
453
100
AcDbEntity
  8
GG1
 62
     1
100
AcDb2dPolyline
 66
     1
 10
0.0
 20
0.0
 30
0.0
  0
VERTEX
  5
454
100
AcDbEntity
  8
GG1
 62
     1
100
AcDbVertex
100
AcDb2dVertex
 10
1.3412
 20
-1.2531
 30
0.0
  0
VERTEX
  5
455
100
AcDbEntity
  8
GG1
 62
     1
100
AcDbVertex
100
AcDb2dVertex
 10
1.3316
 20
-1.2578
 30
0.0
  0
VERTEX
  5
456
100
AcDbEntity
  8
GG1
 62
     1
100
AcDbVertex
100
AcDb2dVertex
 10
1.3221
 20
-1.2674
 30
0.0
  0
VERTEX
  5
457
100
AcDbEntity
  8
GG1
 62
     1
100
AcDbVertex
100
AcDb2dVertex
 10
1.3173
 20
-1.2817
 30
0.0
  0
VERTEX
  5
458
100
AcDbEntity
  8
GG1
 62
     1
100
AcDbVertex
100
AcDb2dVertex
 10
1.3173
 20
-1.2912
 30
0.0
  0
VERTEX
  5
459
100
AcDbEntity
  8
GG1
 62
     1
100
AcDbVertex
100
AcDb2dVertex
 10
1.3221
 20
-1.3055
 30
0.0
  0
VERTEX
  5
45A
100
AcDbEntity
  8
GG1
 62
     1
100
AcDbVertex
100
AcDb2dVertex
 10
1.3316
 20
-1.315
 30
0.0
  0
VERTEX
  5
45B
100
AcDbEntity
  8
GG1
 62
     1
100
AcDbVertex
100
AcDb2dVertex
 10
1.3412
 20
-1.3197
 30
0.0
  0
VERTEX
  5
45C
100
AcDbEntity
  8
GG1
 62
     1
100
AcDbVertex
100
AcDb2dVertex
 10
1.3554
 20
-1.3197
 30
0.0
  0
VERTEX
  5
45D
100
AcDbEntity
  8
GG1
 62
     1
100
AcDbVertex
100
AcDb2dVertex
 10
1.365
 20
-1.315
 30
0.0
  0
VERTEX
  5
45E
100
AcDbEntity
  8
GG1
 62
     1
100
AcDbVertex
100
AcDb2dVertex
 10
1.3745
 20
-1.3055
 30
0.0
  0
VERTEX
  5
45F
100
AcDbEntity
  8
GG1
 62
     1
100
AcDbVertex
100
AcDb2dVertex
 10
1.3792
 20
-1.2912
 30
0.0
  0
VERTEX
  5
460
100
AcDbEntity
  8
GG1
 62
     1
100
AcDbVertex
100
AcDb2dVertex
 10
1.3792
 20
-1.2817
 30
0.0
  0
VERTEX
  5
461
100
AcDbEntity
  8
GG1
 62
     1
100
AcDbVertex
100
AcDb2dVertex
 10
1.3745
 20
-1.2674
 30
0.0
  0
VERTEX
  5
462
100
AcDbEntity
  8
GG1
 62
     1
100
AcDbVertex
100
AcDb2dVertex
 10
1.365
 20
-1.2578
 30
0.0
  0
VERTEX
  5
463
100
AcDbEntity
  8
GG1
 62
     1
100
AcDbVertex
100
AcDb2dVertex
 10
1.3554
 20
-1.2531
 30
0.0
  0
VERTEX
  5
464
100
AcDbEntity
  8
GG1
 62
     1
100
AcDbVertex
100
AcDb2dVertex
 10
1.3412
 20
-1.2531
 30
0.0
  0
SEQEND
  5
465
100
AcDbEntity
  8
GG1
 62
     1
  0
POLYLINE
  5
466
100
AcDbEntity
  8
GG1
 62
     1
100
AcDb2dPolyline
 66
     1
 10
0.0
 20
0.0
 30
0.0
  0
VERTEX
  5
467
100
AcDbEntity
  8
GG1
 62
     1
100
AcDbVertex
100
AcDb2dVertex
 10
1.4535
 20
-1.2531
 30
0.0
  0
VERTEX
  5
468
100
AcDbEntity
  8
GG1
 62
     1
100
AcDbVertex
100
AcDb2dVertex
 10
1.4011
 20
-1.3197
 30
0.0
  0
SEQEND
  5
469
100
AcDbEntity
  8
GG1
 62
     1
  0
POLYLINE
  5
46A
100
AcDbEntity
  8
GG1
 62
     1
100
AcDb2dPolyline
 66
     1
 10
0.0
 20
0.0
 30
0.0
  0
VERTEX
  5
46B
100
AcDbEntity
  8
GG1
 62
     1
100
AcDbVertex
100
AcDb2dVertex
 10
1.4011
 20
-1.2531
 30
0.0
  0
VERTEX
  5
46C
100
AcDbEntity
  8
GG1
 62
     1
100
AcDbVertex
100
AcDb2dVertex
 10
1.4535
 20
-1.2531
 30
0.0
  0
SEQEND
  5
46D
100
AcDbEntity
  8
GG1
 62
     1
  0
POLYLINE
  5
46E
100
AcDbEntity
  8
GG1
 62
     1
100
AcDb2dPolyline
 66
     1
 10
0.0
 20
0.0
 30
0.0
  0
VERTEX
  5
46F
100
AcDbEntity
  8
GG1
 62
     1
100
AcDbVertex
100
AcDb2dVertex
 10
1.4011
 20
-1.3197
 30
0.0
  0
VERTEX
  5
470
100
AcDbEntity
  8
GG1
 62
     1
100
AcDbVertex
100
AcDb2dVertex
 10
1.4535
 20
-1.3197
 30
0.0
  0
SEQEND
  5
471
100
AcDbEntity
  8
GG1
 62
     1
  0
POLYLINE
  5
472
100
AcDbEntity
  8
GG1
 62
     1
100
AcDb2dPolyline
 66
     1
 10
0.0
 20
0.0
 30
0.0
  0
VERTEX
  5
473
100
AcDbEntity
  8
GG1
 62
     1
100
AcDbVertex
100
AcDb2dVertex
 10
1.4792
 20
-1.3102
 30
0.0
  0
VERTEX
  5
474
100
AcDbEntity
  8
GG1
 62
     1
100
AcDbVertex
100
AcDb2dVertex
 10
1.4745
 20
-1.315
 30
0.0
  0
VERTEX
  5
475
100
AcDbEntity
  8
GG1
 62
     1
100
AcDbVertex
100
AcDb2dVertex
 10
1.4792
 20
-1.3197
 30
0.0
  0
VERTEX
  5
476
100
AcDbEntity
  8
GG1
 62
     1
100
AcDbVertex
100
AcDb2dVertex
 10
1.484
 20
-1.315
 30
0.0
  0
VERTEX
  5
477
100
AcDbEntity
  8
GG1
 62
     1
100
AcDbVertex
100
AcDb2dVertex
 10
1.4792
 20
-1.3102
 30
0.0
  0
SEQEND
  5
478
100
AcDbEntity
  8
GG1
 62
     1
  0
POLYLINE
  5
479
100
AcDbEntity
  8
GG1
 62
     1
100
AcDb2dPolyline
 66
     1
 10
0.0
 20
0.0
 30
0.0
  0
VERTEX
  5
47A
100
AcDbEntity
  8
GG1
 62
     1
100
AcDbVertex
100
AcDb2dVertex
 10
0.05
 20
-1.0198
 30
0.0
  0
VERTEX
  5
47B
100
AcDbEntity
  8
GG1
 62
     1
100
AcDbVertex
100
AcDb2dVertex
 10
0.05
 20
-1.1197
 30
0.0
  0
SEQEND
  5
47C
100
AcDbEntity
  8
GG1
 62
     1
  0
POLYLINE
  5
47D
100
AcDbEntity
  8
GG1
 62
     1
100
AcDb2dPolyline
 66
     1
 10
0.0
 20
0.0
 30
0.0
  0
VERTEX
  5
47E
100
AcDbEntity
  8
GG1
 62
     1
100
AcDbVertex
100
AcDb2dVertex
 10
0.05
 20
-1.0198
 30
0.0
  0
VERTEX
  5
47F
100
AcDbEntity
  8
GG1
 62
     1
100
AcDbVertex
100
AcDb2dVertex
 10
0.0881
 20
-1.1197
 30
0.0
  0
SEQEND
  5
480
100
AcDbEntity
  8
GG1
 62
     1
  0
POLYLINE
  5
481
100
AcDbEntity
  8
GG1
 62
     1
100
AcDb2dPolyline
 66
     1
 10
0.0
 20
0.0
 30
0.0
  0
VERTEX
  5
482
100
AcDbEntity
  8
GG1
 62
     1
100
AcDbVertex
100
AcDb2dVertex
 10
0.1262
 20
-1.0198
 30
0.0
  0
VERTEX
  5
483
100
AcDbEntity
  8
GG1
 62
     1
100
AcDbVertex
100
AcDb2dVertex
 10
0.0881
 20
-1.1197
 30
0.0
  0
SEQEND
  5
484
100
AcDbEntity
  8
GG1
 62
     1
  0
POLYLINE
  5
485
100
AcDbEntity
  8
GG1
 62
     1
100
AcDb2dPolyline
 66
     1
 10
0.0
 20
0.0
 30
0.0
  0
VERTEX
  5
486
100
AcDbEntity
  8
GG1
 62
     1
100
AcDbVertex
100
AcDb2dVertex
 10
0.1262
 20
-1.0198
 30
0.0
  0
VERTEX
  5
487
100
AcDbEntity
  8
GG1
 62
     1
100
AcDbVertex
100
AcDb2dVertex
 10
0.1262
 20
-1.1197
 30
0.0
  0
SEQEND
  5
488
100
AcDbEntity
  8
GG1
 62
     1
  0
POLYLINE
  5
489
100
AcDbEntity
  8
GG1
 62
     1
100
AcDb2dPolyline
 66
     1
 10
0.0
 20
0.0
 30
0.0
  0
VERTEX
  5
48A
100
AcDbEntity
  8
GG1
 62
     1
100
AcDbVertex
100
AcDb2dVertex
 10
0.2119
 20
-1.0531
 30
0.0
  0
VERTEX
  5
48B
100
AcDbEntity
  8
GG1
 62
     1
100
AcDbVertex
100
AcDb2dVertex
 10
0.2119
 20
-1.1197
 30
0.0
  0
SEQEND
  5
48C
100
AcDbEntity
  8
GG1
 62
     1
  0
POLYLINE
  5
48D
100
AcDbEntity
  8
GG1
 62
     1
100
AcDb2dPolyline
 66
     1
 10
0.0
 20
0.0
 30
0.0
  0
VERTEX
  5
48E
100
AcDbEntity
  8
GG1
 62
     1
100
AcDbVertex
100
AcDb2dVertex
 10
0.2119
 20
-1.0674
 30
0.0
  0
VERTEX
  5
48F
100
AcDbEntity
  8
GG1
 62
     1
100
AcDbVertex
100
AcDb2dVertex
 10
0.2023
 20
-1.0578
 30
0.0
  0
VERTEX
  5
490
100
AcDbEntity
  8
GG1
 62
     1
100
AcDbVertex
100
AcDb2dVertex
 10
0.1928
 20
-1.0531
 30
0.0
  0
VERTEX
  5
491
100
AcDbEntity
  8
GG1
 62
     1
100
AcDbVertex
100
AcDb2dVertex
 10
0.1785
 20
-1.0531
 30
0.0
  0
VERTEX
  5
492
100
AcDbEntity
  8
GG1
 62
     1
100
AcDbVertex
100
AcDb2dVertex
 10
0.169
 20
-1.0578
 30
0.0
  0
VERTEX
  5
493
100
AcDbEntity
  8
GG1
 62
     1
100
AcDbVertex
100
AcDb2dVertex
 10
0.1595
 20
-1.0674
 30
0.0
  0
VERTEX
  5
494
100
AcDbEntity
  8
GG1
 62
     1
100
AcDbVertex
100
AcDb2dVertex
 10
0.1547
 20
-1.0817
 30
0.0
  0
VERTEX
  5
495
100
AcDbEntity
  8
GG1
 62
     1
100
AcDbVertex
100
AcDb2dVertex
 10
0.1547
 20
-1.0912
 30
0.0
  0
VERTEX
  5
496
100
AcDbEntity
  8
GG1
 62
     1
100
AcDbVertex
100
AcDb2dVertex
 10
0.1595
 20
-1.1055
 30
0.0
  0
VERTEX
  5
497
100
AcDbEntity
  8
GG1
 62
     1
100
AcDbVertex
100
AcDb2dVertex
 10
0.169
 20
-1.115
 30
0.0
  0
VERTEX
  5
498
100
AcDbEntity
  8
GG1
 62
     1
100
AcDbVertex
100
AcDb2dVertex
 10
0.1785
 20
-1.1197
 30
0.0
  0
VERTEX
  5
499
100
AcDbEntity
  8
GG1
 62
     1
100
AcDbVertex
100
AcDb2dVertex
 10
0.1928
 20
-1.1197
 30
0.0
  0
VERTEX
  5
49A
100
AcDbEntity
  8
GG1
 62
     1
100
AcDbVertex
100
AcDb2dVertex
 10
0.2023
 20
-1.115
 30
0.0
  0
VERTEX
  5
49B
100
AcDbEntity
  8
GG1
 62
     1
100
AcDbVertex
100
AcDb2dVertex
 10
0.2119
 20
-1.1055
 30
0.0
  0
SEQEND
  5
49C
100
AcDbEntity
  8
GG1
 62
     1
  0
POLYLINE
  5
49D
100
AcDbEntity
  8
GG1
 62
     1
100
AcDb2dPolyline
 66
     1
 10
0.0
 20
0.0
 30
0.0
  0
VERTEX
  5
49E
100
AcDbEntity
  8
GG1
 62
     1
100
AcDbVertex
100
AcDb2dVertex
 10
0.2528
 20
-1.0198
 30
0.0
  0
VERTEX
  5
49F
100
AcDbEntity
  8
GG1
 62
     1
100
AcDbVertex
100
AcDb2dVertex
 10
0.2528
 20
-1.1007
 30
0.0
  0
VERTEX
  5
4A0
100
AcDbEntity
  8
GG1
 62
     1
100
AcDbVertex
100
AcDb2dVertex
 10
0.2576
 20
-1.115
 30
0.0
  0
VERTEX
  5
4A1
100
AcDbEntity
  8
GG1
 62
     1
100
AcDbVertex
100
AcDb2dVertex
 10
0.2671
 20
-1.1197
 30
0.0
  0
VERTEX
  5
4A2
100
AcDbEntity
  8
GG1
 62
     1
100
AcDbVertex
100
AcDb2dVertex
 10
0.2766
 20
-1.1197
 30
0.0
  0
SEQEND
  5
4A3
100
AcDbEntity
  8
GG1
 62
     1
  0
POLYLINE
  5
4A4
100
AcDbEntity
  8
GG1
 62
     1
100
AcDb2dPolyline
 66
     1
 10
0.0
 20
0.0
 30
0.0
  0
VERTEX
  5
4A5
100
AcDbEntity
  8
GG1
 62
     1
100
AcDbVertex
100
AcDb2dVertex
 10
0.2385
 20
-1.0531
 30
0.0
  0
VERTEX
  5
4A6
100
AcDbEntity
  8
GG1
 62
     1
100
AcDbVertex
100
AcDb2dVertex
 10
0.2719
 20
-1.0531
 30
0.0
  0
SEQEND
  5
4A7
100
AcDbEntity
  8
GG1
 62
     1
  0
POLYLINE
  5
4A8
100
AcDbEntity
  8
GG1
 62
     1
100
AcDb2dPolyline
 66
     1
 10
0.0
 20
0.0
 30
0.0
  0
VERTEX
  5
4A9
100
AcDbEntity
  8
GG1
 62
     1
100
AcDbVertex
100
AcDb2dVertex
 10
0.2909
 20
-1.0817
 30
0.0
  0
VERTEX
  5
4AA
100
AcDbEntity
  8
GG1
 62
     1
100
AcDbVertex
100
AcDb2dVertex
 10
0.348
 20
-1.0817
 30
0.0
  0
VERTEX
  5
4AB
100
AcDbEntity
  8
GG1
 62
     1
100
AcDbVertex
100
AcDb2dVertex
 10
0.348
 20
-1.0721
 30
0.0
  0
VERTEX
  5
4AC
100
AcDbEntity
  8
GG1
 62
     1
100
AcDbVertex
100
AcDb2dVertex
 10
0.3433
 20
-1.0626
 30
0.0
  0
VERTEX
  5
4AD
100
AcDbEntity
  8
GG1
 62
     1
100
AcDbVertex
100
AcDb2dVertex
 10
0.3385
 20
-1.0578
 30
0.0
  0
VERTEX
  5
4AE
100
AcDbEntity
  8
GG1
 62
     1
100
AcDbVertex
100
AcDb2dVertex
 10
0.329
 20
-1.0531
 30
0.0
  0
VERTEX
  5
4AF
100
AcDbEntity
  8
GG1
 62
     1
100
AcDbVertex
100
AcDb2dVertex
 10
0.3147
 20
-1.0531
 30
0.0
  0
VERTEX
  5
4B0
100
AcDbEntity
  8
GG1
 62
     1
100
AcDbVertex
100
AcDb2dVertex
 10
0.3052
 20
-1.0578
 30
0.0
  0
VERTEX
  5
4B1
100
AcDbEntity
  8
GG1
 62
     1
100
AcDbVertex
100
AcDb2dVertex
 10
0.2957
 20
-1.0674
 30
0.0
  0
VERTEX
  5
4B2
100
AcDbEntity
  8
GG1
 62
     1
100
AcDbVertex
100
AcDb2dVertex
 10
0.2909
 20
-1.0817
 30
0.0
  0
VERTEX
  5
4B3
100
AcDbEntity
  8
GG1
 62
     1
100
AcDbVertex
100
AcDb2dVertex
 10
0.2909
 20
-1.0912
 30
0.0
  0
VERTEX
  5
4B4
100
AcDbEntity
  8
GG1
 62
     1
100
AcDbVertex
100
AcDb2dVertex
 10
0.2957
 20
-1.1055
 30
0.0
  0
VERTEX
  5
4B5
100
AcDbEntity
  8
GG1
 62
     1
100
AcDbVertex
100
AcDb2dVertex
 10
0.3052
 20
-1.115
 30
0.0
  0
VERTEX
  5
4B6
100
AcDbEntity
  8
GG1
 62
     1
100
AcDbVertex
100
AcDb2dVertex
 10
0.3147
 20
-1.1197
 30
0.0
  0
VERTEX
  5
4B7
100
AcDbEntity
  8
GG1
 62
     1
100
AcDbVertex
100
AcDb2dVertex
 10
0.329
 20
-1.1197
 30
0.0
  0
VERTEX
  5
4B8
100
AcDbEntity
  8
GG1
 62
     1
100
AcDbVertex
100
AcDb2dVertex
 10
0.3385
 20
-1.115
 30
0.0
  0
VERTEX
  5
4B9
100
AcDbEntity
  8
GG1
 62
     1
100
AcDbVertex
100
AcDb2dVertex
 10
0.348
 20
-1.1055
 30
0.0
  0
SEQEND
  5
4BA
100
AcDbEntity
  8
GG1
 62
     1
  0
POLYLINE
  5
4BB
100
AcDbEntity
  8
GG1
 62
     1
100
AcDb2dPolyline
 66
     1
 10
0.0
 20
0.0
 30
0.0
  0
VERTEX
  5
4BC
100
AcDbEntity
  8
GG1
 62
     1
100
AcDbVertex
100
AcDb2dVertex
 10
0.3695
 20
-1.0531
 30
0.0
  0
VERTEX
  5
4BD
100
AcDbEntity
  8
GG1
 62
     1
100
AcDbVertex
100
AcDb2dVertex
 10
0.3695
 20
-1.1197
 30
0.0
  0
SEQEND
  5
4BE
100
AcDbEntity
  8
GG1
 62
     1
  0
POLYLINE
  5
4BF
100
AcDbEntity
  8
GG1
 62
     1
100
AcDb2dPolyline
 66
     1
 10
0.0
 20
0.0
 30
0.0
  0
VERTEX
  5
4C0
100
AcDbEntity
  8
GG1
 62
     1
100
AcDbVertex
100
AcDb2dVertex
 10
0.3695
 20
-1.0817
 30
0.0
  0
VERTEX
  5
4C1
100
AcDbEntity
  8
GG1
 62
     1
100
AcDbVertex
100
AcDb2dVertex
 10
0.3742
 20
-1.0674
 30
0.0
  0
VERTEX
  5
4C2
100
AcDbEntity
  8
GG1
 62
     1
100
AcDbVertex
100
AcDb2dVertex
 10
0.3837
 20
-1.0578
 30
0.0
  0
VERTEX
  5
4C3
100
AcDbEntity
  8
GG1
 62
     1
100
AcDbVertex
100
AcDb2dVertex
 10
0.3933
 20
-1.0531
 30
0.0
  0
VERTEX
  5
4C4
100
AcDbEntity
  8
GG1
 62
     1
100
AcDbVertex
100
AcDb2dVertex
 10
0.4075
 20
-1.0531
 30
0.0
  0
SEQEND
  5
4C5
100
AcDbEntity
  8
GG1
 62
     1
  0
POLYLINE
  5
4C6
100
AcDbEntity
  8
GG1
 62
     1
100
AcDb2dPolyline
 66
     1
 10
0.0
 20
0.0
 30
0.0
  0
VERTEX
  5
4C7
100
AcDbEntity
  8
GG1
 62
     1
100
AcDbVertex
100
AcDb2dVertex
 10
0.4261
 20
-1.0198
 30
0.0
  0
VERTEX
  5
4C8
100
AcDbEntity
  8
GG1
 62
     1
100
AcDbVertex
100
AcDb2dVertex
 10
0.4309
 20
-1.0245
 30
0.0
  0
VERTEX
  5
4C9
100
AcDbEntity
  8
GG1
 62
     1
100
AcDbVertex
100
AcDb2dVertex
 10
0.4356
 20
-1.0198
 30
0.0
  0
VERTEX
  5
4CA
100
AcDbEntity
  8
GG1
 62
     1
100
AcDbVertex
100
AcDb2dVertex
 10
0.4309
 20
-1.015
 30
0.0
  0
VERTEX
  5
4CB
100
AcDbEntity
  8
GG1
 62
     1
100
AcDbVertex
100
AcDb2dVertex
 10
0.4261
 20
-1.0198
 30
0.0
  0
SEQEND
  5
4CC
100
AcDbEntity
  8
GG1
 62
     1
  0
POLYLINE
  5
4CD
100
AcDbEntity
  8
GG1
 62
     1
100
AcDb2dPolyline
 66
     1
 10
0.0
 20
0.0
 30
0.0
  0
VERTEX
  5
4CE
100
AcDbEntity
  8
GG1
 62
     1
100
AcDbVertex
100
AcDb2dVertex
 10
0.4309
 20
-1.0531
 30
0.0
  0
VERTEX
  5
4CF
100
AcDbEntity
  8
GG1
 62
     1
100
AcDbVertex
100
AcDb2dVertex
 10
0.4309
 20
-1.1197
 30
0.0
  0
SEQEND
  5
4D0
100
AcDbEntity
  8
GG1
 62
     1
  0
POLYLINE
  5
4D1
100
AcDbEntity
  8
GG1
 62
     1
100
AcDb2dPolyline
 66
     1
 10
0.0
 20
0.0
 30
0.0
  0
VERTEX
  5
4D2
100
AcDbEntity
  8
GG1
 62
     1
100
AcDbVertex
100
AcDb2dVertex
 10
0.5104
 20
-1.0531
 30
0.0
  0
VERTEX
  5
4D3
100
AcDbEntity
  8
GG1
 62
     1
100
AcDbVertex
100
AcDb2dVertex
 10
0.5104
 20
-1.1197
 30
0.0
  0
SEQEND
  5
4D4
100
AcDbEntity
  8
GG1
 62
     1
  0
POLYLINE
  5
4D5
100
AcDbEntity
  8
GG1
 62
     1
100
AcDb2dPolyline
 66
     1
 10
0.0
 20
0.0
 30
0.0
  0
VERTEX
  5
4D6
100
AcDbEntity
  8
GG1
 62
     1
100
AcDbVertex
100
AcDb2dVertex
 10
0.5104
 20
-1.0674
 30
0.0
  0
VERTEX
  5
4D7
100
AcDbEntity
  8
GG1
 62
     1
100
AcDbVertex
100
AcDb2dVertex
 10
0.5009
 20
-1.0578
 30
0.0
  0
VERTEX
  5
4D8
100
AcDbEntity
  8
GG1
 62
     1
100
AcDbVertex
100
AcDb2dVertex
 10
0.4913
 20
-1.0531
 30
0.0
  0
VERTEX
  5
4D9
100
AcDbEntity
  8
GG1
 62
     1
100
AcDbVertex
100
AcDb2dVertex
 10
0.4771
 20
-1.0531
 30
0.0
  0
VERTEX
  5
4DA
100
AcDbEntity
  8
GG1
 62
     1
100
AcDbVertex
100
AcDb2dVertex
 10
0.4675
 20
-1.0578
 30
0.0
  0
VERTEX
  5
4DB
100
AcDbEntity
  8
GG1
 62
     1
100
AcDbVertex
100
AcDb2dVertex
 10
0.458
 20
-1.0674
 30
0.0
  0
VERTEX
  5
4DC
100
AcDbEntity
  8
GG1
 62
     1
100
AcDbVertex
100
AcDb2dVertex
 10
0.4532
 20
-1.0817
 30
0.0
  0
VERTEX
  5
4DD
100
AcDbEntity
  8
GG1
 62
     1
100
AcDbVertex
100
AcDb2dVertex
 10
0.4532
 20
-1.0912
 30
0.0
  0
VERTEX
  5
4DE
100
AcDbEntity
  8
GG1
 62
     1
100
AcDbVertex
100
AcDb2dVertex
 10
0.458
 20
-1.1055
 30
0.0
  0
VERTEX
  5
4DF
100
AcDbEntity
  8
GG1
 62
     1
100
AcDbVertex
100
AcDb2dVertex
 10
0.4675
 20
-1.115
 30
0.0
  0
VERTEX
  5
4E0
100
AcDbEntity
  8
GG1
 62
     1
100
AcDbVertex
100
AcDb2dVertex
 10
0.4771
 20
-1.1197
 30
0.0
  0
VERTEX
  5
4E1
100
AcDbEntity
  8
GG1
 62
     1
100
AcDbVertex
100
AcDb2dVertex
 10
0.4913
 20
-1.1197
 30
0.0
  0
VERTEX
  5
4E2
100
AcDbEntity
  8
GG1
 62
     1
100
AcDbVertex
100
AcDb2dVertex
 10
0.5009
 20
-1.115
 30
0.0
  0
VERTEX
  5
4E3
100
AcDbEntity
  8
GG1
 62
     1
100
AcDbVertex
100
AcDb2dVertex
 10
0.5104
 20
-1.1055
 30
0.0
  0
SEQEND
  5
4E4
100
AcDbEntity
  8
GG1
 62
     1
  0
POLYLINE
  5
4E5
100
AcDbEntity
  8
GG1
 62
     1
100
AcDb2dPolyline
 66
     1
 10
0.0
 20
0.0
 30
0.0
  0
VERTEX
  5
4E6
100
AcDbEntity
  8
GG1
 62
     1
100
AcDbVertex
100
AcDb2dVertex
 10
0.537
 20
-1.0198
 30
0.0
  0
VERTEX
  5
4E7
100
AcDbEntity
  8
GG1
 62
     1
100
AcDbVertex
100
AcDb2dVertex
 10
0.537
 20
-1.1197
 30
0.0
  0
SEQEND
  5
4E8
100
AcDbEntity
  8
GG1
 62
     1
  0
POLYLINE
  5
4E9
100
AcDbEntity
  8
GG1
 62
     1
100
AcDb2dPolyline
 66
     1
 10
0.0
 20
0.0
 30
0.0
  0
VERTEX
  5
4EA
100
AcDbEntity
  8
GG1
 62
     1
100
AcDbVertex
100
AcDb2dVertex
 10
0.6508
 20
-1.0198
 30
0.0
  0
VERTEX
  5
4EB
100
AcDbEntity
  8
GG1
 62
     1
100
AcDbVertex
100
AcDb2dVertex
 10
0.6508
 20
-1.1007
 30
0.0
  0
VERTEX
  5
4EC
100
AcDbEntity
  8
GG1
 62
     1
100
AcDbVertex
100
AcDb2dVertex
 10
0.6556
 20
-1.115
 30
0.0
  0
VERTEX
  5
4ED
100
AcDbEntity
  8
GG1
 62
     1
100
AcDbVertex
100
AcDb2dVertex
 10
0.6651
 20
-1.1197
 30
0.0
  0
VERTEX
  5
4EE
100
AcDbEntity
  8
GG1
 62
     1
100
AcDbVertex
100
AcDb2dVertex
 10
0.6746
 20
-1.1197
 30
0.0
  0
SEQEND
  5
4EF
100
AcDbEntity
  8
GG1
 62
     1
  0
POLYLINE
  5
4F0
100
AcDbEntity
  8
GG1
 62
     1
100
AcDb2dPolyline
 66
     1
 10
0.0
 20
0.0
 30
0.0
  0
VERTEX
  5
4F1
100
AcDbEntity
  8
GG1
 62
     1
100
AcDbVertex
100
AcDb2dVertex
 10
0.6365
 20
-1.0531
 30
0.0
  0
VERTEX
  5
4F2
100
AcDbEntity
  8
GG1
 62
     1
100
AcDbVertex
100
AcDb2dVertex
 10
0.6699
 20
-1.0531
 30
0.0
  0
SEQEND
  5
4F3
100
AcDbEntity
  8
GG1
 62
     1
  0
POLYLINE
  5
4F4
100
AcDbEntity
  8
GG1
 62
     1
100
AcDb2dPolyline
 66
     1
 10
0.0
 20
0.0
 30
0.0
  0
VERTEX
  5
4F5
100
AcDbEntity
  8
GG1
 62
     1
100
AcDbVertex
100
AcDb2dVertex
 10
0.6937
 20
-1.0531
 30
0.0
  0
VERTEX
  5
4F6
100
AcDbEntity
  8
GG1
 62
     1
100
AcDbVertex
100
AcDb2dVertex
 10
0.7222
 20
-1.1197
 30
0.0
  0
SEQEND
  5
4F7
100
AcDbEntity
  8
GG1
 62
     1
  0
POLYLINE
  5
4F8
100
AcDbEntity
  8
GG1
 62
     1
100
AcDb2dPolyline
 66
     1
 10
0.0
 20
0.0
 30
0.0
  0
VERTEX
  5
4F9
100
AcDbEntity
  8
GG1
 62
     1
100
AcDbVertex
100
AcDb2dVertex
 10
0.7508
 20
-1.0531
 30
0.0
  0
VERTEX
  5
4FA
100
AcDbEntity
  8
GG1
 62
     1
100
AcDbVertex
100
AcDb2dVertex
 10
0.7222
 20
-1.1197
 30
0.0
  0
VERTEX
  5
4FB
100
AcDbEntity
  8
GG1
 62
     1
100
AcDbVertex
100
AcDb2dVertex
 10
0.7127
 20
-1.1388
 30
0.0
  0
VERTEX
  5
4FC
100
AcDbEntity
  8
GG1
 62
     1
100
AcDbVertex
100
AcDb2dVertex
 10
0.7032
 20
-1.1483
 30
0.0
  0
VERTEX
  5
4FD
100
AcDbEntity
  8
GG1
 62
     1
100
AcDbVertex
100
AcDb2dVertex
 10
0.6937
 20
-1.1531
 30
0.0
  0
VERTEX
  5
4FE
100
AcDbEntity
  8
GG1
 62
     1
100
AcDbVertex
100
AcDb2dVertex
 10
0.6889
 20
-1.1531
 30
0.0
  0
SEQEND
  5
4FF
100
AcDbEntity
  8
GG1
 62
     1
  0
POLYLINE
  5
500
100
AcDbEntity
  8
GG1
 62
     1
100
AcDb2dPolyline
 66
     1
 10
0.0
 20
0.0
 30
0.0
  0
VERTEX
  5
501
100
AcDbEntity
  8
GG1
 62
     1
100
AcDbVertex
100
AcDb2dVertex
 10
0.7675
 20
-1.0531
 30
0.0
  0
VERTEX
  5
502
100
AcDbEntity
  8
GG1
 62
     1
100
AcDbVertex
100
AcDb2dVertex
 10
0.7675
 20
-1.1531
 30
0.0
  0
SEQEND
  5
503
100
AcDbEntity
  8
GG1
 62
     1
  0
POLYLINE
  5
504
100
AcDbEntity
  8
GG1
 62
     1
100
AcDb2dPolyline
 66
     1
 10
0.0
 20
0.0
 30
0.0
  0
VERTEX
  5
505
100
AcDbEntity
  8
GG1
 62
     1
100
AcDbVertex
100
AcDb2dVertex
 10
0.7675
 20
-1.0674
 30
0.0
  0
VERTEX
  5
506
100
AcDbEntity
  8
GG1
 62
     1
100
AcDbVertex
100
AcDb2dVertex
 10
0.777
 20
-1.0578
 30
0.0
  0
VERTEX
  5
507
100
AcDbEntity
  8
GG1
 62
     1
100
AcDbVertex
100
AcDb2dVertex
 10
0.7865
 20
-1.0531
 30
0.0
  0
VERTEX
  5
508
100
AcDbEntity
  8
GG1
 62
     1
100
AcDbVertex
100
AcDb2dVertex
 10
0.8008
 20
-1.0531
 30
0.0
  0
VERTEX
  5
509
100
AcDbEntity
  8
GG1
 62
     1
100
AcDbVertex
100
AcDb2dVertex
 10
0.8103
 20
-1.0578
 30
0.0
  0
VERTEX
  5
50A
100
AcDbEntity
  8
GG1
 62
     1
100
AcDbVertex
100
AcDb2dVertex
 10
0.8198
 20
-1.0674
 30
0.0
  0
VERTEX
  5
50B
100
AcDbEntity
  8
GG1
 62
     1
100
AcDbVertex
100
AcDb2dVertex
 10
0.8246
 20
-1.0817
 30
0.0
  0
VERTEX
  5
50C
100
AcDbEntity
  8
GG1
 62
     1
100
AcDbVertex
100
AcDb2dVertex
 10
0.8246
 20
-1.0912
 30
0.0
  0
VERTEX
  5
50D
100
AcDbEntity
  8
GG1
 62
     1
100
AcDbVertex
100
AcDb2dVertex
 10
0.8198
 20
-1.1055
 30
0.0
  0
VERTEX
  5
50E
100
AcDbEntity
  8
GG1
 62
     1
100
AcDbVertex
100
AcDb2dVertex
 10
0.8103
 20
-1.115
 30
0.0
  0
VERTEX
  5
50F
100
AcDbEntity
  8
GG1
 62
     1
100
AcDbVertex
100
AcDb2dVertex
 10
0.8008
 20
-1.1197
 30
0.0
  0
VERTEX
  5
510
100
AcDbEntity
  8
GG1
 62
     1
100
AcDbVertex
100
AcDb2dVertex
 10
0.7865
 20
-1.1197
 30
0.0
  0
VERTEX
  5
511
100
AcDbEntity
  8
GG1
 62
     1
100
AcDbVertex
100
AcDb2dVertex
 10
0.777
 20
-1.115
 30
0.0
  0
VERTEX
  5
512
100
AcDbEntity
  8
GG1
 62
     1
100
AcDbVertex
100
AcDb2dVertex
 10
0.7675
 20
-1.1055
 30
0.0
  0
SEQEND
  5
513
100
AcDbEntity
  8
GG1
 62
     1
  0
POLYLINE
  5
514
100
AcDbEntity
  8
GG1
 62
     1
100
AcDb2dPolyline
 66
     1
 10
0.0
 20
0.0
 30
0.0
  0
VERTEX
  5
515
100
AcDbEntity
  8
GG1
 62
     1
100
AcDbVertex
100
AcDb2dVertex
 10
0.846
 20
-1.0817
 30
0.0
  0
VERTEX
  5
516
100
AcDbEntity
  8
GG1
 62
     1
100
AcDbVertex
100
AcDb2dVertex
 10
0.9032
 20
-1.0817
 30
0.0
  0
VERTEX
  5
517
100
AcDbEntity
  8
GG1
 62
     1
100
AcDbVertex
100
AcDb2dVertex
 10
0.9032
 20
-1.0721
 30
0.0
  0
VERTEX
  5
518
100
AcDbEntity
  8
GG1
 62
     1
100
AcDbVertex
100
AcDb2dVertex
 10
0.8984
 20
-1.0626
 30
0.0
  0
VERTEX
  5
519
100
AcDbEntity
  8
GG1
 62
     1
100
AcDbVertex
100
AcDb2dVertex
 10
0.8936
 20
-1.0578
 30
0.0
  0
VERTEX
  5
51A
100
AcDbEntity
  8
GG1
 62
     1
100
AcDbVertex
100
AcDb2dVertex
 10
0.8841
 20
-1.0531
 30
0.0
  0
VERTEX
  5
51B
100
AcDbEntity
  8
GG1
 62
     1
100
AcDbVertex
100
AcDb2dVertex
 10
0.8698
 20
-1.0531
 30
0.0
  0
VERTEX
  5
51C
100
AcDbEntity
  8
GG1
 62
     1
100
AcDbVertex
100
AcDb2dVertex
 10
0.8603
 20
-1.0578
 30
0.0
  0
VERTEX
  5
51D
100
AcDbEntity
  8
GG1
 62
     1
100
AcDbVertex
100
AcDb2dVertex
 10
0.8508
 20
-1.0674
 30
0.0
  0
VERTEX
  5
51E
100
AcDbEntity
  8
GG1
 62
     1
100
AcDbVertex
100
AcDb2dVertex
 10
0.846
 20
-1.0817
 30
0.0
  0
VERTEX
  5
51F
100
AcDbEntity
  8
GG1
 62
     1
100
AcDbVertex
100
AcDb2dVertex
 10
0.846
 20
-1.0912
 30
0.0
  0
VERTEX
  5
520
100
AcDbEntity
  8
GG1
 62
     1
100
AcDbVertex
100
AcDb2dVertex
 10
0.8508
 20
-1.1055
 30
0.0
  0
VERTEX
  5
521
100
AcDbEntity
  8
GG1
 62
     1
100
AcDbVertex
100
AcDb2dVertex
 10
0.8603
 20
-1.115
 30
0.0
  0
VERTEX
  5
522
100
AcDbEntity
  8
GG1
 62
     1
100
AcDbVertex
100
AcDb2dVertex
 10
0.8698
 20
-1.1197
 30
0.0
  0
VERTEX
  5
523
100
AcDbEntity
  8
GG1
 62
     1
100
AcDbVertex
100
AcDb2dVertex
 10
0.8841
 20
-1.1197
 30
0.0
  0
VERTEX
  5
524
100
AcDbEntity
  8
GG1
 62
     1
100
AcDbVertex
100
AcDb2dVertex
 10
0.8936
 20
-1.115
 30
0.0
  0
VERTEX
  5
525
100
AcDbEntity
  8
GG1
 62
     1
100
AcDbVertex
100
AcDb2dVertex
 10
0.9032
 20
-1.1055
 30
0.0
  0
SEQEND
  5
526
100
AcDbEntity
  8
GG1
 62
     1
  0
POLYLINE
  5
527
100
AcDbEntity
  8
GG1
 62
     1
100
AcDb2dPolyline
 66
     1
 10
0.0
 20
0.0
 30
0.0
  0
VERTEX
  5
528
100
AcDbEntity
  8
GG1
 62
     1
100
AcDbVertex
100
AcDb2dVertex
 10
0.9293
 20
-1.0531
 30
0.0
  0
VERTEX
  5
529
100
AcDbEntity
  8
GG1
 62
     1
100
AcDbVertex
100
AcDb2dVertex
 10
0.9246
 20
-1.0578
 30
0.0
  0
VERTEX
  5
52A
100
AcDbEntity
  8
GG1
 62
     1
100
AcDbVertex
100
AcDb2dVertex
 10
0.9293
 20
-1.0626
 30
0.0
  0
VERTEX
  5
52B
100
AcDbEntity
  8
GG1
 62
     1
100
AcDbVertex
100
AcDb2dVertex
 10
0.9341
 20
-1.0578
 30
0.0
  0
VERTEX
  5
52C
100
AcDbEntity
  8
GG1
 62
     1
100
AcDbVertex
100
AcDb2dVertex
 10
0.9293
 20
-1.0531
 30
0.0
  0
SEQEND
  5
52D
100
AcDbEntity
  8
GG1
 62
     1
  0
POLYLINE
  5
52E
100
AcDbEntity
  8
GG1
 62
     1
100
AcDb2dPolyline
 66
     1
 10
0.0
 20
0.0
 30
0.0
  0
VERTEX
  5
52F
100
AcDbEntity
  8
GG1
 62
     1
100
AcDbVertex
100
AcDb2dVertex
 10
0.9293
 20
-1.1102
 30
0.0
  0
VERTEX
  5
530
100
AcDbEntity
  8
GG1
 62
     1
100
AcDbVertex
100
AcDb2dVertex
 10
0.9246
 20
-1.115
 30
0.0
  0
VERTEX
  5
531
100
AcDbEntity
  8
GG1
 62
     1
100
AcDbVertex
100
AcDb2dVertex
 10
0.9293
 20
-1.1197
 30
0.0
  0
VERTEX
  5
532
100
AcDbEntity
  8
GG1
 62
     1
100
AcDbVertex
100
AcDb2dVertex
 10
0.9341
 20
-1.115
 30
0.0
  0
VERTEX
  5
533
100
AcDbEntity
  8
GG1
 62
     1
100
AcDbVertex
100
AcDb2dVertex
 10
0.9293
 20
-1.1102
 30
0.0
  0
SEQEND
  5
534
100
AcDbEntity
  8
GG1
 62
     1
  0
POLYLINE
  5
535
100
AcDbEntity
  8
GG1
 62
     1
100
AcDb2dPolyline
 66
     1
 10
0.0
 20
0.0
 30
0.0
  0
VERTEX
  5
536
100
AcDbEntity
  8
GG1
 62
     1
100
AcDbVertex
100
AcDb2dVertex
 10
1.0346
 20
-1.0198
 30
0.0
  0
VERTEX
  5
537
100
AcDbEntity
  8
GG1
 62
     1
100
AcDbVertex
100
AcDb2dVertex
 10
1.0346
 20
-1.1197
 30
0.0
  0
SEQEND
  5
538
100
AcDbEntity
  8
GG1
 62
     1
  0
POLYLINE
  5
539
100
AcDbEntity
  8
GG1
 62
     1
100
AcDb2dPolyline
 66
     1
 10
0.0
 20
0.0
 30
0.0
  0
VERTEX
  5
53A
100
AcDbEntity
  8
GG1
 62
     1
100
AcDbVertex
100
AcDb2dVertex
 10
1.0346
 20
-1.0198
 30
0.0
  0
VERTEX
  5
53B
100
AcDbEntity
  8
GG1
 62
     1
100
AcDbVertex
100
AcDb2dVertex
 10
1.0964
 20
-1.0198
 30
0.0
  0
SEQEND
  5
53C
100
AcDbEntity
  8
GG1
 62
     1
  0
POLYLINE
  5
53D
100
AcDbEntity
  8
GG1
 62
     1
100
AcDb2dPolyline
 66
     1
 10
0.0
 20
0.0
 30
0.0
  0
VERTEX
  5
53E
100
AcDbEntity
  8
GG1
 62
     1
100
AcDbVertex
100
AcDb2dVertex
 10
1.0346
 20
-1.0674
 30
0.0
  0
VERTEX
  5
53F
100
AcDbEntity
  8
GG1
 62
     1
100
AcDbVertex
100
AcDb2dVertex
 10
1.0726
 20
-1.0674
 30
0.0
  0
SEQEND
  5
540
100
AcDbEntity
  8
GG1
 62
     1
  0
POLYLINE
  5
541
100
AcDbEntity
  8
GG1
 62
     1
100
AcDb2dPolyline
 66
     1
 10
0.0
 20
0.0
 30
0.0
  0
VERTEX
  5
542
100
AcDbEntity
  8
GG1
 62
     1
100
AcDbVertex
100
AcDb2dVertex
 10
1.1079
 20
-1.0198
 30
0.0
  0
VERTEX
  5
543
100
AcDbEntity
  8
GG1
 62
     1
100
AcDbVertex
100
AcDb2dVertex
 10
1.1079
 20
-1.1197
 30
0.0
  0
SEQEND
  5
544
100
AcDbEntity
  8
GG1
 62
     1
  0
POLYLINE
  5
545
100
AcDbEntity
  8
GG1
 62
     1
100
AcDb2dPolyline
 66
     1
 10
0.0
 20
0.0
 30
0.0
  0
VERTEX
  5
546
100
AcDbEntity
  8
GG1
 62
     1
100
AcDbVertex
100
AcDb2dVertex
 10
1.1079
 20
-1.0198
 30
0.0
  0
VERTEX
  5
547
100
AcDbEntity
  8
GG1
 62
     1
100
AcDbVertex
100
AcDb2dVertex
 10
1.1507
 20
-1.0198
 30
0.0
  0
VERTEX
  5
548
100
AcDbEntity
  8
GG1
 62
     1
100
AcDbVertex
100
AcDb2dVertex
 10
1.165
 20
-1.0245
 30
0.0
  0
VERTEX
  5
549
100
AcDbEntity
  8
GG1
 62
     1
100
AcDbVertex
100
AcDb2dVertex
 10
1.1698
 20
-1.0293
 30
0.0
  0
VERTEX
  5
54A
100
AcDbEntity
  8
GG1
 62
     1
100
AcDbVertex
100
AcDb2dVertex
 10
1.1745
 20
-1.0388
 30
0.0
  0
VERTEX
  5
54B
100
AcDbEntity
  8
GG1
 62
     1
100
AcDbVertex
100
AcDb2dVertex
 10
1.1745
 20
-1.0483
 30
0.0
  0
VERTEX
  5
54C
100
AcDbEntity
  8
GG1
 62
     1
100
AcDbVertex
100
AcDb2dVertex
 10
1.1698
 20
-1.0578
 30
0.0
  0
VERTEX
  5
54D
100
AcDbEntity
  8
GG1
 62
     1
100
AcDbVertex
100
AcDb2dVertex
 10
1.165
 20
-1.0626
 30
0.0
  0
VERTEX
  5
54E
100
AcDbEntity
  8
GG1
 62
     1
100
AcDbVertex
100
AcDb2dVertex
 10
1.1507
 20
-1.0674
 30
0.0
  0
VERTEX
  5
54F
100
AcDbEntity
  8
GG1
 62
     1
100
AcDbVertex
100
AcDb2dVertex
 10
1.1079
 20
-1.0674
 30
0.0
  0
SEQEND
  5
550
100
AcDbEntity
  8
GG1
 62
     1
  0
POLYLINE
  5
551
100
AcDbEntity
  8
GG1
 62
     1
100
AcDb2dPolyline
 66
     1
 10
0.0
 20
0.0
 30
0.0
  0
VERTEX
  5
552
100
AcDbEntity
  8
GG1
 62
     1
100
AcDbVertex
100
AcDb2dVertex
 10
1.1412
 20
-1.0674
 30
0.0
  0
VERTEX
  5
553
100
AcDbEntity
  8
GG1
 62
     1
100
AcDbVertex
100
AcDb2dVertex
 10
1.1745
 20
-1.1197
 30
0.0
  0
SEQEND
  5
554
100
AcDbEntity
  8
GG1
 62
     1
  0
POLYLINE
  5
555
100
AcDbEntity
  8
GG1
 62
     1
100
AcDb2dPolyline
 66
     1
 10
0.0
 20
0.0
 30
0.0
  0
VERTEX
  5
556
100
AcDbEntity
  8
GG1
 62
     1
100
AcDbVertex
100
AcDb2dVertex
 10
1.2445
 20
-1.0198
 30
0.0
  0
VERTEX
  5
557
100
AcDbEntity
  8
GG1
 62
     1
100
AcDbVertex
100
AcDb2dVertex
 10
1.1969
 20
-1.0864
 30
0.0
  0
VERTEX
  5
558
100
AcDbEntity
  8
GG1
 62
     1
100
AcDbVertex
100
AcDb2dVertex
 10
1.2683
 20
-1.0864
 30
0.0
  0
SEQEND
  5
559
100
AcDbEntity
  8
GG1
 62
     1
  0
POLYLINE
  5
55A
100
AcDbEntity
  8
GG1
 62
     1
100
AcDb2dPolyline
 66
     1
 10
0.0
 20
0.0
 30
0.0
  0
VERTEX
  5
55B
100
AcDbEntity
  8
GG1
 62
     1
100
AcDbVertex
100
AcDb2dVertex
 10
1.2445
 20
-1.0198
 30
0.0
  0
VERTEX
  5
55C
100
AcDbEntity
  8
GG1
 62
     1
100
AcDbVertex
100
AcDb2dVertex
 10
1.2445
 20
-1.1197
 30
0.0
  0
SEQEND
  5
55D
100
AcDbEntity
  8
GG1
 62
     1
  0
POLYLINE
  5
55E
100
AcDbEntity
  8
GG1
 62
     1
100
AcDb2dPolyline
 66
     1
 10
0.0
 20
0.0
 30
0.0
  0
VERTEX
  5
55F
100
AcDbEntity
  8
GG1
 62
     1
100
AcDbVertex
100
AcDb2dVertex
 10
1.393
 20
-1.0198
 30
0.0
  0
VERTEX
  5
560
100
AcDbEntity
  8
GG1
 62
     1
100
AcDbVertex
100
AcDb2dVertex
 10
1.3788
 20
-1.0245
 30
0.0
  0
VERTEX
  5
561
100
AcDbEntity
  8
GG1
 62
     1
100
AcDbVertex
100
AcDb2dVertex
 10
1.3692
 20
-1.0388
 30
0.0
  0
VERTEX
  5
562
100
AcDbEntity
  8
GG1
 62
     1
100
AcDbVertex
100
AcDb2dVertex
 10
1.3645
 20
-1.0626
 30
0.0
  0
VERTEX
  5
563
100
AcDbEntity
  8
GG1
 62
     1
100
AcDbVertex
100
AcDb2dVertex
 10
1.3645
 20
-1.0769
 30
0.0
  0
VERTEX
  5
564
100
AcDbEntity
  8
GG1
 62
     1
100
AcDbVertex
100
AcDb2dVertex
 10
1.3692
 20
-1.1007
 30
0.0
  0
VERTEX
  5
565
100
AcDbEntity
  8
GG1
 62
     1
100
AcDbVertex
100
AcDb2dVertex
 10
1.3788
 20
-1.115
 30
0.0
  0
VERTEX
  5
566
100
AcDbEntity
  8
GG1
 62
     1
100
AcDbVertex
100
AcDb2dVertex
 10
1.393
 20
-1.1197
 30
0.0
  0
VERTEX
  5
567
100
AcDbEntity
  8
GG1
 62
     1
100
AcDbVertex
100
AcDb2dVertex
 10
1.4026
 20
-1.1197
 30
0.0
  0
VERTEX
  5
568
100
AcDbEntity
  8
GG1
 62
     1
100
AcDbVertex
100
AcDb2dVertex
 10
1.4168
 20
-1.115
 30
0.0
  0
VERTEX
  5
569
100
AcDbEntity
  8
GG1
 62
     1
100
AcDbVertex
100
AcDb2dVertex
 10
1.4264
 20
-1.1007
 30
0.0
  0
VERTEX
  5
56A
100
AcDbEntity
  8
GG1
 62
     1
100
AcDbVertex
100
AcDb2dVertex
 10
1.4311
 20
-1.0769
 30
0.0
  0
VERTEX
  5
56B
100
AcDbEntity
  8
GG1
 62
     1
100
AcDbVertex
100
AcDb2dVertex
 10
1.4311
 20
-1.0626
 30
0.0
  0
VERTEX
  5
56C
100
AcDbEntity
  8
GG1
 62
     1
100
AcDbVertex
100
AcDb2dVertex
 10
1.4264
 20
-1.0388
 30
0.0
  0
VERTEX
  5
56D
100
AcDbEntity
  8
GG1
 62
     1
100
AcDbVertex
100
AcDb2dVertex
 10
1.4168
 20
-1.0245
 30
0.0
  0
VERTEX
  5
56E
100
AcDbEntity
  8
GG1
 62
     1
100
AcDbVertex
100
AcDb2dVertex
 10
1.4026
 20
-1.0198
 30
0.0
  0
VERTEX
  5
56F
100
AcDbEntity
  8
GG1
 62
     1
100
AcDbVertex
100
AcDb2dVertex
 10
1.393
 20
-1.0198
 30
0.0
  0
SEQEND
  5
570
100
AcDbEntity
  8
GG1
 62
     1
  0
POLYLINE
  5
571
100
AcDbEntity
  8
GG1
 62
     1
100
AcDb2dPolyline
 66
     1
 10
0.0
 20
0.0
 30
0.0
  0
VERTEX
  5
572
100
AcDbEntity
  8
GG1
 62
     1
100
AcDbVertex
100
AcDb2dVertex
 10
1.4583
 20
-1.1102
 30
0.0
  0
VERTEX
  5
573
100
AcDbEntity
  8
GG1
 62
     1
100
AcDbVertex
100
AcDb2dVertex
 10
1.4535
 20
-1.115
 30
0.0
  0
VERTEX
  5
574
100
AcDbEntity
  8
GG1
 62
     1
100
AcDbVertex
100
AcDb2dVertex
 10
1.4583
 20
-1.1197
 30
0.0
  0
VERTEX
  5
575
100
AcDbEntity
  8
GG1
 62
     1
100
AcDbVertex
100
AcDb2dVertex
 10
1.463
 20
-1.115
 30
0.0
  0
VERTEX
  5
576
100
AcDbEntity
  8
GG1
 62
     1
100
AcDbVertex
100
AcDb2dVertex
 10
1.4583
 20
-1.1102
 30
0.0
  0
SEQEND
  5
577
100
AcDbEntity
  8
GG1
 62
     1
  0
POLYLINE
  5
578
100
AcDbEntity
  8
GG1
 62
     1
100
AcDb2dPolyline
 66
     1
 10
0.0
 20
0.0
 30
0.0
  0
VERTEX
  5
579
100
AcDbEntity
  8
GG1
 62
     1
100
AcDbVertex
100
AcDb2dVertex
 10
1.5135
 20
-1.0198
 30
0.0
  0
VERTEX
  5
57A
100
AcDbEntity
  8
GG1
 62
     1
100
AcDbVertex
100
AcDb2dVertex
 10
1.4992
 20
-1.0245
 30
0.0
  0
VERTEX
  5
57B
100
AcDbEntity
  8
GG1
 62
     1
100
AcDbVertex
100
AcDb2dVertex
 10
1.4897
 20
-1.0388
 30
0.0
  0
VERTEX
  5
57C
100
AcDbEntity
  8
GG1
 62
     1
100
AcDbVertex
100
AcDb2dVertex
 10
1.4849
 20
-1.0626
 30
0.0
  0
VERTEX
  5
57D
100
AcDbEntity
  8
GG1
 62
     1
100
AcDbVertex
100
AcDb2dVertex
 10
1.4849
 20
-1.0769
 30
0.0
  0
VERTEX
  5
57E
100
AcDbEntity
  8
GG1
 62
     1
100
AcDbVertex
100
AcDb2dVertex
 10
1.4897
 20
-1.1007
 30
0.0
  0
VERTEX
  5
57F
100
AcDbEntity
  8
GG1
 62
     1
100
AcDbVertex
100
AcDb2dVertex
 10
1.4992
 20
-1.115
 30
0.0
  0
VERTEX
  5
580
100
AcDbEntity
  8
GG1
 62
     1
100
AcDbVertex
100
AcDb2dVertex
 10
1.5135
 20
-1.1197
 30
0.0
  0
VERTEX
  5
581
100
AcDbEntity
  8
GG1
 62
     1
100
AcDbVertex
100
AcDb2dVertex
 10
1.523
 20
-1.1197
 30
0.0
  0
VERTEX
  5
582
100
AcDbEntity
  8
GG1
 62
     1
100
AcDbVertex
100
AcDb2dVertex
 10
1.5373
 20
-1.115
 30
0.0
  0
VERTEX
  5
583
100
AcDbEntity
  8
GG1
 62
     1
100
AcDbVertex
100
AcDb2dVertex
 10
1.5468
 20
-1.1007
 30
0.0
  0
VERTEX
  5
584
100
AcDbEntity
  8
GG1
 62
     1
100
AcDbVertex
100
AcDb2dVertex
 10
1.5516
 20
-1.0769
 30
0.0
  0
VERTEX
  5
585
100
AcDbEntity
  8
GG1
 62
     1
100
AcDbVertex
100
AcDb2dVertex
 10
1.5516
 20
-1.0626
 30
0.0
  0
VERTEX
  5
586
100
AcDbEntity
  8
GG1
 62
     1
100
AcDbVertex
100
AcDb2dVertex
 10
1.5468
 20
-1.0388
 30
0.0
  0
VERTEX
  5
587
100
AcDbEntity
  8
GG1
 62
     1
100
AcDbVertex
100
AcDb2dVertex
 10
1.5373
 20
-1.0245
 30
0.0
  0
VERTEX
  5
588
100
AcDbEntity
  8
GG1
 62
     1
100
AcDbVertex
100
AcDb2dVertex
 10
1.523
 20
-1.0198
 30
0.0
  0
VERTEX
  5
589
100
AcDbEntity
  8
GG1
 62
     1
100
AcDbVertex
100
AcDb2dVertex
 10
1.5135
 20
-1.0198
 30
0.0
  0
SEQEND
  5
58A
100
AcDbEntity
  8
GG1
 62
     1
  0
POLYLINE
  5
58B
100
AcDbEntity
  8
GG1
 62
     1
100
AcDb2dPolyline
 66
     1
 10
0.0
 20
0.0
 30
0.0
  0
VERTEX
  5
58C
100
AcDbEntity
  8
GG1
 62
     1
100
AcDbVertex
100
AcDb2dVertex
 10
1.6311
 20
-1.034
 30
0.0
  0
VERTEX
  5
58D
100
AcDbEntity
  8
GG1
 62
     1
100
AcDbVertex
100
AcDb2dVertex
 10
1.6263
 20
-1.0245
 30
0.0
  0
VERTEX
  5
58E
100
AcDbEntity
  8
GG1
 62
     1
100
AcDbVertex
100
AcDb2dVertex
 10
1.612
 20
-1.0198
 30
0.0
  0
VERTEX
  5
58F
100
AcDbEntity
  8
GG1
 62
     1
100
AcDbVertex
100
AcDb2dVertex
 10
1.6025
 20
-1.0198
 30
0.0
  0
VERTEX
  5
590
100
AcDbEntity
  8
GG1
 62
     1
100
AcDbVertex
100
AcDb2dVertex
 10
1.5882
 20
-1.0245
 30
0.0
  0
VERTEX
  5
591
100
AcDbEntity
  8
GG1
 62
     1
100
AcDbVertex
100
AcDb2dVertex
 10
1.5787
 20
-1.0388
 30
0.0
  0
VERTEX
  5
592
100
AcDbEntity
  8
GG1
 62
     1
100
AcDbVertex
100
AcDb2dVertex
 10
1.574
 20
-1.0626
 30
0.0
  0
VERTEX
  5
593
100
AcDbEntity
  8
GG1
 62
     1
100
AcDbVertex
100
AcDb2dVertex
 10
1.574
 20
-1.0864
 30
0.0
  0
VERTEX
  5
594
100
AcDbEntity
  8
GG1
 62
     1
100
AcDbVertex
100
AcDb2dVertex
 10
1.5787
 20
-1.1055
 30
0.0
  0
VERTEX
  5
595
100
AcDbEntity
  8
GG1
 62
     1
100
AcDbVertex
100
AcDb2dVertex
 10
1.5882
 20
-1.115
 30
0.0
  0
VERTEX
  5
596
100
AcDbEntity
  8
GG1
 62
     1
100
AcDbVertex
100
AcDb2dVertex
 10
1.6025
 20
-1.1197
 30
0.0
  0
VERTEX
  5
597
100
AcDbEntity
  8
GG1
 62
     1
100
AcDbVertex
100
AcDb2dVertex
 10
1.6073
 20
-1.1197
 30
0.0
  0
VERTEX
  5
598
100
AcDbEntity
  8
GG1
 62
     1
100
AcDbVertex
100
AcDb2dVertex
 10
1.6216
 20
-1.115
 30
0.0
  0
VERTEX
  5
599
100
AcDbEntity
  8
GG1
 62
     1
100
AcDbVertex
100
AcDb2dVertex
 10
1.6311
 20
-1.1055
 30
0.0
  0
VERTEX
  5
59A
100
AcDbEntity
  8
GG1
 62
     1
100
AcDbVertex
100
AcDb2dVertex
 10
1.6359
 20
-1.0912
 30
0.0
  0
VERTEX
  5
59B
100
AcDbEntity
  8
GG1
 62
     1
100
AcDbVertex
100
AcDb2dVertex
 10
1.6359
 20
-1.0864
 30
0.0
  0
VERTEX
  5
59C
100
AcDbEntity
  8
GG1
 62
     1
100
AcDbVertex
100
AcDb2dVertex
 10
1.6311
 20
-1.0721
 30
0.0
  0
VERTEX
  5
59D
100
AcDbEntity
  8
GG1
 62
     1
100
AcDbVertex
100
AcDb2dVertex
 10
1.6216
 20
-1.0626
 30
0.0
  0
VERTEX
  5
59E
100
AcDbEntity
  8
GG1
 62
     1
100
AcDbVertex
100
AcDb2dVertex
 10
1.6073
 20
-1.0578
 30
0.0
  0
VERTEX
  5
59F
100
AcDbEntity
  8
GG1
 62
     1
100
AcDbVertex
100
AcDb2dVertex
 10
1.6025
 20
-1.0578
 30
0.0
  0
VERTEX
  5
5A0
100
AcDbEntity
  8
GG1
 62
     1
100
AcDbVertex
100
AcDb2dVertex
 10
1.5882
 20
-1.0626
 30
0.0
  0
VERTEX
  5
5A1
100
AcDbEntity
  8
GG1
 62
     1
100
AcDbVertex
100
AcDb2dVertex
 10
1.5787
 20
-1.0721
 30
0.0
  0
VERTEX
  5
5A2
100
AcDbEntity
  8
GG1
 62
     1
100
AcDbVertex
100
AcDb2dVertex
 10
1.574
 20
-1.0864
 30
0.0
  0
SEQEND
  5
5A3
100
AcDbEntity
  8
GG1
 62
     1
  0
POLYLINE
  5
5A4
100
AcDbEntity
  8
GG1
 62
     1
100
AcDb2dPolyline
 66
     1
 10
0.0
 20
0.0
 30
0.0
  0
VERTEX
  5
5A5
100
AcDbEntity
  8
GG1
 62
     1
100
AcDbVertex
100
AcDb2dVertex
 10
1.6625
 20
-1.0436
 30
0.0
  0
VERTEX
  5
5A6
100
AcDbEntity
  8
GG1
 62
     1
100
AcDbVertex
100
AcDb2dVertex
 10
1.6625
 20
-1.0388
 30
0.0
  0
VERTEX
  5
5A7
100
AcDbEntity
  8
GG1
 62
     1
100
AcDbVertex
100
AcDb2dVertex
 10
1.6673
 20
-1.0293
 30
0.0
  0
VERTEX
  5
5A8
100
AcDbEntity
  8
GG1
 62
     1
100
AcDbVertex
100
AcDb2dVertex
 10
1.672
 20
-1.0245
 30
0.0
  0
VERTEX
  5
5A9
100
AcDbEntity
  8
GG1
 62
     1
100
AcDbVertex
100
AcDb2dVertex
 10
1.6816
 20
-1.0198
 30
0.0
  0
VERTEX
  5
5AA
100
AcDbEntity
  8
GG1
 62
     1
100
AcDbVertex
100
AcDb2dVertex
 10
1.7006
 20
-1.0198
 30
0.0
  0
VERTEX
  5
5AB
100
AcDbEntity
  8
GG1
 62
     1
100
AcDbVertex
100
AcDb2dVertex
 10
1.7101
 20
-1.0245
 30
0.0
  0
VERTEX
  5
5AC
100
AcDbEntity
  8
GG1
 62
     1
100
AcDbVertex
100
AcDb2dVertex
 10
1.7149
 20
-1.0293
 30
0.0
  0
VERTEX
  5
5AD
100
AcDbEntity
  8
GG1
 62
     1
100
AcDbVertex
100
AcDb2dVertex
 10
1.7196
 20
-1.0388
 30
0.0
  0
VERTEX
  5
5AE
100
AcDbEntity
  8
GG1
 62
     1
100
AcDbVertex
100
AcDb2dVertex
 10
1.7196
 20
-1.0483
 30
0.0
  0
VERTEX
  5
5AF
100
AcDbEntity
  8
GG1
 62
     1
100
AcDbVertex
100
AcDb2dVertex
 10
1.7149
 20
-1.0578
 30
0.0
  0
VERTEX
  5
5B0
100
AcDbEntity
  8
GG1
 62
     1
100
AcDbVertex
100
AcDb2dVertex
 10
1.7054
 20
-1.0721
 30
0.0
  0
VERTEX
  5
5B1
100
AcDbEntity
  8
GG1
 62
     1
100
AcDbVertex
100
AcDb2dVertex
 10
1.6578
 20
-1.1197
 30
0.0
  0
VERTEX
  5
5B2
100
AcDbEntity
  8
GG1
 62
     1
100
AcDbVertex
100
AcDb2dVertex
 10
1.7244
 20
-1.1197
 30
0.0
  0
SEQEND
  5
5B3
100
AcDbEntity
  8
GG1
 62
     1
  0
POLYLINE
  5
5B4
100
AcDbEntity
  8
GG1
 62
     1
100
AcDb2dPolyline
 66
     1
 10
0.0
 20
0.0
 30
0.0
  0
VERTEX
  5
5B5
100
AcDbEntity
  8
GG1
 62
     1
100
AcDbVertex
100
AcDb2dVertex
 10
1.7515
 20
-1.0198
 30
0.0
  0
VERTEX
  5
5B6
100
AcDbEntity
  8
GG1
 62
     1
100
AcDbVertex
100
AcDb2dVertex
 10
1.7468
 20
-1.0245
 30
0.0
  0
VERTEX
  5
5B7
100
AcDbEntity
  8
GG1
 62
     1
100
AcDbVertex
100
AcDb2dVertex
 10
1.7468
 20
-1.0531
 30
0.0
  0
SEQEND
  5
5B8
100
AcDbEntity
  8
GG1
 62
     1
  0
POLYLINE
  5
5B9
100
AcDbEntity
  8
GG1
 62
     1
100
AcDb2dPolyline
 66
     1
 10
0.0
 20
0.0
 30
0.0
  0
VERTEX
  5
5BA
100
AcDbEntity
  8
GG1
 62
     1
100
AcDbVertex
100
AcDb2dVertex
 10
1.7515
 20
-1.0245
 30
0.0
  0
VERTEX
  5
5BB
100
AcDbEntity
  8
GG1
 62
     1
100
AcDbVertex
100
AcDb2dVertex
 10
1.7468
 20
-1.0531
 30
0.0
  0
SEQEND
  5
5BC
100
AcDbEntity
  8
GG1
 62
     1
  0
POLYLINE
  5
5BD
100
AcDbEntity
  8
GG1
 62
     1
100
AcDb2dPolyline
 66
     1
 10
0.0
 20
0.0
 30
0.0
  0
VERTEX
  5
5BE
100
AcDbEntity
  8
GG1
 62
     1
100
AcDbVertex
100
AcDb2dVertex
 10
1.7515
 20
-1.0198
 30
0.0
  0
VERTEX
  5
5BF
100
AcDbEntity
  8
GG1
 62
     1
100
AcDbVertex
100
AcDb2dVertex
 10
1.7563
 20
-1.0245
 30
0.0
  0
VERTEX
  5
5C0
100
AcDbEntity
  8
GG1
 62
     1
100
AcDbVertex
100
AcDb2dVertex
 10
1.7468
 20
-1.0531
 30
0.0
  0
SEQEND
  5
5C1
100
AcDbEntity
  8
GG1
 62
     1
  0
POLYLINE
  5
5C2
100
AcDbEntity
  8
GG1
 62
     1
100
AcDb2dPolyline
 66
     1
 10
0.0
 20
0.0
 30
0.0
  0
VERTEX
  5
5C3
100
AcDbEntity
  8
GG1
 62
     1
100
AcDbVertex
100
AcDb2dVertex
 10
1.7944
 20
-1.0198
 30
0.0
  0
VERTEX
  5
5C4
100
AcDbEntity
  8
GG1
 62
     1
100
AcDbVertex
100
AcDb2dVertex
 10
1.7896
 20
-1.0245
 30
0.0
  0
VERTEX
  5
5C5
100
AcDbEntity
  8
GG1
 62
     1
100
AcDbVertex
100
AcDb2dVertex
 10
1.7896
 20
-1.0531
 30
0.0
  0
SEQEND
  5
5C6
100
AcDbEntity
  8
GG1
 62
     1
  0
POLYLINE
  5
5C7
100
AcDbEntity
  8
GG1
 62
     1
100
AcDb2dPolyline
 66
     1
 10
0.0
 20
0.0
 30
0.0
  0
VERTEX
  5
5C8
100
AcDbEntity
  8
GG1
 62
     1
100
AcDbVertex
100
AcDb2dVertex
 10
1.7944
 20
-1.0245
 30
0.0
  0
VERTEX
  5
5C9
100
AcDbEntity
  8
GG1
 62
     1
100
AcDbVertex
100
AcDb2dVertex
 10
1.7896
 20
-1.0531
 30
0.0
  0
SEQEND
  5
5CA
100
AcDbEntity
  8
GG1
 62
     1
  0
POLYLINE
  5
5CB
100
AcDbEntity
  8
GG1
 62
     1
100
AcDb2dPolyline
 66
     1
 10
0.0
 20
0.0
 30
0.0
  0
VERTEX
  5
5CC
100
AcDbEntity
  8
GG1
 62
     1
100
AcDbVertex
100
AcDb2dVertex
 10
1.7944
 20
-1.0198
 30
0.0
  0
VERTEX
  5
5CD
100
AcDbEntity
  8
GG1
 62
     1
100
AcDbVertex
100
AcDb2dVertex
 10
1.7991
 20
-1.0245
 30
0.0
  0
VERTEX
  5
5CE
100
AcDbEntity
  8
GG1
 62
     1
100
AcDbVertex
100
AcDb2dVertex
 10
1.7896
 20
-1.0531
 30
0.0
  0
SEQEND
  5
5CF
100
AcDbEntity
  8
GG1
 62
     1
  0
POLYLINE
  5
5D0
100
AcDbEntity
  8
GG1
 62
     1
100
AcDb2dPolyline
 66
     1
 10
0.0
 20
0.0
 30
0.0
  0
VERTEX
  5
5D1
100
AcDbEntity
  8
GG1
 62
     1
100
AcDbVertex
100
AcDb2dVertex
 10
0.1214
 20
-0.8436
 30
0.0
  0
VERTEX
  5
5D2
100
AcDbEntity
  8
GG1
 62
     1
100
AcDbVertex
100
AcDb2dVertex
 10
0.1167
 20
-0.834
 30
0.0
  0
VERTEX
  5
5D3
100
AcDbEntity
  8
GG1
 62
     1
100
AcDbVertex
100
AcDb2dVertex
 10
0.1071
 20
-0.8245
 30
0.0
  0
VERTEX
  5
5D4
100
AcDbEntity
  8
GG1
 62
     1
100
AcDbVertex
100
AcDb2dVertex
 10
0.0976
 20
-0.8198
 30
0.0
  0
VERTEX
  5
5D5
100
AcDbEntity
  8
GG1
 62
     1
100
AcDbVertex
100
AcDb2dVertex
 10
0.0786
 20
-0.8198
 30
0.0
  0
VERTEX
  5
5D6
100
AcDbEntity
  8
GG1
 62
     1
100
AcDbVertex
100
AcDb2dVertex
 10
0.069
 20
-0.8245
 30
0.0
  0
VERTEX
  5
5D7
100
AcDbEntity
  8
GG1
 62
     1
100
AcDbVertex
100
AcDb2dVertex
 10
0.0595
 20
-0.834
 30
0.0
  0
VERTEX
  5
5D8
100
AcDbEntity
  8
GG1
 62
     1
100
AcDbVertex
100
AcDb2dVertex
 10
0.0548
 20
-0.8436
 30
0.0
  0
VERTEX
  5
5D9
100
AcDbEntity
  8
GG1
 62
     1
100
AcDbVertex
100
AcDb2dVertex
 10
0.05
 20
-0.8578
 30
0.0
  0
VERTEX
  5
5DA
100
AcDbEntity
  8
GG1
 62
     1
100
AcDbVertex
100
AcDb2dVertex
 10
0.05
 20
-0.8817
 30
0.0
  0
VERTEX
  5
5DB
100
AcDbEntity
  8
GG1
 62
     1
100
AcDbVertex
100
AcDb2dVertex
 10
0.0548
 20
-0.8959
 30
0.0
  0
VERTEX
  5
5DC
100
AcDbEntity
  8
GG1
 62
     1
100
AcDbVertex
100
AcDb2dVertex
 10
0.0595
 20
-0.9055
 30
0.0
  0
VERTEX
  5
5DD
100
AcDbEntity
  8
GG1
 62
     1
100
AcDbVertex
100
AcDb2dVertex
 10
0.069
 20
-0.915
 30
0.0
  0
VERTEX
  5
5DE
100
AcDbEntity
  8
GG1
 62
     1
100
AcDbVertex
100
AcDb2dVertex
 10
0.0786
 20
-0.9197
 30
0.0
  0
VERTEX
  5
5DF
100
AcDbEntity
  8
GG1
 62
     1
100
AcDbVertex
100
AcDb2dVertex
 10
0.0976
 20
-0.9197
 30
0.0
  0
VERTEX
  5
5E0
100
AcDbEntity
  8
GG1
 62
     1
100
AcDbVertex
100
AcDb2dVertex
 10
0.1071
 20
-0.915
 30
0.0
  0
VERTEX
  5
5E1
100
AcDbEntity
  8
GG1
 62
     1
100
AcDbVertex
100
AcDb2dVertex
 10
0.1167
 20
-0.9055
 30
0.0
  0
VERTEX
  5
5E2
100
AcDbEntity
  8
GG1
 62
     1
100
AcDbVertex
100
AcDb2dVertex
 10
0.1214
 20
-0.8959
 30
0.0
  0
SEQEND
  5
5E3
100
AcDbEntity
  8
GG1
 62
     1
  0
POLYLINE
  5
5E4
100
AcDbEntity
  8
GG1
 62
     1
100
AcDb2dPolyline
 66
     1
 10
0.0
 20
0.0
 30
0.0
  0
VERTEX
  5
5E5
100
AcDbEntity
  8
GG1
 62
     1
100
AcDbVertex
100
AcDb2dVertex
 10
0.1733
 20
-0.8531
 30
0.0
  0
VERTEX
  5
5E6
100
AcDbEntity
  8
GG1
 62
     1
100
AcDbVertex
100
AcDb2dVertex
 10
0.1638
 20
-0.8578
 30
0.0
  0
VERTEX
  5
5E7
100
AcDbEntity
  8
GG1
 62
     1
100
AcDbVertex
100
AcDb2dVertex
 10
0.1543
 20
-0.8674
 30
0.0
  0
VERTEX
  5
5E8
100
AcDbEntity
  8
GG1
 62
     1
100
AcDbVertex
100
AcDb2dVertex
 10
0.1495
 20
-0.8817
 30
0.0
  0
VERTEX
  5
5E9
100
AcDbEntity
  8
GG1
 62
     1
100
AcDbVertex
100
AcDb2dVertex
 10
0.1495
 20
-0.8912
 30
0.0
  0
VERTEX
  5
5EA
100
AcDbEntity
  8
GG1
 62
     1
100
AcDbVertex
100
AcDb2dVertex
 10
0.1543
 20
-0.9055
 30
0.0
  0
VERTEX
  5
5EB
100
AcDbEntity
  8
GG1
 62
     1
100
AcDbVertex
100
AcDb2dVertex
 10
0.1638
 20
-0.915
 30
0.0
  0
VERTEX
  5
5EC
100
AcDbEntity
  8
GG1
 62
     1
100
AcDbVertex
100
AcDb2dVertex
 10
0.1733
 20
-0.9197
 30
0.0
  0
VERTEX
  5
5ED
100
AcDbEntity
  8
GG1
 62
     1
100
AcDbVertex
100
AcDb2dVertex
 10
0.1876
 20
-0.9197
 30
0.0
  0
VERTEX
  5
5EE
100
AcDbEntity
  8
GG1
 62
     1
100
AcDbVertex
100
AcDb2dVertex
 10
0.1971
 20
-0.915
 30
0.0
  0
VERTEX
  5
5EF
100
AcDbEntity
  8
GG1
 62
     1
100
AcDbVertex
100
AcDb2dVertex
 10
0.2066
 20
-0.9055
 30
0.0
  0
VERTEX
  5
5F0
100
AcDbEntity
  8
GG1
 62
     1
100
AcDbVertex
100
AcDb2dVertex
 10
0.2114
 20
-0.8912
 30
0.0
  0
VERTEX
  5
5F1
100
AcDbEntity
  8
GG1
 62
     1
100
AcDbVertex
100
AcDb2dVertex
 10
0.2114
 20
-0.8817
 30
0.0
  0
VERTEX
  5
5F2
100
AcDbEntity
  8
GG1
 62
     1
100
AcDbVertex
100
AcDb2dVertex
 10
0.2066
 20
-0.8674
 30
0.0
  0
VERTEX
  5
5F3
100
AcDbEntity
  8
GG1
 62
     1
100
AcDbVertex
100
AcDb2dVertex
 10
0.1971
 20
-0.8578
 30
0.0
  0
VERTEX
  5
5F4
100
AcDbEntity
  8
GG1
 62
     1
100
AcDbVertex
100
AcDb2dVertex
 10
0.1876
 20
-0.8531
 30
0.0
  0
VERTEX
  5
5F5
100
AcDbEntity
  8
GG1
 62
     1
100
AcDbVertex
100
AcDb2dVertex
 10
0.1733
 20
-0.8531
 30
0.0
  0
SEQEND
  5
5F6
100
AcDbEntity
  8
GG1
 62
     1
  0
POLYLINE
  5
5F7
100
AcDbEntity
  8
GG1
 62
     1
100
AcDb2dPolyline
 66
     1
 10
0.0
 20
0.0
 30
0.0
  0
VERTEX
  5
5F8
100
AcDbEntity
  8
GG1
 62
     1
100
AcDbVertex
100
AcDb2dVertex
 10
0.2333
 20
-0.8531
 30
0.0
  0
VERTEX
  5
5F9
100
AcDbEntity
  8
GG1
 62
     1
100
AcDbVertex
100
AcDb2dVertex
 10
0.2333
 20
-0.9531
 30
0.0
  0
SEQEND
  5
5FA
100
AcDbEntity
  8
GG1
 62
     1
  0
POLYLINE
  5
5FB
100
AcDbEntity
  8
GG1
 62
     1
100
AcDb2dPolyline
 66
     1
 10
0.0
 20
0.0
 30
0.0
  0
VERTEX
  5
5FC
100
AcDbEntity
  8
GG1
 62
     1
100
AcDbVertex
100
AcDb2dVertex
 10
0.2333
 20
-0.8674
 30
0.0
  0
VERTEX
  5
5FD
100
AcDbEntity
  8
GG1
 62
     1
100
AcDbVertex
100
AcDb2dVertex
 10
0.2428
 20
-0.8578
 30
0.0
  0
VERTEX
  5
5FE
100
AcDbEntity
  8
GG1
 62
     1
100
AcDbVertex
100
AcDb2dVertex
 10
0.2523
 20
-0.8531
 30
0.0
  0
VERTEX
  5
5FF
100
AcDbEntity
  8
GG1
 62
     1
100
AcDbVertex
100
AcDb2dVertex
 10
0.2666
 20
-0.8531
 30
0.0
  0
VERTEX
  5
600
100
AcDbEntity
  8
GG1
 62
     1
100
AcDbVertex
100
AcDb2dVertex
 10
0.2761
 20
-0.8578
 30
0.0
  0
VERTEX
  5
601
100
AcDbEntity
  8
GG1
 62
     1
100
AcDbVertex
100
AcDb2dVertex
 10
0.2857
 20
-0.8674
 30
0.0
  0
VERTEX
  5
602
100
AcDbEntity
  8
GG1
 62
     1
100
AcDbVertex
100
AcDb2dVertex
 10
0.2904
 20
-0.8817
 30
0.0
  0
VERTEX
  5
603
100
AcDbEntity
  8
GG1
 62
     1
100
AcDbVertex
100
AcDb2dVertex
 10
0.2904
 20
-0.8912
 30
0.0
  0
VERTEX
  5
604
100
AcDbEntity
  8
GG1
 62
     1
100
AcDbVertex
100
AcDb2dVertex
 10
0.2857
 20
-0.9055
 30
0.0
  0
VERTEX
  5
605
100
AcDbEntity
  8
GG1
 62
     1
100
AcDbVertex
100
AcDb2dVertex
 10
0.2761
 20
-0.915
 30
0.0
  0
VERTEX
  5
606
100
AcDbEntity
  8
GG1
 62
     1
100
AcDbVertex
100
AcDb2dVertex
 10
0.2666
 20
-0.9197
 30
0.0
  0
VERTEX
  5
607
100
AcDbEntity
  8
GG1
 62
     1
100
AcDbVertex
100
AcDb2dVertex
 10
0.2523
 20
-0.9197
 30
0.0
  0
VERTEX
  5
608
100
AcDbEntity
  8
GG1
 62
     1
100
AcDbVertex
100
AcDb2dVertex
 10
0.2428
 20
-0.915
 30
0.0
  0
VERTEX
  5
609
100
AcDbEntity
  8
GG1
 62
     1
100
AcDbVertex
100
AcDb2dVertex
 10
0.2333
 20
-0.9055
 30
0.0
  0
SEQEND
  5
60A
100
AcDbEntity
  8
GG1
 62
     1
  0
POLYLINE
  5
60B
100
AcDbEntity
  8
GG1
 62
     1
100
AcDb2dPolyline
 66
     1
 10
0.0
 20
0.0
 30
0.0
  0
VERTEX
  5
60C
100
AcDbEntity
  8
GG1
 62
     1
100
AcDbVertex
100
AcDb2dVertex
 10
0.3166
 20
-0.8531
 30
0.0
  0
VERTEX
  5
60D
100
AcDbEntity
  8
GG1
 62
     1
100
AcDbVertex
100
AcDb2dVertex
 10
0.3452
 20
-0.9197
 30
0.0
  0
SEQEND
  5
60E
100
AcDbEntity
  8
GG1
 62
     1
  0
POLYLINE
  5
60F
100
AcDbEntity
  8
GG1
 62
     1
100
AcDb2dPolyline
 66
     1
 10
0.0
 20
0.0
 30
0.0
  0
VERTEX
  5
610
100
AcDbEntity
  8
GG1
 62
     1
100
AcDbVertex
100
AcDb2dVertex
 10
0.3737
 20
-0.8531
 30
0.0
  0
VERTEX
  5
611
100
AcDbEntity
  8
GG1
 62
     1
100
AcDbVertex
100
AcDb2dVertex
 10
0.3452
 20
-0.9197
 30
0.0
  0
VERTEX
  5
612
100
AcDbEntity
  8
GG1
 62
     1
100
AcDbVertex
100
AcDb2dVertex
 10
0.3357
 20
-0.9388
 30
0.0
  0
VERTEX
  5
613
100
AcDbEntity
  8
GG1
 62
     1
100
AcDbVertex
100
AcDb2dVertex
 10
0.3261
 20
-0.9483
 30
0.0
  0
VERTEX
  5
614
100
AcDbEntity
  8
GG1
 62
     1
100
AcDbVertex
100
AcDb2dVertex
 10
0.3166
 20
-0.9531
 30
0.0
  0
VERTEX
  5
615
100
AcDbEntity
  8
GG1
 62
     1
100
AcDbVertex
100
AcDb2dVertex
 10
0.3118
 20
-0.9531
 30
0.0
  0
SEQEND
  5
616
100
AcDbEntity
  8
GG1
 62
     1
  0
POLYLINE
  5
617
100
AcDbEntity
  8
GG1
 62
     1
100
AcDb2dPolyline
 66
     1
 10
0.0
 20
0.0
 30
0.0
  0
VERTEX
  5
618
100
AcDbEntity
  8
GG1
 62
     1
100
AcDbVertex
100
AcDb2dVertex
 10
0.3904
 20
-0.8531
 30
0.0
  0
VERTEX
  5
619
100
AcDbEntity
  8
GG1
 62
     1
100
AcDbVertex
100
AcDb2dVertex
 10
0.3904
 20
-0.9197
 30
0.0
  0
SEQEND
  5
61A
100
AcDbEntity
  8
GG1
 62
     1
  0
POLYLINE
  5
61B
100
AcDbEntity
  8
GG1
 62
     1
100
AcDb2dPolyline
 66
     1
 10
0.0
 20
0.0
 30
0.0
  0
VERTEX
  5
61C
100
AcDbEntity
  8
GG1
 62
     1
100
AcDbVertex
100
AcDb2dVertex
 10
0.3904
 20
-0.8817
 30
0.0
  0
VERTEX
  5
61D
100
AcDbEntity
  8
GG1
 62
     1
100
AcDbVertex
100
AcDb2dVertex
 10
0.3952
 20
-0.8674
 30
0.0
  0
VERTEX
  5
61E
100
AcDbEntity
  8
GG1
 62
     1
100
AcDbVertex
100
AcDb2dVertex
 10
0.4047
 20
-0.8578
 30
0.0
  0
VERTEX
  5
61F
100
AcDbEntity
  8
GG1
 62
     1
100
AcDbVertex
100
AcDb2dVertex
 10
0.4142
 20
-0.8531
 30
0.0
  0
VERTEX
  5
620
100
AcDbEntity
  8
GG1
 62
     1
100
AcDbVertex
100
AcDb2dVertex
 10
0.4285
 20
-0.8531
 30
0.0
  0
SEQEND
  5
621
100
AcDbEntity
  8
GG1
 62
     1
  0
POLYLINE
  5
622
100
AcDbEntity
  8
GG1
 62
     1
100
AcDb2dPolyline
 66
     1
 10
0.0
 20
0.0
 30
0.0
  0
VERTEX
  5
623
100
AcDbEntity
  8
GG1
 62
     1
100
AcDbVertex
100
AcDb2dVertex
 10
0.4471
 20
-0.8198
 30
0.0
  0
VERTEX
  5
624
100
AcDbEntity
  8
GG1
 62
     1
100
AcDbVertex
100
AcDb2dVertex
 10
0.4518
 20
-0.8245
 30
0.0
  0
VERTEX
  5
625
100
AcDbEntity
  8
GG1
 62
     1
100
AcDbVertex
100
AcDb2dVertex
 10
0.4566
 20
-0.8198
 30
0.0
  0
VERTEX
  5
626
100
AcDbEntity
  8
GG1
 62
     1
100
AcDbVertex
100
AcDb2dVertex
 10
0.4518
 20
-0.815
 30
0.0
  0
VERTEX
  5
627
100
AcDbEntity
  8
GG1
 62
     1
100
AcDbVertex
100
AcDb2dVertex
 10
0.4471
 20
-0.8198
 30
0.0
  0
SEQEND
  5
628
100
AcDbEntity
  8
GG1
 62
     1
  0
POLYLINE
  5
629
100
AcDbEntity
  8
GG1
 62
     1
100
AcDb2dPolyline
 66
     1
 10
0.0
 20
0.0
 30
0.0
  0
VERTEX
  5
62A
100
AcDbEntity
  8
GG1
 62
     1
100
AcDbVertex
100
AcDb2dVertex
 10
0.4518
 20
-0.8531
 30
0.0
  0
VERTEX
  5
62B
100
AcDbEntity
  8
GG1
 62
     1
100
AcDbVertex
100
AcDb2dVertex
 10
0.4518
 20
-0.9197
 30
0.0
  0
SEQEND
  5
62C
100
AcDbEntity
  8
GG1
 62
     1
  0
POLYLINE
  5
62D
100
AcDbEntity
  8
GG1
 62
     1
100
AcDb2dPolyline
 66
     1
 10
0.0
 20
0.0
 30
0.0
  0
VERTEX
  5
62E
100
AcDbEntity
  8
GG1
 62
     1
100
AcDbVertex
100
AcDb2dVertex
 10
0.5313
 20
-0.8531
 30
0.0
  0
VERTEX
  5
62F
100
AcDbEntity
  8
GG1
 62
     1
100
AcDbVertex
100
AcDb2dVertex
 10
0.5313
 20
-0.9293
 30
0.0
  0
VERTEX
  5
630
100
AcDbEntity
  8
GG1
 62
     1
100
AcDbVertex
100
AcDb2dVertex
 10
0.5266
 20
-0.9435
 30
0.0
  0
VERTEX
  5
631
100
AcDbEntity
  8
GG1
 62
     1
100
AcDbVertex
100
AcDb2dVertex
 10
0.5218
 20
-0.9483
 30
0.0
  0
VERTEX
  5
632
100
AcDbEntity
  8
GG1
 62
     1
100
AcDbVertex
100
AcDb2dVertex
 10
0.5123
 20
-0.9531
 30
0.0
  0
VERTEX
  5
633
100
AcDbEntity
  8
GG1
 62
     1
100
AcDbVertex
100
AcDb2dVertex
 10
0.498
 20
-0.9531
 30
0.0
  0
VERTEX
  5
634
100
AcDbEntity
  8
GG1
 62
     1
100
AcDbVertex
100
AcDb2dVertex
 10
0.4885
 20
-0.9483
 30
0.0
  0
SEQEND
  5
635
100
AcDbEntity
  8
GG1
 62
     1
  0
POLYLINE
  5
636
100
AcDbEntity
  8
GG1
 62
     1
100
AcDb2dPolyline
 66
     1
 10
0.0
 20
0.0
 30
0.0
  0
VERTEX
  5
637
100
AcDbEntity
  8
GG1
 62
     1
100
AcDbVertex
100
AcDb2dVertex
 10
0.5313
 20
-0.8674
 30
0.0
  0
VERTEX
  5
638
100
AcDbEntity
  8
GG1
 62
     1
100
AcDbVertex
100
AcDb2dVertex
 10
0.5218
 20
-0.8578
 30
0.0
  0
VERTEX
  5
639
100
AcDbEntity
  8
GG1
 62
     1
100
AcDbVertex
100
AcDb2dVertex
 10
0.5123
 20
-0.8531
 30
0.0
  0
VERTEX
  5
63A
100
AcDbEntity
  8
GG1
 62
     1
100
AcDbVertex
100
AcDb2dVertex
 10
0.498
 20
-0.8531
 30
0.0
  0
VERTEX
  5
63B
100
AcDbEntity
  8
GG1
 62
     1
100
AcDbVertex
100
AcDb2dVertex
 10
0.4885
 20
-0.8578
 30
0.0
  0
VERTEX
  5
63C
100
AcDbEntity
  8
GG1
 62
     1
100
AcDbVertex
100
AcDb2dVertex
 10
0.479
 20
-0.8674
 30
0.0
  0
VERTEX
  5
63D
100
AcDbEntity
  8
GG1
 62
     1
100
AcDbVertex
100
AcDb2dVertex
 10
0.4742
 20
-0.8817
 30
0.0
  0
VERTEX
  5
63E
100
AcDbEntity
  8
GG1
 62
     1
100
AcDbVertex
100
AcDb2dVertex
 10
0.4742
 20
-0.8912
 30
0.0
  0
VERTEX
  5
63F
100
AcDbEntity
  8
GG1
 62
     1
100
AcDbVertex
100
AcDb2dVertex
 10
0.479
 20
-0.9055
 30
0.0
  0
VERTEX
  5
640
100
AcDbEntity
  8
GG1
 62
     1
100
AcDbVertex
100
AcDb2dVertex
 10
0.4885
 20
-0.915
 30
0.0
  0
VERTEX
  5
641
100
AcDbEntity
  8
GG1
 62
     1
100
AcDbVertex
100
AcDb2dVertex
 10
0.498
 20
-0.9197
 30
0.0
  0
VERTEX
  5
642
100
AcDbEntity
  8
GG1
 62
     1
100
AcDbVertex
100
AcDb2dVertex
 10
0.5123
 20
-0.9197
 30
0.0
  0
VERTEX
  5
643
100
AcDbEntity
  8
GG1
 62
     1
100
AcDbVertex
100
AcDb2dVertex
 10
0.5218
 20
-0.915
 30
0.0
  0
VERTEX
  5
644
100
AcDbEntity
  8
GG1
 62
     1
100
AcDbVertex
100
AcDb2dVertex
 10
0.5313
 20
-0.9055
 30
0.0
  0
SEQEND
  5
645
100
AcDbEntity
  8
GG1
 62
     1
  0
POLYLINE
  5
646
100
AcDbEntity
  8
GG1
 62
     1
100
AcDb2dPolyline
 66
     1
 10
0.0
 20
0.0
 30
0.0
  0
VERTEX
  5
647
100
AcDbEntity
  8
GG1
 62
     1
100
AcDbVertex
100
AcDb2dVertex
 10
0.558
 20
-0.8198
 30
0.0
  0
VERTEX
  5
648
100
AcDbEntity
  8
GG1
 62
     1
100
AcDbVertex
100
AcDb2dVertex
 10
0.558
 20
-0.9197
 30
0.0
  0
SEQEND
  5
649
100
AcDbEntity
  8
GG1
 62
     1
  0
POLYLINE
  5
64A
100
AcDbEntity
  8
GG1
 62
     1
100
AcDb2dPolyline
 66
     1
 10
0.0
 20
0.0
 30
0.0
  0
VERTEX
  5
64B
100
AcDbEntity
  8
GG1
 62
     1
100
AcDbVertex
100
AcDb2dVertex
 10
0.558
 20
-0.8721
 30
0.0
  0
VERTEX
  5
64C
100
AcDbEntity
  8
GG1
 62
     1
100
AcDbVertex
100
AcDb2dVertex
 10
0.5723
 20
-0.8578
 30
0.0
  0
VERTEX
  5
64D
100
AcDbEntity
  8
GG1
 62
     1
100
AcDbVertex
100
AcDb2dVertex
 10
0.5818
 20
-0.8531
 30
0.0
  0
VERTEX
  5
64E
100
AcDbEntity
  8
GG1
 62
     1
100
AcDbVertex
100
AcDb2dVertex
 10
0.5961
 20
-0.8531
 30
0.0
  0
VERTEX
  5
64F
100
AcDbEntity
  8
GG1
 62
     1
100
AcDbVertex
100
AcDb2dVertex
 10
0.6056
 20
-0.8578
 30
0.0
  0
VERTEX
  5
650
100
AcDbEntity
  8
GG1
 62
     1
100
AcDbVertex
100
AcDb2dVertex
 10
0.6104
 20
-0.8721
 30
0.0
  0
VERTEX
  5
651
100
AcDbEntity
  8
GG1
 62
     1
100
AcDbVertex
100
AcDb2dVertex
 10
0.6104
 20
-0.9197
 30
0.0
  0
SEQEND
  5
652
100
AcDbEntity
  8
GG1
 62
     1
  0
POLYLINE
  5
653
100
AcDbEntity
  8
GG1
 62
     1
100
AcDb2dPolyline
 66
     1
 10
0.0
 20
0.0
 30
0.0
  0
VERTEX
  5
654
100
AcDbEntity
  8
GG1
 62
     1
100
AcDbVertex
100
AcDb2dVertex
 10
0.6508
 20
-0.8198
 30
0.0
  0
VERTEX
  5
655
100
AcDbEntity
  8
GG1
 62
     1
100
AcDbVertex
100
AcDb2dVertex
 10
0.6508
 20
-0.9007
 30
0.0
  0
VERTEX
  5
656
100
AcDbEntity
  8
GG1
 62
     1
100
AcDbVertex
100
AcDb2dVertex
 10
0.6556
 20
-0.915
 30
0.0
  0
VERTEX
  5
657
100
AcDbEntity
  8
GG1
 62
     1
100
AcDbVertex
100
AcDb2dVertex
 10
0.6651
 20
-0.9197
 30
0.0
  0
VERTEX
  5
658
100
AcDbEntity
  8
GG1
 62
     1
100
AcDbVertex
100
AcDb2dVertex
 10
0.6746
 20
-0.9197
 30
0.0
  0
SEQEND
  5
659
100
AcDbEntity
  8
GG1
 62
     1
  0
POLYLINE
  5
65A
100
AcDbEntity
  8
GG1
 62
     1
100
AcDb2dPolyline
 66
     1
 10
0.0
 20
0.0
 30
0.0
  0
VERTEX
  5
65B
100
AcDbEntity
  8
GG1
 62
     1
100
AcDbVertex
100
AcDb2dVertex
 10
0.6365
 20
-0.8531
 30
0.0
  0
VERTEX
  5
65C
100
AcDbEntity
  8
GG1
 62
     1
100
AcDbVertex
100
AcDb2dVertex
 10
0.6699
 20
-0.8531
 30
0.0
  0
SEQEND
  5
65D
100
AcDbEntity
  8
GG1
 62
     1
  0
POLYLINE
  5
65E
100
AcDbEntity
  8
GG1
 62
     1
100
AcDb2dPolyline
 66
     1
 10
0.0
 20
0.0
 30
0.0
  0
VERTEX
  5
65F
100
AcDbEntity
  8
GG1
 62
     1
100
AcDbVertex
100
AcDb2dVertex
 10
0.7722
 20
-0.8436
 30
0.0
  0
VERTEX
  5
660
100
AcDbEntity
  8
GG1
 62
     1
100
AcDbVertex
100
AcDb2dVertex
 10
0.7722
 20
-0.8388
 30
0.0
  0
VERTEX
  5
661
100
AcDbEntity
  8
GG1
 62
     1
100
AcDbVertex
100
AcDb2dVertex
 10
0.777
 20
-0.8293
 30
0.0
  0
VERTEX
  5
662
100
AcDbEntity
  8
GG1
 62
     1
100
AcDbVertex
100
AcDb2dVertex
 10
0.7817
 20
-0.8245
 30
0.0
  0
VERTEX
  5
663
100
AcDbEntity
  8
GG1
 62
     1
100
AcDbVertex
100
AcDb2dVertex
 10
0.7913
 20
-0.8198
 30
0.0
  0
VERTEX
  5
664
100
AcDbEntity
  8
GG1
 62
     1
100
AcDbVertex
100
AcDb2dVertex
 10
0.8103
 20
-0.8198
 30
0.0
  0
VERTEX
  5
665
100
AcDbEntity
  8
GG1
 62
     1
100
AcDbVertex
100
AcDb2dVertex
 10
0.8198
 20
-0.8245
 30
0.0
  0
VERTEX
  5
666
100
AcDbEntity
  8
GG1
 62
     1
100
AcDbVertex
100
AcDb2dVertex
 10
0.8246
 20
-0.8293
 30
0.0
  0
VERTEX
  5
667
100
AcDbEntity
  8
GG1
 62
     1
100
AcDbVertex
100
AcDb2dVertex
 10
0.8294
 20
-0.8388
 30
0.0
  0
VERTEX
  5
668
100
AcDbEntity
  8
GG1
 62
     1
100
AcDbVertex
100
AcDb2dVertex
 10
0.8294
 20
-0.8483
 30
0.0
  0
VERTEX
  5
669
100
AcDbEntity
  8
GG1
 62
     1
100
AcDbVertex
100
AcDb2dVertex
 10
0.8246
 20
-0.8578
 30
0.0
  0
VERTEX
  5
66A
100
AcDbEntity
  8
GG1
 62
     1
100
AcDbVertex
100
AcDb2dVertex
 10
0.8151
 20
-0.8721
 30
0.0
  0
VERTEX
  5
66B
100
AcDbEntity
  8
GG1
 62
     1
100
AcDbVertex
100
AcDb2dVertex
 10
0.7675
 20
-0.9197
 30
0.0
  0
VERTEX
  5
66C
100
AcDbEntity
  8
GG1
 62
     1
100
AcDbVertex
100
AcDb2dVertex
 10
0.8341
 20
-0.9197
 30
0.0
  0
SEQEND
  5
66D
100
AcDbEntity
  8
GG1
 62
     1
  0
POLYLINE
  5
66E
100
AcDbEntity
  8
GG1
 62
     1
100
AcDb2dPolyline
 66
     1
 10
0.0
 20
0.0
 30
0.0
  0
VERTEX
  5
66F
100
AcDbEntity
  8
GG1
 62
     1
100
AcDbVertex
100
AcDb2dVertex
 10
0.8851
 20
-0.8198
 30
0.0
  0
VERTEX
  5
670
100
AcDbEntity
  8
GG1
 62
     1
100
AcDbVertex
100
AcDb2dVertex
 10
0.8708
 20
-0.8245
 30
0.0
  0
VERTEX
  5
671
100
AcDbEntity
  8
GG1
 62
     1
100
AcDbVertex
100
AcDb2dVertex
 10
0.8613
 20
-0.8388
 30
0.0
  0
VERTEX
  5
672
100
AcDbEntity
  8
GG1
 62
     1
100
AcDbVertex
100
AcDb2dVertex
 10
0.8565
 20
-0.8626
 30
0.0
  0
VERTEX
  5
673
100
AcDbEntity
  8
GG1
 62
     1
100
AcDbVertex
100
AcDb2dVertex
 10
0.8565
 20
-0.8769
 30
0.0
  0
VERTEX
  5
674
100
AcDbEntity
  8
GG1
 62
     1
100
AcDbVertex
100
AcDb2dVertex
 10
0.8613
 20
-0.9007
 30
0.0
  0
VERTEX
  5
675
100
AcDbEntity
  8
GG1
 62
     1
100
AcDbVertex
100
AcDb2dVertex
 10
0.8708
 20
-0.915
 30
0.0
  0
VERTEX
  5
676
100
AcDbEntity
  8
GG1
 62
     1
100
AcDbVertex
100
AcDb2dVertex
 10
0.8851
 20
-0.9197
 30
0.0
  0
VERTEX
  5
677
100
AcDbEntity
  8
GG1
 62
     1
100
AcDbVertex
100
AcDb2dVertex
 10
0.8946
 20
-0.9197
 30
0.0
  0
VERTEX
  5
678
100
AcDbEntity
  8
GG1
 62
     1
100
AcDbVertex
100
AcDb2dVertex
 10
0.9089
 20
-0.915
 30
0.0
  0
VERTEX
  5
679
100
AcDbEntity
  8
GG1
 62
     1
100
AcDbVertex
100
AcDb2dVertex
 10
0.9184
 20
-0.9007
 30
0.0
  0
VERTEX
  5
67A
100
AcDbEntity
  8
GG1
 62
     1
100
AcDbVertex
100
AcDb2dVertex
 10
0.9231
 20
-0.8769
 30
0.0
  0
VERTEX
  5
67B
100
AcDbEntity
  8
GG1
 62
     1
100
AcDbVertex
100
AcDb2dVertex
 10
0.9231
 20
-0.8626
 30
0.0
  0
VERTEX
  5
67C
100
AcDbEntity
  8
GG1
 62
     1
100
AcDbVertex
100
AcDb2dVertex
 10
0.9184
 20
-0.8388
 30
0.0
  0
VERTEX
  5
67D
100
AcDbEntity
  8
GG1
 62
     1
100
AcDbVertex
100
AcDb2dVertex
 10
0.9089
 20
-0.8245
 30
0.0
  0
VERTEX
  5
67E
100
AcDbEntity
  8
GG1
 62
     1
100
AcDbVertex
100
AcDb2dVertex
 10
0.8946
 20
-0.8198
 30
0.0
  0
VERTEX
  5
67F
100
AcDbEntity
  8
GG1
 62
     1
100
AcDbVertex
100
AcDb2dVertex
 10
0.8851
 20
-0.8198
 30
0.0
  0
SEQEND
  5
680
100
AcDbEntity
  8
GG1
 62
     1
  0
POLYLINE
  5
681
100
AcDbEntity
  8
GG1
 62
     1
100
AcDb2dPolyline
 66
     1
 10
0.0
 20
0.0
 30
0.0
  0
VERTEX
  5
682
100
AcDbEntity
  8
GG1
 62
     1
100
AcDbVertex
100
AcDb2dVertex
 10
0.9741
 20
-0.8198
 30
0.0
  0
VERTEX
  5
683
100
AcDbEntity
  8
GG1
 62
     1
100
AcDbVertex
100
AcDb2dVertex
 10
0.9598
 20
-0.8245
 30
0.0
  0
VERTEX
  5
684
100
AcDbEntity
  8
GG1
 62
     1
100
AcDbVertex
100
AcDb2dVertex
 10
0.9503
 20
-0.8388
 30
0.0
  0
VERTEX
  5
685
100
AcDbEntity
  8
GG1
 62
     1
100
AcDbVertex
100
AcDb2dVertex
 10
0.9455
 20
-0.8626
 30
0.0
  0
VERTEX
  5
686
100
AcDbEntity
  8
GG1
 62
     1
100
AcDbVertex
100
AcDb2dVertex
 10
0.9455
 20
-0.8769
 30
0.0
  0
VERTEX
  5
687
100
AcDbEntity
  8
GG1
 62
     1
100
AcDbVertex
100
AcDb2dVertex
 10
0.9503
 20
-0.9007
 30
0.0
  0
VERTEX
  5
688
100
AcDbEntity
  8
GG1
 62
     1
100
AcDbVertex
100
AcDb2dVertex
 10
0.9598
 20
-0.915
 30
0.0
  0
VERTEX
  5
689
100
AcDbEntity
  8
GG1
 62
     1
100
AcDbVertex
100
AcDb2dVertex
 10
0.9741
 20
-0.9197
 30
0.0
  0
VERTEX
  5
68A
100
AcDbEntity
  8
GG1
 62
     1
100
AcDbVertex
100
AcDb2dVertex
 10
0.9836
 20
-0.9197
 30
0.0
  0
VERTEX
  5
68B
100
AcDbEntity
  8
GG1
 62
     1
100
AcDbVertex
100
AcDb2dVertex
 10
0.9979
 20
-0.915
 30
0.0
  0
VERTEX
  5
68C
100
AcDbEntity
  8
GG1
 62
     1
100
AcDbVertex
100
AcDb2dVertex
 10
1.0074
 20
-0.9007
 30
0.0
  0
VERTEX
  5
68D
100
AcDbEntity
  8
GG1
 62
     1
100
AcDbVertex
100
AcDb2dVertex
 10
1.0122
 20
-0.8769
 30
0.0
  0
VERTEX
  5
68E
100
AcDbEntity
  8
GG1
 62
     1
100
AcDbVertex
100
AcDb2dVertex
 10
1.0122
 20
-0.8626
 30
0.0
  0
VERTEX
  5
68F
100
AcDbEntity
  8
GG1
 62
     1
100
AcDbVertex
100
AcDb2dVertex
 10
1.0074
 20
-0.8388
 30
0.0
  0
VERTEX
  5
690
100
AcDbEntity
  8
GG1
 62
     1
100
AcDbVertex
100
AcDb2dVertex
 10
0.9979
 20
-0.8245
 30
0.0
  0
VERTEX
  5
691
100
AcDbEntity
  8
GG1
 62
     1
100
AcDbVertex
100
AcDb2dVertex
 10
0.9836
 20
-0.8198
 30
0.0
  0
VERTEX
  5
692
100
AcDbEntity
  8
GG1
 62
     1
100
AcDbVertex
100
AcDb2dVertex
 10
0.9741
 20
-0.8198
 30
0.0
  0
SEQEND
  5
693
100
AcDbEntity
  8
GG1
 62
     1
  0
POLYLINE
  5
694
100
AcDbEntity
  8
GG1
 62
     1
100
AcDb2dPolyline
 66
     1
 10
0.0
 20
0.0
 30
0.0
  0
VERTEX
  5
695
100
AcDbEntity
  8
GG1
 62
     1
100
AcDbVertex
100
AcDb2dVertex
 10
1.0917
 20
-0.834
 30
0.0
  0
VERTEX
  5
696
100
AcDbEntity
  8
GG1
 62
     1
100
AcDbVertex
100
AcDb2dVertex
 10
1.0869
 20
-0.8245
 30
0.0
  0
VERTEX
  5
697
100
AcDbEntity
  8
GG1
 62
     1
100
AcDbVertex
100
AcDb2dVertex
 10
1.0726
 20
-0.8198
 30
0.0
  0
VERTEX
  5
698
100
AcDbEntity
  8
GG1
 62
     1
100
AcDbVertex
100
AcDb2dVertex
 10
1.0631
 20
-0.8198
 30
0.0
  0
VERTEX
  5
699
100
AcDbEntity
  8
GG1
 62
     1
100
AcDbVertex
100
AcDb2dVertex
 10
1.0488
 20
-0.8245
 30
0.0
  0
VERTEX
  5
69A
100
AcDbEntity
  8
GG1
 62
     1
100
AcDbVertex
100
AcDb2dVertex
 10
1.0393
 20
-0.8388
 30
0.0
  0
VERTEX
  5
69B
100
AcDbEntity
  8
GG1
 62
     1
100
AcDbVertex
100
AcDb2dVertex
 10
1.0346
 20
-0.8626
 30
0.0
  0
VERTEX
  5
69C
100
AcDbEntity
  8
GG1
 62
     1
100
AcDbVertex
100
AcDb2dVertex
 10
1.0346
 20
-0.8864
 30
0.0
  0
VERTEX
  5
69D
100
AcDbEntity
  8
GG1
 62
     1
100
AcDbVertex
100
AcDb2dVertex
 10
1.0393
 20
-0.9055
 30
0.0
  0
VERTEX
  5
69E
100
AcDbEntity
  8
GG1
 62
     1
100
AcDbVertex
100
AcDb2dVertex
 10
1.0488
 20
-0.915
 30
0.0
  0
VERTEX
  5
69F
100
AcDbEntity
  8
GG1
 62
     1
100
AcDbVertex
100
AcDb2dVertex
 10
1.0631
 20
-0.9197
 30
0.0
  0
VERTEX
  5
6A0
100
AcDbEntity
  8
GG1
 62
     1
100
AcDbVertex
100
AcDb2dVertex
 10
1.0679
 20
-0.9197
 30
0.0
  0
VERTEX
  5
6A1
100
AcDbEntity
  8
GG1
 62
     1
100
AcDbVertex
100
AcDb2dVertex
 10
1.0822
 20
-0.915
 30
0.0
  0
VERTEX
  5
6A2
100
AcDbEntity
  8
GG1
 62
     1
100
AcDbVertex
100
AcDb2dVertex
 10
1.0917
 20
-0.9055
 30
0.0
  0
VERTEX
  5
6A3
100
AcDbEntity
  8
GG1
 62
     1
100
AcDbVertex
100
AcDb2dVertex
 10
1.0964
 20
-0.8912
 30
0.0
  0
VERTEX
  5
6A4
100
AcDbEntity
  8
GG1
 62
     1
100
AcDbVertex
100
AcDb2dVertex
 10
1.0964
 20
-0.8864
 30
0.0
  0
VERTEX
  5
6A5
100
AcDbEntity
  8
GG1
 62
     1
100
AcDbVertex
100
AcDb2dVertex
 10
1.0917
 20
-0.8721
 30
0.0
  0
VERTEX
  5
6A6
100
AcDbEntity
  8
GG1
 62
     1
100
AcDbVertex
100
AcDb2dVertex
 10
1.0822
 20
-0.8626
 30
0.0
  0
VERTEX
  5
6A7
100
AcDbEntity
  8
GG1
 62
     1
100
AcDbVertex
100
AcDb2dVertex
 10
1.0679
 20
-0.8578
 30
0.0
  0
VERTEX
  5
6A8
100
AcDbEntity
  8
GG1
 62
     1
100
AcDbVertex
100
AcDb2dVertex
 10
1.0631
 20
-0.8578
 30
0.0
  0
VERTEX
  5
6A9
100
AcDbEntity
  8
GG1
 62
     1
100
AcDbVertex
100
AcDb2dVertex
 10
1.0488
 20
-0.8626
 30
0.0
  0
VERTEX
  5
6AA
100
AcDbEntity
  8
GG1
 62
     1
100
AcDbVertex
100
AcDb2dVertex
 10
1.0393
 20
-0.8721
 30
0.0
  0
VERTEX
  5
6AB
100
AcDbEntity
  8
GG1
 62
     1
100
AcDbVertex
100
AcDb2dVertex
 10
1.0346
 20
-0.8864
 30
0.0
  0
SEQEND
  5
6AC
100
AcDbEntity
  8
GG1
 62
     1
  0
POLYLINE
  5
6AD
100
AcDbEntity
  8
GG1
 62
     1
100
AcDb2dPolyline
 66
     1
 10
0.0
 20
0.0
 30
0.0
  0
VERTEX
  5
6AE
100
AcDbEntity
  8
GG1
 62
     1
100
AcDbVertex
100
AcDb2dVertex
 10
1.1969
 20
-0.8721
 30
0.0
  0
VERTEX
  5
6AF
100
AcDbEntity
  8
GG1
 62
     1
100
AcDbVertex
100
AcDb2dVertex
 10
1.2397
 20
-0.8721
 30
0.0
  0
VERTEX
  5
6B0
100
AcDbEntity
  8
GG1
 62
     1
100
AcDbVertex
100
AcDb2dVertex
 10
1.254
 20
-0.8674
 30
0.0
  0
VERTEX
  5
6B1
100
AcDbEntity
  8
GG1
 62
     1
100
AcDbVertex
100
AcDb2dVertex
 10
1.2588
 20
-0.8626
 30
0.0
  0
VERTEX
  5
6B2
100
AcDbEntity
  8
GG1
 62
     1
100
AcDbVertex
100
AcDb2dVertex
 10
1.2636
 20
-0.8531
 30
0.0
  0
VERTEX
  5
6B3
100
AcDbEntity
  8
GG1
 62
     1
100
AcDbVertex
100
AcDb2dVertex
 10
1.2636
 20
-0.8388
 30
0.0
  0
VERTEX
  5
6B4
100
AcDbEntity
  8
GG1
 62
     1
100
AcDbVertex
100
AcDb2dVertex
 10
1.2588
 20
-0.8293
 30
0.0
  0
VERTEX
  5
6B5
100
AcDbEntity
  8
GG1
 62
     1
100
AcDbVertex
100
AcDb2dVertex
 10
1.254
 20
-0.8245
 30
0.0
  0
VERTEX
  5
6B6
100
AcDbEntity
  8
GG1
 62
     1
100
AcDbVertex
100
AcDb2dVertex
 10
1.2397
 20
-0.8198
 30
0.0
  0
VERTEX
  5
6B7
100
AcDbEntity
  8
GG1
 62
     1
100
AcDbVertex
100
AcDb2dVertex
 10
1.1969
 20
-0.8198
 30
0.0
  0
VERTEX
  5
6B8
100
AcDbEntity
  8
GG1
 62
     1
100
AcDbVertex
100
AcDb2dVertex
 10
1.1969
 20
-0.9197
 30
0.0
  0
SEQEND
  5
6B9
100
AcDbEntity
  8
GG1
 62
     1
  0
POLYLINE
  5
6BA
100
AcDbEntity
  8
GG1
 62
     1
100
AcDb2dPolyline
 66
     1
 10
0.0
 20
0.0
 30
0.0
  0
VERTEX
  5
6BB
100
AcDbEntity
  8
GG1
 62
     1
100
AcDbVertex
100
AcDb2dVertex
 10
1.3097
 20
-0.8531
 30
0.0
  0
VERTEX
  5
6BC
100
AcDbEntity
  8
GG1
 62
     1
100
AcDbVertex
100
AcDb2dVertex
 10
1.3002
 20
-0.8578
 30
0.0
  0
VERTEX
  5
6BD
100
AcDbEntity
  8
GG1
 62
     1
100
AcDbVertex
100
AcDb2dVertex
 10
1.2907
 20
-0.8674
 30
0.0
  0
VERTEX
  5
6BE
100
AcDbEntity
  8
GG1
 62
     1
100
AcDbVertex
100
AcDb2dVertex
 10
1.2859
 20
-0.8817
 30
0.0
  0
VERTEX
  5
6BF
100
AcDbEntity
  8
GG1
 62
     1
100
AcDbVertex
100
AcDb2dVertex
 10
1.2859
 20
-0.8912
 30
0.0
  0
VERTEX
  5
6C0
100
AcDbEntity
  8
GG1
 62
     1
100
AcDbVertex
100
AcDb2dVertex
 10
1.2907
 20
-0.9055
 30
0.0
  0
VERTEX
  5
6C1
100
AcDbEntity
  8
GG1
 62
     1
100
AcDbVertex
100
AcDb2dVertex
 10
1.3002
 20
-0.915
 30
0.0
  0
VERTEX
  5
6C2
100
AcDbEntity
  8
GG1
 62
     1
100
AcDbVertex
100
AcDb2dVertex
 10
1.3097
 20
-0.9197
 30
0.0
  0
VERTEX
  5
6C3
100
AcDbEntity
  8
GG1
 62
     1
100
AcDbVertex
100
AcDb2dVertex
 10
1.324
 20
-0.9197
 30
0.0
  0
VERTEX
  5
6C4
100
AcDbEntity
  8
GG1
 62
     1
100
AcDbVertex
100
AcDb2dVertex
 10
1.3335
 20
-0.915
 30
0.0
  0
VERTEX
  5
6C5
100
AcDbEntity
  8
GG1
 62
     1
100
AcDbVertex
100
AcDb2dVertex
 10
1.3431
 20
-0.9055
 30
0.0
  0
VERTEX
  5
6C6
100
AcDbEntity
  8
GG1
 62
     1
100
AcDbVertex
100
AcDb2dVertex
 10
1.3478
 20
-0.8912
 30
0.0
  0
VERTEX
  5
6C7
100
AcDbEntity
  8
GG1
 62
     1
100
AcDbVertex
100
AcDb2dVertex
 10
1.3478
 20
-0.8817
 30
0.0
  0
VERTEX
  5
6C8
100
AcDbEntity
  8
GG1
 62
     1
100
AcDbVertex
100
AcDb2dVertex
 10
1.3431
 20
-0.8674
 30
0.0
  0
VERTEX
  5
6C9
100
AcDbEntity
  8
GG1
 62
     1
100
AcDbVertex
100
AcDb2dVertex
 10
1.3335
 20
-0.8578
 30
0.0
  0
VERTEX
  5
6CA
100
AcDbEntity
  8
GG1
 62
     1
100
AcDbVertex
100
AcDb2dVertex
 10
1.324
 20
-0.8531
 30
0.0
  0
VERTEX
  5
6CB
100
AcDbEntity
  8
GG1
 62
     1
100
AcDbVertex
100
AcDb2dVertex
 10
1.3097
 20
-0.8531
 30
0.0
  0
SEQEND
  5
6CC
100
AcDbEntity
  8
GG1
 62
     1
  0
POLYLINE
  5
6CD
100
AcDbEntity
  8
GG1
 62
     1
100
AcDb2dPolyline
 66
     1
 10
0.0
 20
0.0
 30
0.0
  0
VERTEX
  5
6CE
100
AcDbEntity
  8
GG1
 62
     1
100
AcDbVertex
100
AcDb2dVertex
 10
1.3697
 20
-0.8198
 30
0.0
  0
VERTEX
  5
6CF
100
AcDbEntity
  8
GG1
 62
     1
100
AcDbVertex
100
AcDb2dVertex
 10
1.3697
 20
-0.9197
 30
0.0
  0
SEQEND
  5
6D0
100
AcDbEntity
  8
GG1
 62
     1
  0
POLYLINE
  5
6D1
100
AcDbEntity
  8
GG1
 62
     1
100
AcDb2dPolyline
 66
     1
 10
0.0
 20
0.0
 30
0.0
  0
VERTEX
  5
6D2
100
AcDbEntity
  8
GG1
 62
     1
100
AcDbVertex
100
AcDb2dVertex
 10
1.4145
 20
-0.8531
 30
0.0
  0
VERTEX
  5
6D3
100
AcDbEntity
  8
GG1
 62
     1
100
AcDbVertex
100
AcDb2dVertex
 10
1.4049
 20
-0.8578
 30
0.0
  0
VERTEX
  5
6D4
100
AcDbEntity
  8
GG1
 62
     1
100
AcDbVertex
100
AcDb2dVertex
 10
1.3954
 20
-0.8674
 30
0.0
  0
VERTEX
  5
6D5
100
AcDbEntity
  8
GG1
 62
     1
100
AcDbVertex
100
AcDb2dVertex
 10
1.3907
 20
-0.8817
 30
0.0
  0
VERTEX
  5
6D6
100
AcDbEntity
  8
GG1
 62
     1
100
AcDbVertex
100
AcDb2dVertex
 10
1.3907
 20
-0.8912
 30
0.0
  0
VERTEX
  5
6D7
100
AcDbEntity
  8
GG1
 62
     1
100
AcDbVertex
100
AcDb2dVertex
 10
1.3954
 20
-0.9055
 30
0.0
  0
VERTEX
  5
6D8
100
AcDbEntity
  8
GG1
 62
     1
100
AcDbVertex
100
AcDb2dVertex
 10
1.4049
 20
-0.915
 30
0.0
  0
VERTEX
  5
6D9
100
AcDbEntity
  8
GG1
 62
     1
100
AcDbVertex
100
AcDb2dVertex
 10
1.4145
 20
-0.9197
 30
0.0
  0
VERTEX
  5
6DA
100
AcDbEntity
  8
GG1
 62
     1
100
AcDbVertex
100
AcDb2dVertex
 10
1.4288
 20
-0.9197
 30
0.0
  0
VERTEX
  5
6DB
100
AcDbEntity
  8
GG1
 62
     1
100
AcDbVertex
100
AcDb2dVertex
 10
1.4383
 20
-0.915
 30
0.0
  0
VERTEX
  5
6DC
100
AcDbEntity
  8
GG1
 62
     1
100
AcDbVertex
100
AcDb2dVertex
 10
1.4478
 20
-0.9055
 30
0.0
  0
VERTEX
  5
6DD
100
AcDbEntity
  8
GG1
 62
     1
100
AcDbVertex
100
AcDb2dVertex
 10
1.4526
 20
-0.8912
 30
0.0
  0
VERTEX
  5
6DE
100
AcDbEntity
  8
GG1
 62
     1
100
AcDbVertex
100
AcDb2dVertex
 10
1.4526
 20
-0.8817
 30
0.0
  0
VERTEX
  5
6DF
100
AcDbEntity
  8
GG1
 62
     1
100
AcDbVertex
100
AcDb2dVertex
 10
1.4478
 20
-0.8674
 30
0.0
  0
VERTEX
  5
6E0
100
AcDbEntity
  8
GG1
 62
     1
100
AcDbVertex
100
AcDb2dVertex
 10
1.4383
 20
-0.8578
 30
0.0
  0
VERTEX
  5
6E1
100
AcDbEntity
  8
GG1
 62
     1
100
AcDbVertex
100
AcDb2dVertex
 10
1.4288
 20
-0.8531
 30
0.0
  0
VERTEX
  5
6E2
100
AcDbEntity
  8
GG1
 62
     1
100
AcDbVertex
100
AcDb2dVertex
 10
1.4145
 20
-0.8531
 30
0.0
  0
SEQEND
  5
6E3
100
AcDbEntity
  8
GG1
 62
     1
  0
POLYLINE
  5
6E4
100
AcDbEntity
  8
GG1
 62
     1
100
AcDb2dPolyline
 66
     1
 10
0.0
 20
0.0
 30
0.0
  0
VERTEX
  5
6E5
100
AcDbEntity
  8
GG1
 62
     1
100
AcDbVertex
100
AcDb2dVertex
 10
1.4745
 20
-0.8198
 30
0.0
  0
VERTEX
  5
6E6
100
AcDbEntity
  8
GG1
 62
     1
100
AcDbVertex
100
AcDb2dVertex
 10
1.4745
 20
-0.9197
 30
0.0
  0
SEQEND
  5
6E7
100
AcDbEntity
  8
GG1
 62
     1
  0
POLYLINE
  5
6E8
100
AcDbEntity
  8
GG1
 62
     1
100
AcDb2dPolyline
 66
     1
 10
0.0
 20
0.0
 30
0.0
  0
VERTEX
  5
6E9
100
AcDbEntity
  8
GG1
 62
     1
100
AcDbVertex
100
AcDb2dVertex
 10
1.4954
 20
-0.8531
 30
0.0
  0
VERTEX
  5
6EA
100
AcDbEntity
  8
GG1
 62
     1
100
AcDbVertex
100
AcDb2dVertex
 10
1.4954
 20
-0.9007
 30
0.0
  0
VERTEX
  5
6EB
100
AcDbEntity
  8
GG1
 62
     1
100
AcDbVertex
100
AcDb2dVertex
 10
1.5002
 20
-0.915
 30
0.0
  0
VERTEX
  5
6EC
100
AcDbEntity
  8
GG1
 62
     1
100
AcDbVertex
100
AcDb2dVertex
 10
1.5097
 20
-0.9197
 30
0.0
  0
VERTEX
  5
6ED
100
AcDbEntity
  8
GG1
 62
     1
100
AcDbVertex
100
AcDb2dVertex
 10
1.524
 20
-0.9197
 30
0.0
  0
VERTEX
  5
6EE
100
AcDbEntity
  8
GG1
 62
     1
100
AcDbVertex
100
AcDb2dVertex
 10
1.5335
 20
-0.915
 30
0.0
  0
VERTEX
  5
6EF
100
AcDbEntity
  8
GG1
 62
     1
100
AcDbVertex
100
AcDb2dVertex
 10
1.5478
 20
-0.9007
 30
0.0
  0
SEQEND
  5
6F0
100
AcDbEntity
  8
GG1
 62
     1
  0
POLYLINE
  5
6F1
100
AcDbEntity
  8
GG1
 62
     1
100
AcDb2dPolyline
 66
     1
 10
0.0
 20
0.0
 30
0.0
  0
VERTEX
  5
6F2
100
AcDbEntity
  8
GG1
 62
     1
100
AcDbVertex
100
AcDb2dVertex
 10
1.5478
 20
-0.8531
 30
0.0
  0
VERTEX
  5
6F3
100
AcDbEntity
  8
GG1
 62
     1
100
AcDbVertex
100
AcDb2dVertex
 10
1.5478
 20
-0.9197
 30
0.0
  0
SEQEND
  5
6F4
100
AcDbEntity
  8
GG1
 62
     1
  0
POLYLINE
  5
6F5
100
AcDbEntity
  8
GG1
 62
     1
100
AcDb2dPolyline
 66
     1
 10
0.0
 20
0.0
 30
0.0
  0
VERTEX
  5
6F6
100
AcDbEntity
  8
GG1
 62
     1
100
AcDbVertex
100
AcDb2dVertex
 10
1.7239
 20
-0.8436
 30
0.0
  0
VERTEX
  5
6F7
100
AcDbEntity
  8
GG1
 62
     1
100
AcDbVertex
100
AcDb2dVertex
 10
1.7192
 20
-0.834
 30
0.0
  0
VERTEX
  5
6F8
100
AcDbEntity
  8
GG1
 62
     1
100
AcDbVertex
100
AcDb2dVertex
 10
1.7096
 20
-0.8245
 30
0.0
  0
VERTEX
  5
6F9
100
AcDbEntity
  8
GG1
 62
     1
100
AcDbVertex
100
AcDb2dVertex
 10
1.7001
 20
-0.8198
 30
0.0
  0
VERTEX
  5
6FA
100
AcDbEntity
  8
GG1
 62
     1
100
AcDbVertex
100
AcDb2dVertex
 10
1.6811
 20
-0.8198
 30
0.0
  0
VERTEX
  5
6FB
100
AcDbEntity
  8
GG1
 62
     1
100
AcDbVertex
100
AcDb2dVertex
 10
1.6716
 20
-0.8245
 30
0.0
  0
VERTEX
  5
6FC
100
AcDbEntity
  8
GG1
 62
     1
100
AcDbVertex
100
AcDb2dVertex
 10
1.662
 20
-0.834
 30
0.0
  0
VERTEX
  5
6FD
100
AcDbEntity
  8
GG1
 62
     1
100
AcDbVertex
100
AcDb2dVertex
 10
1.6573
 20
-0.8436
 30
0.0
  0
VERTEX
  5
6FE
100
AcDbEntity
  8
GG1
 62
     1
100
AcDbVertex
100
AcDb2dVertex
 10
1.6525
 20
-0.8578
 30
0.0
  0
VERTEX
  5
6FF
100
AcDbEntity
  8
GG1
 62
     1
100
AcDbVertex
100
AcDb2dVertex
 10
1.6525
 20
-0.8817
 30
0.0
  0
VERTEX
  5
700
100
AcDbEntity
  8
GG1
 62
     1
100
AcDbVertex
100
AcDb2dVertex
 10
1.6573
 20
-0.8959
 30
0.0
  0
VERTEX
  5
701
100
AcDbEntity
  8
GG1
 62
     1
100
AcDbVertex
100
AcDb2dVertex
 10
1.662
 20
-0.9055
 30
0.0
  0
VERTEX
  5
702
100
AcDbEntity
  8
GG1
 62
     1
100
AcDbVertex
100
AcDb2dVertex
 10
1.6716
 20
-0.915
 30
0.0
  0
VERTEX
  5
703
100
AcDbEntity
  8
GG1
 62
     1
100
AcDbVertex
100
AcDb2dVertex
 10
1.6811
 20
-0.9197
 30
0.0
  0
VERTEX
  5
704
100
AcDbEntity
  8
GG1
 62
     1
100
AcDbVertex
100
AcDb2dVertex
 10
1.7001
 20
-0.9197
 30
0.0
  0
VERTEX
  5
705
100
AcDbEntity
  8
GG1
 62
     1
100
AcDbVertex
100
AcDb2dVertex
 10
1.7096
 20
-0.915
 30
0.0
  0
VERTEX
  5
706
100
AcDbEntity
  8
GG1
 62
     1
100
AcDbVertex
100
AcDb2dVertex
 10
1.7192
 20
-0.9055
 30
0.0
  0
VERTEX
  5
707
100
AcDbEntity
  8
GG1
 62
     1
100
AcDbVertex
100
AcDb2dVertex
 10
1.7239
 20
-0.8959
 30
0.0
  0
SEQEND
  5
708
100
AcDbEntity
  8
GG1
 62
     1
  0
POLYLINE
  5
709
100
AcDbEntity
  8
GG1
 62
     1
100
AcDb2dPolyline
 66
     1
 10
0.0
 20
0.0
 30
0.0
  0
VERTEX
  5
70A
100
AcDbEntity
  8
GG1
 62
     1
100
AcDbVertex
100
AcDb2dVertex
 10
1.7758
 20
-0.8531
 30
0.0
  0
VERTEX
  5
70B
100
AcDbEntity
  8
GG1
 62
     1
100
AcDbVertex
100
AcDb2dVertex
 10
1.7663
 20
-0.8578
 30
0.0
  0
VERTEX
  5
70C
100
AcDbEntity
  8
GG1
 62
     1
100
AcDbVertex
100
AcDb2dVertex
 10
1.7568
 20
-0.8674
 30
0.0
  0
VERTEX
  5
70D
100
AcDbEntity
  8
GG1
 62
     1
100
AcDbVertex
100
AcDb2dVertex
 10
1.752
 20
-0.8817
 30
0.0
  0
VERTEX
  5
70E
100
AcDbEntity
  8
GG1
 62
     1
100
AcDbVertex
100
AcDb2dVertex
 10
1.752
 20
-0.8912
 30
0.0
  0
VERTEX
  5
70F
100
AcDbEntity
  8
GG1
 62
     1
100
AcDbVertex
100
AcDb2dVertex
 10
1.7568
 20
-0.9055
 30
0.0
  0
VERTEX
  5
710
100
AcDbEntity
  8
GG1
 62
     1
100
AcDbVertex
100
AcDb2dVertex
 10
1.7663
 20
-0.915
 30
0.0
  0
VERTEX
  5
711
100
AcDbEntity
  8
GG1
 62
     1
100
AcDbVertex
100
AcDb2dVertex
 10
1.7758
 20
-0.9197
 30
0.0
  0
VERTEX
  5
712
100
AcDbEntity
  8
GG1
 62
     1
100
AcDbVertex
100
AcDb2dVertex
 10
1.7901
 20
-0.9197
 30
0.0
  0
VERTEX
  5
713
100
AcDbEntity
  8
GG1
 62
     1
100
AcDbVertex
100
AcDb2dVertex
 10
1.7996
 20
-0.915
 30
0.0
  0
VERTEX
  5
714
100
AcDbEntity
  8
GG1
 62
     1
100
AcDbVertex
100
AcDb2dVertex
 10
1.8091
 20
-0.9055
 30
0.0
  0
VERTEX
  5
715
100
AcDbEntity
  8
GG1
 62
     1
100
AcDbVertex
100
AcDb2dVertex
 10
1.8139
 20
-0.8912
 30
0.0
  0
VERTEX
  5
716
100
AcDbEntity
  8
GG1
 62
     1
100
AcDbVertex
100
AcDb2dVertex
 10
1.8139
 20
-0.8817
 30
0.0
  0
VERTEX
  5
717
100
AcDbEntity
  8
GG1
 62
     1
100
AcDbVertex
100
AcDb2dVertex
 10
1.8091
 20
-0.8674
 30
0.0
  0
VERTEX
  5
718
100
AcDbEntity
  8
GG1
 62
     1
100
AcDbVertex
100
AcDb2dVertex
 10
1.7996
 20
-0.8578
 30
0.0
  0
VERTEX
  5
719
100
AcDbEntity
  8
GG1
 62
     1
100
AcDbVertex
100
AcDb2dVertex
 10
1.7901
 20
-0.8531
 30
0.0
  0
VERTEX
  5
71A
100
AcDbEntity
  8
GG1
 62
     1
100
AcDbVertex
100
AcDb2dVertex
 10
1.7758
 20
-0.8531
 30
0.0
  0
SEQEND
  5
71B
100
AcDbEntity
  8
GG1
 62
     1
  0
POLYLINE
  5
71C
100
AcDbEntity
  8
GG1
 62
     1
100
AcDb2dPolyline
 66
     1
 10
0.0
 20
0.0
 30
0.0
  0
VERTEX
  5
71D
100
AcDbEntity
  8
GG1
 62
     1
100
AcDbVertex
100
AcDb2dVertex
 10
1.8358
 20
-0.8531
 30
0.0
  0
VERTEX
  5
71E
100
AcDbEntity
  8
GG1
 62
     1
100
AcDbVertex
100
AcDb2dVertex
 10
1.8358
 20
-0.9197
 30
0.0
  0
SEQEND
  5
71F
100
AcDbEntity
  8
GG1
 62
     1
  0
POLYLINE
  5
720
100
AcDbEntity
  8
GG1
 62
     1
100
AcDb2dPolyline
 66
     1
 10
0.0
 20
0.0
 30
0.0
  0
VERTEX
  5
721
100
AcDbEntity
  8
GG1
 62
     1
100
AcDbVertex
100
AcDb2dVertex
 10
1.8358
 20
-0.8817
 30
0.0
  0
VERTEX
  5
722
100
AcDbEntity
  8
GG1
 62
     1
100
AcDbVertex
100
AcDb2dVertex
 10
1.8406
 20
-0.8674
 30
0.0
  0
VERTEX
  5
723
100
AcDbEntity
  8
GG1
 62
     1
100
AcDbVertex
100
AcDb2dVertex
 10
1.8501
 20
-0.8578
 30
0.0
  0
VERTEX
  5
724
100
AcDbEntity
  8
GG1
 62
     1
100
AcDbVertex
100
AcDb2dVertex
 10
1.8596
 20
-0.8531
 30
0.0
  0
VERTEX
  5
725
100
AcDbEntity
  8
GG1
 62
     1
100
AcDbVertex
100
AcDb2dVertex
 10
1.8739
 20
-0.8531
 30
0.0
  0
SEQEND
  5
726
100
AcDbEntity
  8
GG1
 62
     1
  0
POLYLINE
  5
727
100
AcDbEntity
  8
GG1
 62
     1
100
AcDb2dPolyline
 66
     1
 10
0.0
 20
0.0
 30
0.0
  0
VERTEX
  5
728
100
AcDbEntity
  8
GG1
 62
     1
100
AcDbVertex
100
AcDb2dVertex
 10
1.8829
 20
-0.8531
 30
0.0
  0
VERTEX
  5
729
100
AcDbEntity
  8
GG1
 62
     1
100
AcDbVertex
100
AcDb2dVertex
 10
1.8829
 20
-0.9531
 30
0.0
  0
SEQEND
  5
72A
100
AcDbEntity
  8
GG1
 62
     1
  0
POLYLINE
  5
72B
100
AcDbEntity
  8
GG1
 62
     1
100
AcDb2dPolyline
 66
     1
 10
0.0
 20
0.0
 30
0.0
  0
VERTEX
  5
72C
100
AcDbEntity
  8
GG1
 62
     1
100
AcDbVertex
100
AcDb2dVertex
 10
1.8829
 20
-0.8674
 30
0.0
  0
VERTEX
  5
72D
100
AcDbEntity
  8
GG1
 62
     1
100
AcDbVertex
100
AcDb2dVertex
 10
1.8925
 20
-0.8578
 30
0.0
  0
VERTEX
  5
72E
100
AcDbEntity
  8
GG1
 62
     1
100
AcDbVertex
100
AcDb2dVertex
 10
1.902
 20
-0.8531
 30
0.0
  0
VERTEX
  5
72F
100
AcDbEntity
  8
GG1
 62
     1
100
AcDbVertex
100
AcDb2dVertex
 10
1.9163
 20
-0.8531
 30
0.0
  0
VERTEX
  5
730
100
AcDbEntity
  8
GG1
 62
     1
100
AcDbVertex
100
AcDb2dVertex
 10
1.9258
 20
-0.8578
 30
0.0
  0
VERTEX
  5
731
100
AcDbEntity
  8
GG1
 62
     1
100
AcDbVertex
100
AcDb2dVertex
 10
1.9353
 20
-0.8674
 30
0.0
  0
VERTEX
  5
732
100
AcDbEntity
  8
GG1
 62
     1
100
AcDbVertex
100
AcDb2dVertex
 10
1.9401
 20
-0.8817
 30
0.0
  0
VERTEX
  5
733
100
AcDbEntity
  8
GG1
 62
     1
100
AcDbVertex
100
AcDb2dVertex
 10
1.9401
 20
-0.8912
 30
0.0
  0
VERTEX
  5
734
100
AcDbEntity
  8
GG1
 62
     1
100
AcDbVertex
100
AcDb2dVertex
 10
1.9353
 20
-0.9055
 30
0.0
  0
VERTEX
  5
735
100
AcDbEntity
  8
GG1
 62
     1
100
AcDbVertex
100
AcDb2dVertex
 10
1.9258
 20
-0.915
 30
0.0
  0
VERTEX
  5
736
100
AcDbEntity
  8
GG1
 62
     1
100
AcDbVertex
100
AcDb2dVertex
 10
1.9163
 20
-0.9197
 30
0.0
  0
VERTEX
  5
737
100
AcDbEntity
  8
GG1
 62
     1
100
AcDbVertex
100
AcDb2dVertex
 10
1.902
 20
-0.9197
 30
0.0
  0
VERTEX
  5
738
100
AcDbEntity
  8
GG1
 62
     1
100
AcDbVertex
100
AcDb2dVertex
 10
1.8925
 20
-0.915
 30
0.0
  0
VERTEX
  5
739
100
AcDbEntity
  8
GG1
 62
     1
100
AcDbVertex
100
AcDb2dVertex
 10
1.8829
 20
-0.9055
 30
0.0
  0
SEQEND
  5
73A
100
AcDbEntity
  8
GG1
 62
     1
  0
POLYLINE
  5
73B
100
AcDbEntity
  8
GG1
 62
     1
100
AcDb2dPolyline
 66
     1
 10
0.0
 20
0.0
 30
0.0
  0
VERTEX
  5
73C
100
AcDbEntity
  8
GG1
 62
     1
100
AcDbVertex
100
AcDb2dVertex
 10
1.9853
 20
-0.8531
 30
0.0
  0
VERTEX
  5
73D
100
AcDbEntity
  8
GG1
 62
     1
100
AcDbVertex
100
AcDb2dVertex
 10
1.9758
 20
-0.8578
 30
0.0
  0
VERTEX
  5
73E
100
AcDbEntity
  8
GG1
 62
     1
100
AcDbVertex
100
AcDb2dVertex
 10
1.9663
 20
-0.8674
 30
0.0
  0
VERTEX
  5
73F
100
AcDbEntity
  8
GG1
 62
     1
100
AcDbVertex
100
AcDb2dVertex
 10
1.9615
 20
-0.8817
 30
0.0
  0
VERTEX
  5
740
100
AcDbEntity
  8
GG1
 62
     1
100
AcDbVertex
100
AcDb2dVertex
 10
1.9615
 20
-0.8912
 30
0.0
  0
VERTEX
  5
741
100
AcDbEntity
  8
GG1
 62
     1
100
AcDbVertex
100
AcDb2dVertex
 10
1.9663
 20
-0.9055
 30
0.0
  0
VERTEX
  5
742
100
AcDbEntity
  8
GG1
 62
     1
100
AcDbVertex
100
AcDb2dVertex
 10
1.9758
 20
-0.915
 30
0.0
  0
VERTEX
  5
743
100
AcDbEntity
  8
GG1
 62
     1
100
AcDbVertex
100
AcDb2dVertex
 10
1.9853
 20
-0.9197
 30
0.0
  0
VERTEX
  5
744
100
AcDbEntity
  8
GG1
 62
     1
100
AcDbVertex
100
AcDb2dVertex
 10
1.9996
 20
-0.9197
 30
0.0
  0
VERTEX
  5
745
100
AcDbEntity
  8
GG1
 62
     1
100
AcDbVertex
100
AcDb2dVertex
 10
2.0091
 20
-0.915
 30
0.0
  0
VERTEX
  5
746
100
AcDbEntity
  8
GG1
 62
     1
100
AcDbVertex
100
AcDb2dVertex
 10
2.0186
 20
-0.9055
 30
0.0
  0
VERTEX
  5
747
100
AcDbEntity
  8
GG1
 62
     1
100
AcDbVertex
100
AcDb2dVertex
 10
2.0234
 20
-0.8912
 30
0.0
  0
VERTEX
  5
748
100
AcDbEntity
  8
GG1
 62
     1
100
AcDbVertex
100
AcDb2dVertex
 10
2.0234
 20
-0.8817
 30
0.0
  0
VERTEX
  5
749
100
AcDbEntity
  8
GG1
 62
     1
100
AcDbVertex
100
AcDb2dVertex
 10
2.0186
 20
-0.8674
 30
0.0
  0
VERTEX
  5
74A
100
AcDbEntity
  8
GG1
 62
     1
100
AcDbVertex
100
AcDb2dVertex
 10
2.0091
 20
-0.8578
 30
0.0
  0
VERTEX
  5
74B
100
AcDbEntity
  8
GG1
 62
     1
100
AcDbVertex
100
AcDb2dVertex
 10
1.9996
 20
-0.8531
 30
0.0
  0
VERTEX
  5
74C
100
AcDbEntity
  8
GG1
 62
     1
100
AcDbVertex
100
AcDb2dVertex
 10
1.9853
 20
-0.8531
 30
0.0
  0
SEQEND
  5
74D
100
AcDbEntity
  8
GG1
 62
     1
  0
POLYLINE
  5
74E
100
AcDbEntity
  8
GG1
 62
     1
100
AcDb2dPolyline
 66
     1
 10
0.0
 20
0.0
 30
0.0
  0
VERTEX
  5
74F
100
AcDbEntity
  8
GG1
 62
     1
100
AcDbVertex
100
AcDb2dVertex
 10
2.0453
 20
-0.8531
 30
0.0
  0
VERTEX
  5
750
100
AcDbEntity
  8
GG1
 62
     1
100
AcDbVertex
100
AcDb2dVertex
 10
2.0453
 20
-0.9197
 30
0.0
  0
SEQEND
  5
751
100
AcDbEntity
  8
GG1
 62
     1
  0
POLYLINE
  5
752
100
AcDbEntity
  8
GG1
 62
     1
100
AcDb2dPolyline
 66
     1
 10
0.0
 20
0.0
 30
0.0
  0
VERTEX
  5
753
100
AcDbEntity
  8
GG1
 62
     1
100
AcDbVertex
100
AcDb2dVertex
 10
2.0453
 20
-0.8817
 30
0.0
  0
VERTEX
  5
754
100
AcDbEntity
  8
GG1
 62
     1
100
AcDbVertex
100
AcDb2dVertex
 10
2.05
 20
-0.8674
 30
0.0
  0
VERTEX
  5
755
100
AcDbEntity
  8
GG1
 62
     1
100
AcDbVertex
100
AcDb2dVertex
 10
2.0596
 20
-0.8578
 30
0.0
  0
VERTEX
  5
756
100
AcDbEntity
  8
GG1
 62
     1
100
AcDbVertex
100
AcDb2dVertex
 10
2.0691
 20
-0.8531
 30
0.0
  0
VERTEX
  5
757
100
AcDbEntity
  8
GG1
 62
     1
100
AcDbVertex
100
AcDb2dVertex
 10
2.0834
 20
-0.8531
 30
0.0
  0
SEQEND
  5
758
100
AcDbEntity
  8
GG1
 62
     1
  0
POLYLINE
  5
759
100
AcDbEntity
  8
GG1
 62
     1
100
AcDb2dPolyline
 66
     1
 10
0.0
 20
0.0
 30
0.0
  0
VERTEX
  5
75A
100
AcDbEntity
  8
GG1
 62
     1
100
AcDbVertex
100
AcDb2dVertex
 10
2.1495
 20
-0.8531
 30
0.0
  0
VERTEX
  5
75B
100
AcDbEntity
  8
GG1
 62
     1
100
AcDbVertex
100
AcDb2dVertex
 10
2.1495
 20
-0.9197
 30
0.0
  0
SEQEND
  5
75C
100
AcDbEntity
  8
GG1
 62
     1
  0
POLYLINE
  5
75D
100
AcDbEntity
  8
GG1
 62
     1
100
AcDb2dPolyline
 66
     1
 10
0.0
 20
0.0
 30
0.0
  0
VERTEX
  5
75E
100
AcDbEntity
  8
GG1
 62
     1
100
AcDbVertex
100
AcDb2dVertex
 10
2.1495
 20
-0.8674
 30
0.0
  0
VERTEX
  5
75F
100
AcDbEntity
  8
GG1
 62
     1
100
AcDbVertex
100
AcDb2dVertex
 10
2.14
 20
-0.8578
 30
0.0
  0
VERTEX
  5
760
100
AcDbEntity
  8
GG1
 62
     1
100
AcDbVertex
100
AcDb2dVertex
 10
2.1305
 20
-0.8531
 30
0.0
  0
VERTEX
  5
761
100
AcDbEntity
  8
GG1
 62
     1
100
AcDbVertex
100
AcDb2dVertex
 10
2.1162
 20
-0.8531
 30
0.0
  0
VERTEX
  5
762
100
AcDbEntity
  8
GG1
 62
     1
100
AcDbVertex
100
AcDb2dVertex
 10
2.1067
 20
-0.8578
 30
0.0
  0
VERTEX
  5
763
100
AcDbEntity
  8
GG1
 62
     1
100
AcDbVertex
100
AcDb2dVertex
 10
2.0972
 20
-0.8674
 30
0.0
  0
VERTEX
  5
764
100
AcDbEntity
  8
GG1
 62
     1
100
AcDbVertex
100
AcDb2dVertex
 10
2.0924
 20
-0.8817
 30
0.0
  0
VERTEX
  5
765
100
AcDbEntity
  8
GG1
 62
     1
100
AcDbVertex
100
AcDb2dVertex
 10
2.0924
 20
-0.8912
 30
0.0
  0
VERTEX
  5
766
100
AcDbEntity
  8
GG1
 62
     1
100
AcDbVertex
100
AcDb2dVertex
 10
2.0972
 20
-0.9055
 30
0.0
  0
VERTEX
  5
767
100
AcDbEntity
  8
GG1
 62
     1
100
AcDbVertex
100
AcDb2dVertex
 10
2.1067
 20
-0.915
 30
0.0
  0
VERTEX
  5
768
100
AcDbEntity
  8
GG1
 62
     1
100
AcDbVertex
100
AcDb2dVertex
 10
2.1162
 20
-0.9197
 30
0.0
  0
VERTEX
  5
769
100
AcDbEntity
  8
GG1
 62
     1
100
AcDbVertex
100
AcDb2dVertex
 10
2.1305
 20
-0.9197
 30
0.0
  0
VERTEX
  5
76A
100
AcDbEntity
  8
GG1
 62
     1
100
AcDbVertex
100
AcDb2dVertex
 10
2.14
 20
-0.915
 30
0.0
  0
VERTEX
  5
76B
100
AcDbEntity
  8
GG1
 62
     1
100
AcDbVertex
100
AcDb2dVertex
 10
2.1495
 20
-0.9055
 30
0.0
  0
SEQEND
  5
76C
100
AcDbEntity
  8
GG1
 62
     1
  0
POLYLINE
  5
76D
100
AcDbEntity
  8
GG1
 62
     1
100
AcDb2dPolyline
 66
     1
 10
0.0
 20
0.0
 30
0.0
  0
VERTEX
  5
76E
100
AcDbEntity
  8
GG1
 62
     1
100
AcDbVertex
100
AcDb2dVertex
 10
2.1905
 20
-0.8198
 30
0.0
  0
VERTEX
  5
76F
100
AcDbEntity
  8
GG1
 62
     1
100
AcDbVertex
100
AcDb2dVertex
 10
2.1905
 20
-0.9007
 30
0.0
  0
VERTEX
  5
770
100
AcDbEntity
  8
GG1
 62
     1
100
AcDbVertex
100
AcDb2dVertex
 10
2.1953
 20
-0.915
 30
0.0
  0
VERTEX
  5
771
100
AcDbEntity
  8
GG1
 62
     1
100
AcDbVertex
100
AcDb2dVertex
 10
2.2048
 20
-0.9197
 30
0.0
  0
VERTEX
  5
772
100
AcDbEntity
  8
GG1
 62
     1
100
AcDbVertex
100
AcDb2dVertex
 10
2.2143
 20
-0.9197
 30
0.0
  0
SEQEND
  5
773
100
AcDbEntity
  8
GG1
 62
     1
  0
POLYLINE
  5
774
100
AcDbEntity
  8
GG1
 62
     1
100
AcDb2dPolyline
 66
     1
 10
0.0
 20
0.0
 30
0.0
  0
VERTEX
  5
775
100
AcDbEntity
  8
GG1
 62
     1
100
AcDbVertex
100
AcDb2dVertex
 10
2.1762
 20
-0.8531
 30
0.0
  0
VERTEX
  5
776
100
AcDbEntity
  8
GG1
 62
     1
100
AcDbVertex
100
AcDb2dVertex
 10
2.2095
 20
-0.8531
 30
0.0
  0
SEQEND
  5
777
100
AcDbEntity
  8
GG1
 62
     1
  0
POLYLINE
  5
778
100
AcDbEntity
  8
GG1
 62
     1
100
AcDb2dPolyline
 66
     1
 10
0.0
 20
0.0
 30
0.0
  0
VERTEX
  5
779
100
AcDbEntity
  8
GG1
 62
     1
100
AcDbVertex
100
AcDb2dVertex
 10
2.2381
 20
-0.8198
 30
0.0
  0
VERTEX
  5
77A
100
AcDbEntity
  8
GG1
 62
     1
100
AcDbVertex
100
AcDb2dVertex
 10
2.2429
 20
-0.8245
 30
0.0
  0
VERTEX
  5
77B
100
AcDbEntity
  8
GG1
 62
     1
100
AcDbVertex
100
AcDb2dVertex
 10
2.2476
 20
-0.8198
 30
0.0
  0
VERTEX
  5
77C
100
AcDbEntity
  8
GG1
 62
     1
100
AcDbVertex
100
AcDb2dVertex
 10
2.2429
 20
-0.815
 30
0.0
  0
VERTEX
  5
77D
100
AcDbEntity
  8
GG1
 62
     1
100
AcDbVertex
100
AcDb2dVertex
 10
2.2381
 20
-0.8198
 30
0.0
  0
SEQEND
  5
77E
100
AcDbEntity
  8
GG1
 62
     1
  0
POLYLINE
  5
77F
100
AcDbEntity
  8
GG1
 62
     1
100
AcDb2dPolyline
 66
     1
 10
0.0
 20
0.0
 30
0.0
  0
VERTEX
  5
780
100
AcDbEntity
  8
GG1
 62
     1
100
AcDbVertex
100
AcDb2dVertex
 10
2.2429
 20
-0.8531
 30
0.0
  0
VERTEX
  5
781
100
AcDbEntity
  8
GG1
 62
     1
100
AcDbVertex
100
AcDb2dVertex
 10
2.2429
 20
-0.9197
 30
0.0
  0
SEQEND
  5
782
100
AcDbEntity
  8
GG1
 62
     1
  0
POLYLINE
  5
783
100
AcDbEntity
  8
GG1
 62
     1
100
AcDb2dPolyline
 66
     1
 10
0.0
 20
0.0
 30
0.0
  0
VERTEX
  5
784
100
AcDbEntity
  8
GG1
 62
     1
100
AcDbVertex
100
AcDb2dVertex
 10
2.289
 20
-0.8531
 30
0.0
  0
VERTEX
  5
785
100
AcDbEntity
  8
GG1
 62
     1
100
AcDbVertex
100
AcDb2dVertex
 10
2.2795
 20
-0.8578
 30
0.0
  0
VERTEX
  5
786
100
AcDbEntity
  8
GG1
 62
     1
100
AcDbVertex
100
AcDb2dVertex
 10
2.27
 20
-0.8674
 30
0.0
  0
VERTEX
  5
787
100
AcDbEntity
  8
GG1
 62
     1
100
AcDbVertex
100
AcDb2dVertex
 10
2.2652
 20
-0.8817
 30
0.0
  0
VERTEX
  5
788
100
AcDbEntity
  8
GG1
 62
     1
100
AcDbVertex
100
AcDb2dVertex
 10
2.2652
 20
-0.8912
 30
0.0
  0
VERTEX
  5
789
100
AcDbEntity
  8
GG1
 62
     1
100
AcDbVertex
100
AcDb2dVertex
 10
2.27
 20
-0.9055
 30
0.0
  0
VERTEX
  5
78A
100
AcDbEntity
  8
GG1
 62
     1
100
AcDbVertex
100
AcDb2dVertex
 10
2.2795
 20
-0.915
 30
0.0
  0
VERTEX
  5
78B
100
AcDbEntity
  8
GG1
 62
     1
100
AcDbVertex
100
AcDb2dVertex
 10
2.289
 20
-0.9197
 30
0.0
  0
VERTEX
  5
78C
100
AcDbEntity
  8
GG1
 62
     1
100
AcDbVertex
100
AcDb2dVertex
 10
2.3033
 20
-0.9197
 30
0.0
  0
VERTEX
  5
78D
100
AcDbEntity
  8
GG1
 62
     1
100
AcDbVertex
100
AcDb2dVertex
 10
2.3128
 20
-0.915
 30
0.0
  0
VERTEX
  5
78E
100
AcDbEntity
  8
GG1
 62
     1
100
AcDbVertex
100
AcDb2dVertex
 10
2.3224
 20
-0.9055
 30
0.0
  0
VERTEX
  5
78F
100
AcDbEntity
  8
GG1
 62
     1
100
AcDbVertex
100
AcDb2dVertex
 10
2.3271
 20
-0.8912
 30
0.0
  0
VERTEX
  5
790
100
AcDbEntity
  8
GG1
 62
     1
100
AcDbVertex
100
AcDb2dVertex
 10
2.3271
 20
-0.8817
 30
0.0
  0
VERTEX
  5
791
100
AcDbEntity
  8
GG1
 62
     1
100
AcDbVertex
100
AcDb2dVertex
 10
2.3224
 20
-0.8674
 30
0.0
  0
VERTEX
  5
792
100
AcDbEntity
  8
GG1
 62
     1
100
AcDbVertex
100
AcDb2dVertex
 10
2.3128
 20
-0.8578
 30
0.0
  0
VERTEX
  5
793
100
AcDbEntity
  8
GG1
 62
     1
100
AcDbVertex
100
AcDb2dVertex
 10
2.3033
 20
-0.8531
 30
0.0
  0
VERTEX
  5
794
100
AcDbEntity
  8
GG1
 62
     1
100
AcDbVertex
100
AcDb2dVertex
 10
2.289
 20
-0.8531
 30
0.0
  0
SEQEND
  5
795
100
AcDbEntity
  8
GG1
 62
     1
  0
POLYLINE
  5
796
100
AcDbEntity
  8
GG1
 62
     1
100
AcDb2dPolyline
 66
     1
 10
0.0
 20
0.0
 30
0.0
  0
VERTEX
  5
797
100
AcDbEntity
  8
GG1
 62
     1
100
AcDbVertex
100
AcDb2dVertex
 10
2.349
 20
-0.8531
 30
0.0
  0
VERTEX
  5
798
100
AcDbEntity
  8
GG1
 62
     1
100
AcDbVertex
100
AcDb2dVertex
 10
2.349
 20
-0.9197
 30
0.0
  0
SEQEND
  5
799
100
AcDbEntity
  8
GG1
 62
     1
  0
POLYLINE
  5
79A
100
AcDbEntity
  8
GG1
 62
     1
100
AcDb2dPolyline
 66
     1
 10
0.0
 20
0.0
 30
0.0
  0
VERTEX
  5
79B
100
AcDbEntity
  8
GG1
 62
     1
100
AcDbVertex
100
AcDb2dVertex
 10
2.349
 20
-0.8721
 30
0.0
  0
VERTEX
  5
79C
100
AcDbEntity
  8
GG1
 62
     1
100
AcDbVertex
100
AcDb2dVertex
 10
2.3633
 20
-0.8578
 30
0.0
  0
VERTEX
  5
79D
100
AcDbEntity
  8
GG1
 62
     1
100
AcDbVertex
100
AcDb2dVertex
 10
2.3728
 20
-0.8531
 30
0.0
  0
VERTEX
  5
79E
100
AcDbEntity
  8
GG1
 62
     1
100
AcDbVertex
100
AcDb2dVertex
 10
2.3871
 20
-0.8531
 30
0.0
  0
VERTEX
  5
79F
100
AcDbEntity
  8
GG1
 62
     1
100
AcDbVertex
100
AcDb2dVertex
 10
2.3966
 20
-0.8578
 30
0.0
  0
VERTEX
  5
7A0
100
AcDbEntity
  8
GG1
 62
     1
100
AcDbVertex
100
AcDb2dVertex
 10
2.4014
 20
-0.8721
 30
0.0
  0
VERTEX
  5
7A1
100
AcDbEntity
  8
GG1
 62
     1
100
AcDbVertex
100
AcDb2dVertex
 10
2.4014
 20
-0.9197
 30
0.0
  0
SEQEND
  5
7A2
100
AcDbEntity
  8
GG1
 62
     1
  0
POLYLINE
  5
7A3
100
AcDbEntity
  8
GG1
 62
     1
100
AcDb2dPolyline
 66
     1
 10
0.0
 20
0.0
 30
0.0
  0
VERTEX
  5
7A4
100
AcDbEntity
  8
GG1
 62
     1
100
AcDbVertex
100
AcDb2dVertex
 10
0.05
 20
-0.6721
 30
0.0
  0
VERTEX
  5
7A5
100
AcDbEntity
  8
GG1
 62
     1
100
AcDbVertex
100
AcDb2dVertex
 10
0.0928
 20
-0.6721
 30
0.0
  0
VERTEX
  5
7A6
100
AcDbEntity
  8
GG1
 62
     1
100
AcDbVertex
100
AcDb2dVertex
 10
0.1071
 20
-0.6674
 30
0.0
  0
VERTEX
  5
7A7
100
AcDbEntity
  8
GG1
 62
     1
100
AcDbVertex
100
AcDb2dVertex
 10
0.1119
 20
-0.6626
 30
0.0
  0
VERTEX
  5
7A8
100
AcDbEntity
  8
GG1
 62
     1
100
AcDbVertex
100
AcDb2dVertex
 10
0.1167
 20
-0.6531
 30
0.0
  0
VERTEX
  5
7A9
100
AcDbEntity
  8
GG1
 62
     1
100
AcDbVertex
100
AcDb2dVertex
 10
0.1167
 20
-0.6388
 30
0.0
  0
VERTEX
  5
7AA
100
AcDbEntity
  8
GG1
 62
     1
100
AcDbVertex
100
AcDb2dVertex
 10
0.1119
 20
-0.6293
 30
0.0
  0
VERTEX
  5
7AB
100
AcDbEntity
  8
GG1
 62
     1
100
AcDbVertex
100
AcDb2dVertex
 10
0.1071
 20
-0.6245
 30
0.0
  0
VERTEX
  5
7AC
100
AcDbEntity
  8
GG1
 62
     1
100
AcDbVertex
100
AcDb2dVertex
 10
0.0928
 20
-0.6198
 30
0.0
  0
VERTEX
  5
7AD
100
AcDbEntity
  8
GG1
 62
     1
100
AcDbVertex
100
AcDb2dVertex
 10
0.05
 20
-0.6198
 30
0.0
  0
VERTEX
  5
7AE
100
AcDbEntity
  8
GG1
 62
     1
100
AcDbVertex
100
AcDb2dVertex
 10
0.05
 20
-0.7197
 30
0.0
  0
SEQEND
  5
7AF
100
AcDbEntity
  8
GG1
 62
     1
  0
POLYLINE
  5
7B0
100
AcDbEntity
  8
GG1
 62
     1
100
AcDb2dPolyline
 66
     1
 10
0.0
 20
0.0
 30
0.0
  0
VERTEX
  5
7B1
100
AcDbEntity
  8
GG1
 62
     1
100
AcDbVertex
100
AcDb2dVertex
 10
0.1628
 20
-0.6531
 30
0.0
  0
VERTEX
  5
7B2
100
AcDbEntity
  8
GG1
 62
     1
100
AcDbVertex
100
AcDb2dVertex
 10
0.1533
 20
-0.6578
 30
0.0
  0
VERTEX
  5
7B3
100
AcDbEntity
  8
GG1
 62
     1
100
AcDbVertex
100
AcDb2dVertex
 10
0.1438
 20
-0.6674
 30
0.0
  0
VERTEX
  5
7B4
100
AcDbEntity
  8
GG1
 62
     1
100
AcDbVertex
100
AcDb2dVertex
 10
0.139
 20
-0.6817
 30
0.0
  0
VERTEX
  5
7B5
100
AcDbEntity
  8
GG1
 62
     1
100
AcDbVertex
100
AcDb2dVertex
 10
0.139
 20
-0.6912
 30
0.0
  0
VERTEX
  5
7B6
100
AcDbEntity
  8
GG1
 62
     1
100
AcDbVertex
100
AcDb2dVertex
 10
0.1438
 20
-0.7055
 30
0.0
  0
VERTEX
  5
7B7
100
AcDbEntity
  8
GG1
 62
     1
100
AcDbVertex
100
AcDb2dVertex
 10
0.1533
 20
-0.715
 30
0.0
  0
VERTEX
  5
7B8
100
AcDbEntity
  8
GG1
 62
     1
100
AcDbVertex
100
AcDb2dVertex
 10
0.1628
 20
-0.7197
 30
0.0
  0
VERTEX
  5
7B9
100
AcDbEntity
  8
GG1
 62
     1
100
AcDbVertex
100
AcDb2dVertex
 10
0.1771
 20
-0.7197
 30
0.0
  0
VERTEX
  5
7BA
100
AcDbEntity
  8
GG1
 62
     1
100
AcDbVertex
100
AcDb2dVertex
 10
0.1866
 20
-0.715
 30
0.0
  0
VERTEX
  5
7BB
100
AcDbEntity
  8
GG1
 62
     1
100
AcDbVertex
100
AcDb2dVertex
 10
0.1962
 20
-0.7055
 30
0.0
  0
VERTEX
  5
7BC
100
AcDbEntity
  8
GG1
 62
     1
100
AcDbVertex
100
AcDb2dVertex
 10
0.2009
 20
-0.6912
 30
0.0
  0
VERTEX
  5
7BD
100
AcDbEntity
  8
GG1
 62
     1
100
AcDbVertex
100
AcDb2dVertex
 10
0.2009
 20
-0.6817
 30
0.0
  0
VERTEX
  5
7BE
100
AcDbEntity
  8
GG1
 62
     1
100
AcDbVertex
100
AcDb2dVertex
 10
0.1962
 20
-0.6674
 30
0.0
  0
VERTEX
  5
7BF
100
AcDbEntity
  8
GG1
 62
     1
100
AcDbVertex
100
AcDb2dVertex
 10
0.1866
 20
-0.6578
 30
0.0
  0
VERTEX
  5
7C0
100
AcDbEntity
  8
GG1
 62
     1
100
AcDbVertex
100
AcDb2dVertex
 10
0.1771
 20
-0.6531
 30
0.0
  0
VERTEX
  5
7C1
100
AcDbEntity
  8
GG1
 62
     1
100
AcDbVertex
100
AcDb2dVertex
 10
0.1628
 20
-0.6531
 30
0.0
  0
SEQEND
  5
7C2
100
AcDbEntity
  8
GG1
 62
     1
  0
POLYLINE
  5
7C3
100
AcDbEntity
  8
GG1
 62
     1
100
AcDb2dPolyline
 66
     1
 10
0.0
 20
0.0
 30
0.0
  0
VERTEX
  5
7C4
100
AcDbEntity
  8
GG1
 62
     1
100
AcDbVertex
100
AcDb2dVertex
 10
0.2228
 20
-0.6198
 30
0.0
  0
VERTEX
  5
7C5
100
AcDbEntity
  8
GG1
 62
     1
100
AcDbVertex
100
AcDb2dVertex
 10
0.2228
 20
-0.7197
 30
0.0
  0
SEQEND
  5
7C6
100
AcDbEntity
  8
GG1
 62
     1
  0
POLYLINE
  5
7C7
100
AcDbEntity
  8
GG1
 62
     1
100
AcDb2dPolyline
 66
     1
 10
0.0
 20
0.0
 30
0.0
  0
VERTEX
  5
7C8
100
AcDbEntity
  8
GG1
 62
     1
100
AcDbVertex
100
AcDb2dVertex
 10
0.2676
 20
-0.6531
 30
0.0
  0
VERTEX
  5
7C9
100
AcDbEntity
  8
GG1
 62
     1
100
AcDbVertex
100
AcDb2dVertex
 10
0.2581
 20
-0.6578
 30
0.0
  0
VERTEX
  5
7CA
100
AcDbEntity
  8
GG1
 62
     1
100
AcDbVertex
100
AcDb2dVertex
 10
0.2485
 20
-0.6674
 30
0.0
  0
VERTEX
  5
7CB
100
AcDbEntity
  8
GG1
 62
     1
100
AcDbVertex
100
AcDb2dVertex
 10
0.2438
 20
-0.6817
 30
0.0
  0
VERTEX
  5
7CC
100
AcDbEntity
  8
GG1
 62
     1
100
AcDbVertex
100
AcDb2dVertex
 10
0.2438
 20
-0.6912
 30
0.0
  0
VERTEX
  5
7CD
100
AcDbEntity
  8
GG1
 62
     1
100
AcDbVertex
100
AcDb2dVertex
 10
0.2485
 20
-0.7055
 30
0.0
  0
VERTEX
  5
7CE
100
AcDbEntity
  8
GG1
 62
     1
100
AcDbVertex
100
AcDb2dVertex
 10
0.2581
 20
-0.715
 30
0.0
  0
VERTEX
  5
7CF
100
AcDbEntity
  8
GG1
 62
     1
100
AcDbVertex
100
AcDb2dVertex
 10
0.2676
 20
-0.7197
 30
0.0
  0
VERTEX
  5
7D0
100
AcDbEntity
  8
GG1
 62
     1
100
AcDbVertex
100
AcDb2dVertex
 10
0.2819
 20
-0.7197
 30
0.0
  0
VERTEX
  5
7D1
100
AcDbEntity
  8
GG1
 62
     1
100
AcDbVertex
100
AcDb2dVertex
 10
0.2914
 20
-0.715
 30
0.0
  0
VERTEX
  5
7D2
100
AcDbEntity
  8
GG1
 62
     1
100
AcDbVertex
100
AcDb2dVertex
 10
0.3009
 20
-0.7055
 30
0.0
  0
VERTEX
  5
7D3
100
AcDbEntity
  8
GG1
 62
     1
100
AcDbVertex
100
AcDb2dVertex
 10
0.3057
 20
-0.6912
 30
0.0
  0
VERTEX
  5
7D4
100
AcDbEntity
  8
GG1
 62
     1
100
AcDbVertex
100
AcDb2dVertex
 10
0.3057
 20
-0.6817
 30
0.0
  0
VERTEX
  5
7D5
100
AcDbEntity
  8
GG1
 62
     1
100
AcDbVertex
100
AcDb2dVertex
 10
0.3009
 20
-0.6674
 30
0.0
  0
VERTEX
  5
7D6
100
AcDbEntity
  8
GG1
 62
     1
100
AcDbVertex
100
AcDb2dVertex
 10
0.2914
 20
-0.6578
 30
0.0
  0
VERTEX
  5
7D7
100
AcDbEntity
  8
GG1
 62
     1
100
AcDbVertex
100
AcDb2dVertex
 10
0.2819
 20
-0.6531
 30
0.0
  0
VERTEX
  5
7D8
100
AcDbEntity
  8
GG1
 62
     1
100
AcDbVertex
100
AcDb2dVertex
 10
0.2676
 20
-0.6531
 30
0.0
  0
SEQEND
  5
7D9
100
AcDbEntity
  8
GG1
 62
     1
  0
POLYLINE
  5
7DA
100
AcDbEntity
  8
GG1
 62
     1
100
AcDb2dPolyline
 66
     1
 10
0.0
 20
0.0
 30
0.0
  0
VERTEX
  5
7DB
100
AcDbEntity
  8
GG1
 62
     1
100
AcDbVertex
100
AcDb2dVertex
 10
0.3276
 20
-0.6198
 30
0.0
  0
VERTEX
  5
7DC
100
AcDbEntity
  8
GG1
 62
     1
100
AcDbVertex
100
AcDb2dVertex
 10
0.3276
 20
-0.7197
 30
0.0
  0
SEQEND
  5
7DD
100
AcDbEntity
  8
GG1
 62
     1
  0
POLYLINE
  5
7DE
100
AcDbEntity
  8
GG1
 62
     1
100
AcDb2dPolyline
 66
     1
 10
0.0
 20
0.0
 30
0.0
  0
VERTEX
  5
7DF
100
AcDbEntity
  8
GG1
 62
     1
100
AcDbVertex
100
AcDb2dVertex
 10
0.3485
 20
-0.6531
 30
0.0
  0
VERTEX
  5
7E0
100
AcDbEntity
  8
GG1
 62
     1
100
AcDbVertex
100
AcDb2dVertex
 10
0.3485
 20
-0.7007
 30
0.0
  0
VERTEX
  5
7E1
100
AcDbEntity
  8
GG1
 62
     1
100
AcDbVertex
100
AcDb2dVertex
 10
0.3533
 20
-0.715
 30
0.0
  0
VERTEX
  5
7E2
100
AcDbEntity
  8
GG1
 62
     1
100
AcDbVertex
100
AcDb2dVertex
 10
0.3628
 20
-0.7197
 30
0.0
  0
VERTEX
  5
7E3
100
AcDbEntity
  8
GG1
 62
     1
100
AcDbVertex
100
AcDb2dVertex
 10
0.3771
 20
-0.7197
 30
0.0
  0
VERTEX
  5
7E4
100
AcDbEntity
  8
GG1
 62
     1
100
AcDbVertex
100
AcDb2dVertex
 10
0.3866
 20
-0.715
 30
0.0
  0
VERTEX
  5
7E5
100
AcDbEntity
  8
GG1
 62
     1
100
AcDbVertex
100
AcDb2dVertex
 10
0.4009
 20
-0.7007
 30
0.0
  0
SEQEND
  5
7E6
100
AcDbEntity
  8
GG1
 62
     1
  0
POLYLINE
  5
7E7
100
AcDbEntity
  8
GG1
 62
     1
100
AcDb2dPolyline
 66
     1
 10
0.0
 20
0.0
 30
0.0
  0
VERTEX
  5
7E8
100
AcDbEntity
  8
GG1
 62
     1
100
AcDbVertex
100
AcDb2dVertex
 10
0.4009
 20
-0.6531
 30
0.0
  0
VERTEX
  5
7E9
100
AcDbEntity
  8
GG1
 62
     1
100
AcDbVertex
100
AcDb2dVertex
 10
0.4009
 20
-0.7197
 30
0.0
  0
SEQEND
  5
7EA
100
AcDbEntity
  8
GG1
 62
     1
  0
POLYLINE
  5
7EB
100
AcDbEntity
  8
GG1
 62
     1
100
AcDb2dPolyline
 66
     1
 10
0.0
 20
0.0
 30
0.0
  0
VERTEX
  5
7EC
100
AcDbEntity
  8
GG1
 62
     1
100
AcDbVertex
100
AcDb2dVertex
 10
0.5151
 20
-0.6198
 30
0.0
  0
VERTEX
  5
7ED
100
AcDbEntity
  8
GG1
 62
     1
100
AcDbVertex
100
AcDb2dVertex
 10
0.5199
 20
-0.6245
 30
0.0
  0
VERTEX
  5
7EE
100
AcDbEntity
  8
GG1
 62
     1
100
AcDbVertex
100
AcDb2dVertex
 10
0.5247
 20
-0.6198
 30
0.0
  0
VERTEX
  5
7EF
100
AcDbEntity
  8
GG1
 62
     1
100
AcDbVertex
100
AcDb2dVertex
 10
0.5199
 20
-0.615
 30
0.0
  0
VERTEX
  5
7F0
100
AcDbEntity
  8
GG1
 62
     1
100
AcDbVertex
100
AcDb2dVertex
 10
0.5151
 20
-0.6198
 30
0.0
  0
SEQEND
  5
7F1
100
AcDbEntity
  8
GG1
 62
     1
  0
POLYLINE
  5
7F2
100
AcDbEntity
  8
GG1
 62
     1
100
AcDb2dPolyline
 66
     1
 10
0.0
 20
0.0
 30
0.0
  0
VERTEX
  5
7F3
100
AcDbEntity
  8
GG1
 62
     1
100
AcDbVertex
100
AcDb2dVertex
 10
0.5199
 20
-0.6531
 30
0.0
  0
VERTEX
  5
7F4
100
AcDbEntity
  8
GG1
 62
     1
100
AcDbVertex
100
AcDb2dVertex
 10
0.5199
 20
-0.7197
 30
0.0
  0
SEQEND
  5
7F5
100
AcDbEntity
  8
GG1
 62
     1
  0
POLYLINE
  5
7F6
100
AcDbEntity
  8
GG1
 62
     1
100
AcDb2dPolyline
 66
     1
 10
0.0
 20
0.0
 30
0.0
  0
VERTEX
  5
7F7
100
AcDbEntity
  8
GG1
 62
     1
100
AcDbVertex
100
AcDb2dVertex
 10
0.5566
 20
-0.6198
 30
0.0
  0
VERTEX
  5
7F8
100
AcDbEntity
  8
GG1
 62
     1
100
AcDbVertex
100
AcDb2dVertex
 10
0.5566
 20
-0.7007
 30
0.0
  0
VERTEX
  5
7F9
100
AcDbEntity
  8
GG1
 62
     1
100
AcDbVertex
100
AcDb2dVertex
 10
0.5613
 20
-0.715
 30
0.0
  0
VERTEX
  5
7FA
100
AcDbEntity
  8
GG1
 62
     1
100
AcDbVertex
100
AcDb2dVertex
 10
0.5708
 20
-0.7197
 30
0.0
  0
VERTEX
  5
7FB
100
AcDbEntity
  8
GG1
 62
     1
100
AcDbVertex
100
AcDb2dVertex
 10
0.5804
 20
-0.7197
 30
0.0
  0
SEQEND
  5
7FC
100
AcDbEntity
  8
GG1
 62
     1
  0
POLYLINE
  5
7FD
100
AcDbEntity
  8
GG1
 62
     1
100
AcDb2dPolyline
 66
     1
 10
0.0
 20
0.0
 30
0.0
  0
VERTEX
  5
7FE
100
AcDbEntity
  8
GG1
 62
     1
100
AcDbVertex
100
AcDb2dVertex
 10
0.5423
 20
-0.6531
 30
0.0
  0
VERTEX
  5
7FF
100
AcDbEntity
  8
GG1
 62
     1
100
AcDbVertex
100
AcDb2dVertex
 10
0.5756
 20
-0.6531
 30
0.0
  0
SEQEND
  5
800
100
AcDbEntity
  8
GG1
 62
     1
  0
POLYLINE
  5
801
100
AcDbEntity
  8
GG1
 62
     1
100
AcDb2dPolyline
 66
     1
 10
0.0
 20
0.0
 30
0.0
  0
VERTEX
  5
802
100
AcDbEntity
  8
GG1
 62
     1
100
AcDbVertex
100
AcDb2dVertex
 10
0.5946
 20
-0.6817
 30
0.0
  0
VERTEX
  5
803
100
AcDbEntity
  8
GG1
 62
     1
100
AcDbVertex
100
AcDb2dVertex
 10
0.6518
 20
-0.6817
 30
0.0
  0
VERTEX
  5
804
100
AcDbEntity
  8
GG1
 62
     1
100
AcDbVertex
100
AcDb2dVertex
 10
0.6518
 20
-0.6721
 30
0.0
  0
VERTEX
  5
805
100
AcDbEntity
  8
GG1
 62
     1
100
AcDbVertex
100
AcDb2dVertex
 10
0.647
 20
-0.6626
 30
0.0
  0
VERTEX
  5
806
100
AcDbEntity
  8
GG1
 62
     1
100
AcDbVertex
100
AcDb2dVertex
 10
0.6423
 20
-0.6578
 30
0.0
  0
VERTEX
  5
807
100
AcDbEntity
  8
GG1
 62
     1
100
AcDbVertex
100
AcDb2dVertex
 10
0.6327
 20
-0.6531
 30
0.0
  0
VERTEX
  5
808
100
AcDbEntity
  8
GG1
 62
     1
100
AcDbVertex
100
AcDb2dVertex
 10
0.6184
 20
-0.6531
 30
0.0
  0
VERTEX
  5
809
100
AcDbEntity
  8
GG1
 62
     1
100
AcDbVertex
100
AcDb2dVertex
 10
0.6089
 20
-0.6578
 30
0.0
  0
VERTEX
  5
80A
100
AcDbEntity
  8
GG1
 62
     1
100
AcDbVertex
100
AcDb2dVertex
 10
0.5994
 20
-0.6674
 30
0.0
  0
VERTEX
  5
80B
100
AcDbEntity
  8
GG1
 62
     1
100
AcDbVertex
100
AcDb2dVertex
 10
0.5946
 20
-0.6817
 30
0.0
  0
VERTEX
  5
80C
100
AcDbEntity
  8
GG1
 62
     1
100
AcDbVertex
100
AcDb2dVertex
 10
0.5946
 20
-0.6912
 30
0.0
  0
VERTEX
  5
80D
100
AcDbEntity
  8
GG1
 62
     1
100
AcDbVertex
100
AcDb2dVertex
 10
0.5994
 20
-0.7055
 30
0.0
  0
VERTEX
  5
80E
100
AcDbEntity
  8
GG1
 62
     1
100
AcDbVertex
100
AcDb2dVertex
 10
0.6089
 20
-0.715
 30
0.0
  0
VERTEX
  5
80F
100
AcDbEntity
  8
GG1
 62
     1
100
AcDbVertex
100
AcDb2dVertex
 10
0.6184
 20
-0.7197
 30
0.0
  0
VERTEX
  5
810
100
AcDbEntity
  8
GG1
 62
     1
100
AcDbVertex
100
AcDb2dVertex
 10
0.6327
 20
-0.7197
 30
0.0
  0
VERTEX
  5
811
100
AcDbEntity
  8
GG1
 62
     1
100
AcDbVertex
100
AcDb2dVertex
 10
0.6423
 20
-0.715
 30
0.0
  0
VERTEX
  5
812
100
AcDbEntity
  8
GG1
 62
     1
100
AcDbVertex
100
AcDb2dVertex
 10
0.6518
 20
-0.7055
 30
0.0
  0
SEQEND
  5
813
100
AcDbEntity
  8
GG1
 62
     1
  0
POLYLINE
  5
814
100
AcDbEntity
  8
GG1
 62
     1
100
AcDb2dPolyline
 66
     1
 10
0.0
 20
0.0
 30
0.0
  0
VERTEX
  5
815
100
AcDbEntity
  8
GG1
 62
     1
100
AcDbVertex
100
AcDb2dVertex
 10
0.6732
 20
-0.6531
 30
0.0
  0
VERTEX
  5
816
100
AcDbEntity
  8
GG1
 62
     1
100
AcDbVertex
100
AcDb2dVertex
 10
0.6732
 20
-0.7197
 30
0.0
  0
SEQEND
  5
817
100
AcDbEntity
  8
GG1
 62
     1
  0
POLYLINE
  5
818
100
AcDbEntity
  8
GG1
 62
     1
100
AcDb2dPolyline
 66
     1
 10
0.0
 20
0.0
 30
0.0
  0
VERTEX
  5
819
100
AcDbEntity
  8
GG1
 62
     1
100
AcDbVertex
100
AcDb2dVertex
 10
0.6732
 20
-0.6721
 30
0.0
  0
VERTEX
  5
81A
100
AcDbEntity
  8
GG1
 62
     1
100
AcDbVertex
100
AcDb2dVertex
 10
0.6875
 20
-0.6578
 30
0.0
  0
VERTEX
  5
81B
100
AcDbEntity
  8
GG1
 62
     1
100
AcDbVertex
100
AcDb2dVertex
 10
0.697
 20
-0.6531
 30
0.0
  0
VERTEX
  5
81C
100
AcDbEntity
  8
GG1
 62
     1
100
AcDbVertex
100
AcDb2dVertex
 10
0.7113
 20
-0.6531
 30
0.0
  0
VERTEX
  5
81D
100
AcDbEntity
  8
GG1
 62
     1
100
AcDbVertex
100
AcDb2dVertex
 10
0.7208
 20
-0.6578
 30
0.0
  0
VERTEX
  5
81E
100
AcDbEntity
  8
GG1
 62
     1
100
AcDbVertex
100
AcDb2dVertex
 10
0.7256
 20
-0.6721
 30
0.0
  0
VERTEX
  5
81F
100
AcDbEntity
  8
GG1
 62
     1
100
AcDbVertex
100
AcDb2dVertex
 10
0.7256
 20
-0.7197
 30
0.0
  0
SEQEND
  5
820
100
AcDbEntity
  8
GG1
 62
     1
  0
POLYLINE
  5
821
100
AcDbEntity
  8
GG1
 62
     1
100
AcDb2dPolyline
 66
     1
 10
0.0
 20
0.0
 30
0.0
  0
VERTEX
  5
822
100
AcDbEntity
  8
GG1
 62
     1
100
AcDbVertex
100
AcDb2dVertex
 10
0.7256
 20
-0.6721
 30
0.0
  0
VERTEX
  5
823
100
AcDbEntity
  8
GG1
 62
     1
100
AcDbVertex
100
AcDb2dVertex
 10
0.7399
 20
-0.6578
 30
0.0
  0
VERTEX
  5
824
100
AcDbEntity
  8
GG1
 62
     1
100
AcDbVertex
100
AcDb2dVertex
 10
0.7494
 20
-0.6531
 30
0.0
  0
VERTEX
  5
825
100
AcDbEntity
  8
GG1
 62
     1
100
AcDbVertex
100
AcDb2dVertex
 10
0.7637
 20
-0.6531
 30
0.0
  0
VERTEX
  5
826
100
AcDbEntity
  8
GG1
 62
     1
100
AcDbVertex
100
AcDb2dVertex
 10
0.7732
 20
-0.6578
 30
0.0
  0
VERTEX
  5
827
100
AcDbEntity
  8
GG1
 62
     1
100
AcDbVertex
100
AcDb2dVertex
 10
0.7779
 20
-0.6721
 30
0.0
  0
VERTEX
  5
828
100
AcDbEntity
  8
GG1
 62
     1
100
AcDbVertex
100
AcDb2dVertex
 10
0.7779
 20
-0.7197
 30
0.0
  0
SEQEND
  5
829
100
AcDbEntity
  8
GG1
 62
     1
  0
POLYLINE
  5
82A
100
AcDbEntity
  8
GG1
 62
     1
100
AcDb2dPolyline
 66
     1
 10
0.0
 20
0.0
 30
0.0
  0
VERTEX
  5
82B
100
AcDbEntity
  8
GG1
 62
     1
100
AcDbVertex
100
AcDb2dVertex
 10
0.8879
 20
-0.6198
 30
0.0
  0
VERTEX
  5
82C
100
AcDbEntity
  8
GG1
 62
     1
100
AcDbVertex
100
AcDb2dVertex
 10
0.8879
 20
-0.7197
 30
0.0
  0
SEQEND
  5
82D
100
AcDbEntity
  8
GG1
 62
     1
  0
POLYLINE
  5
82E
100
AcDbEntity
  8
GG1
 62
     1
100
AcDb2dPolyline
 66
     1
 10
0.0
 20
0.0
 30
0.0
  0
VERTEX
  5
82F
100
AcDbEntity
  8
GG1
 62
     1
100
AcDbVertex
100
AcDb2dVertex
 10
0.8879
 20
-0.6198
 30
0.0
  0
VERTEX
  5
830
100
AcDbEntity
  8
GG1
 62
     1
100
AcDbVertex
100
AcDb2dVertex
 10
0.926
 20
-0.7197
 30
0.0
  0
SEQEND
  5
831
100
AcDbEntity
  8
GG1
 62
     1
  0
POLYLINE
  5
832
100
AcDbEntity
  8
GG1
 62
     1
100
AcDb2dPolyline
 66
     1
 10
0.0
 20
0.0
 30
0.0
  0
VERTEX
  5
833
100
AcDbEntity
  8
GG1
 62
     1
100
AcDbVertex
100
AcDb2dVertex
 10
0.9641
 20
-0.6198
 30
0.0
  0
VERTEX
  5
834
100
AcDbEntity
  8
GG1
 62
     1
100
AcDbVertex
100
AcDb2dVertex
 10
0.926
 20
-0.7197
 30
0.0
  0
SEQEND
  5
835
100
AcDbEntity
  8
GG1
 62
     1
  0
POLYLINE
  5
836
100
AcDbEntity
  8
GG1
 62
     1
100
AcDb2dPolyline
 66
     1
 10
0.0
 20
0.0
 30
0.0
  0
VERTEX
  5
837
100
AcDbEntity
  8
GG1
 62
     1
100
AcDbVertex
100
AcDb2dVertex
 10
0.9641
 20
-0.6198
 30
0.0
  0
VERTEX
  5
838
100
AcDbEntity
  8
GG1
 62
     1
100
AcDbVertex
100
AcDb2dVertex
 10
0.9641
 20
-0.7197
 30
0.0
  0
SEQEND
  5
839
100
AcDbEntity
  8
GG1
 62
     1
  0
POLYLINE
  5
83A
100
AcDbEntity
  8
GG1
 62
     1
100
AcDb2dPolyline
 66
     1
 10
0.0
 20
0.0
 30
0.0
  0
VERTEX
  5
83B
100
AcDbEntity
  8
GG1
 62
     1
100
AcDbVertex
100
AcDb2dVertex
 10
0.9927
 20
-0.6198
 30
0.0
  0
VERTEX
  5
83C
100
AcDbEntity
  8
GG1
 62
     1
100
AcDbVertex
100
AcDb2dVertex
 10
0.9927
 20
-0.7197
 30
0.0
  0
SEQEND
  5
83D
100
AcDbEntity
  8
GG1
 62
     1
  0
POLYLINE
  5
83E
100
AcDbEntity
  8
GG1
 62
     1
100
AcDb2dPolyline
 66
     1
 10
0.0
 20
0.0
 30
0.0
  0
VERTEX
  5
83F
100
AcDbEntity
  8
GG1
 62
     1
100
AcDbVertex
100
AcDb2dVertex
 10
0.9927
 20
-0.6198
 30
0.0
  0
VERTEX
  5
840
100
AcDbEntity
  8
GG1
 62
     1
100
AcDbVertex
100
AcDb2dVertex
 10
1.026
 20
-0.6198
 30
0.0
  0
VERTEX
  5
841
100
AcDbEntity
  8
GG1
 62
     1
100
AcDbVertex
100
AcDb2dVertex
 10
1.0403
 20
-0.6245
 30
0.0
  0
VERTEX
  5
842
100
AcDbEntity
  8
GG1
 62
     1
100
AcDbVertex
100
AcDb2dVertex
 10
1.0498
 20
-0.634
 30
0.0
  0
VERTEX
  5
843
100
AcDbEntity
  8
GG1
 62
     1
100
AcDbVertex
100
AcDb2dVertex
 10
1.0545
 20
-0.6436
 30
0.0
  0
VERTEX
  5
844
100
AcDbEntity
  8
GG1
 62
     1
100
AcDbVertex
100
AcDb2dVertex
 10
1.0593
 20
-0.6578
 30
0.0
  0
VERTEX
  5
845
100
AcDbEntity
  8
GG1
 62
     1
100
AcDbVertex
100
AcDb2dVertex
 10
1.0593
 20
-0.6817
 30
0.0
  0
VERTEX
  5
846
100
AcDbEntity
  8
GG1
 62
     1
100
AcDbVertex
100
AcDb2dVertex
 10
1.0545
 20
-0.6959
 30
0.0
  0
VERTEX
  5
847
100
AcDbEntity
  8
GG1
 62
     1
100
AcDbVertex
100
AcDb2dVertex
 10
1.0498
 20
-0.7055
 30
0.0
  0
VERTEX
  5
848
100
AcDbEntity
  8
GG1
 62
     1
100
AcDbVertex
100
AcDb2dVertex
 10
1.0403
 20
-0.715
 30
0.0
  0
VERTEX
  5
849
100
AcDbEntity
  8
GG1
 62
     1
100
AcDbVertex
100
AcDb2dVertex
 10
1.026
 20
-0.7197
 30
0.0
  0
VERTEX
  5
84A
100
AcDbEntity
  8
GG1
 62
     1
100
AcDbVertex
100
AcDb2dVertex
 10
0.9927
 20
-0.7197
 30
0.0
  0
SEQEND
  5
84B
100
AcDbEntity
  8
GG1
 62
     1
  0
POLYLINE
  5
84C
100
AcDbEntity
  8
GG1
 62
     1
100
AcDb2dPolyline
 66
     1
 10
0.0
 20
0.0
 30
0.0
  0
VERTEX
  5
84D
100
AcDbEntity
  8
GG1
 62
     1
100
AcDbVertex
100
AcDb2dVertex
 10
1.1102
 20
-0.6198
 30
0.0
  0
VERTEX
  5
84E
100
AcDbEntity
  8
GG1
 62
     1
100
AcDbVertex
100
AcDb2dVertex
 10
1.096
 20
-0.6245
 30
0.0
  0
VERTEX
  5
84F
100
AcDbEntity
  8
GG1
 62
     1
100
AcDbVertex
100
AcDb2dVertex
 10
1.0864
 20
-0.6388
 30
0.0
  0
VERTEX
  5
850
100
AcDbEntity
  8
GG1
 62
     1
100
AcDbVertex
100
AcDb2dVertex
 10
1.0817
 20
-0.6626
 30
0.0
  0
VERTEX
  5
851
100
AcDbEntity
  8
GG1
 62
     1
100
AcDbVertex
100
AcDb2dVertex
 10
1.0817
 20
-0.6769
 30
0.0
  0
VERTEX
  5
852
100
AcDbEntity
  8
GG1
 62
     1
100
AcDbVertex
100
AcDb2dVertex
 10
1.0864
 20
-0.7007
 30
0.0
  0
VERTEX
  5
853
100
AcDbEntity
  8
GG1
 62
     1
100
AcDbVertex
100
AcDb2dVertex
 10
1.096
 20
-0.715
 30
0.0
  0
VERTEX
  5
854
100
AcDbEntity
  8
GG1
 62
     1
100
AcDbVertex
100
AcDb2dVertex
 10
1.1102
 20
-0.7197
 30
0.0
  0
VERTEX
  5
855
100
AcDbEntity
  8
GG1
 62
     1
100
AcDbVertex
100
AcDb2dVertex
 10
1.1198
 20
-0.7197
 30
0.0
  0
VERTEX
  5
856
100
AcDbEntity
  8
GG1
 62
     1
100
AcDbVertex
100
AcDb2dVertex
 10
1.1341
 20
-0.715
 30
0.0
  0
VERTEX
  5
857
100
AcDbEntity
  8
GG1
 62
     1
100
AcDbVertex
100
AcDb2dVertex
 10
1.1436
 20
-0.7007
 30
0.0
  0
VERTEX
  5
858
100
AcDbEntity
  8
GG1
 62
     1
100
AcDbVertex
100
AcDb2dVertex
 10
1.1483
 20
-0.6769
 30
0.0
  0
VERTEX
  5
859
100
AcDbEntity
  8
GG1
 62
     1
100
AcDbVertex
100
AcDb2dVertex
 10
1.1483
 20
-0.6626
 30
0.0
  0
VERTEX
  5
85A
100
AcDbEntity
  8
GG1
 62
     1
100
AcDbVertex
100
AcDb2dVertex
 10
1.1436
 20
-0.6388
 30
0.0
  0
VERTEX
  5
85B
100
AcDbEntity
  8
GG1
 62
     1
100
AcDbVertex
100
AcDb2dVertex
 10
1.1341
 20
-0.6245
 30
0.0
  0
VERTEX
  5
85C
100
AcDbEntity
  8
GG1
 62
     1
100
AcDbVertex
100
AcDb2dVertex
 10
1.1198
 20
-0.6198
 30
0.0
  0
VERTEX
  5
85D
100
AcDbEntity
  8
GG1
 62
     1
100
AcDbVertex
100
AcDb2dVertex
 10
1.1102
 20
-0.6198
 30
0.0
  0
SEQEND
  5
85E
100
AcDbEntity
  8
GG1
 62
     1
  0
POLYLINE
  5
85F
100
AcDbEntity
  8
GG1
 62
     1
100
AcDb2dPolyline
 66
     1
 10
0.0
 20
0.0
 30
0.0
  0
VERTEX
  5
860
100
AcDbEntity
  8
GG1
 62
     1
100
AcDbVertex
100
AcDb2dVertex
 10
1.1802
 20
-0.6198
 30
0.0
  0
VERTEX
  5
861
100
AcDbEntity
  8
GG1
 62
     1
100
AcDbVertex
100
AcDb2dVertex
 10
1.2326
 20
-0.6198
 30
0.0
  0
VERTEX
  5
862
100
AcDbEntity
  8
GG1
 62
     1
100
AcDbVertex
100
AcDb2dVertex
 10
1.204
 20
-0.6578
 30
0.0
  0
VERTEX
  5
863
100
AcDbEntity
  8
GG1
 62
     1
100
AcDbVertex
100
AcDb2dVertex
 10
1.2183
 20
-0.6578
 30
0.0
  0
VERTEX
  5
864
100
AcDbEntity
  8
GG1
 62
     1
100
AcDbVertex
100
AcDb2dVertex
 10
1.2278
 20
-0.6626
 30
0.0
  0
VERTEX
  5
865
100
AcDbEntity
  8
GG1
 62
     1
100
AcDbVertex
100
AcDb2dVertex
 10
1.2326
 20
-0.6674
 30
0.0
  0
VERTEX
  5
866
100
AcDbEntity
  8
GG1
 62
     1
100
AcDbVertex
100
AcDb2dVertex
 10
1.2374
 20
-0.6817
 30
0.0
  0
VERTEX
  5
867
100
AcDbEntity
  8
GG1
 62
     1
100
AcDbVertex
100
AcDb2dVertex
 10
1.2374
 20
-0.6912
 30
0.0
  0
VERTEX
  5
868
100
AcDbEntity
  8
GG1
 62
     1
100
AcDbVertex
100
AcDb2dVertex
 10
1.2326
 20
-0.7055
 30
0.0
  0
VERTEX
  5
869
100
AcDbEntity
  8
GG1
 62
     1
100
AcDbVertex
100
AcDb2dVertex
 10
1.2231
 20
-0.715
 30
0.0
  0
VERTEX
  5
86A
100
AcDbEntity
  8
GG1
 62
     1
100
AcDbVertex
100
AcDb2dVertex
 10
1.2088
 20
-0.7197
 30
0.0
  0
VERTEX
  5
86B
100
AcDbEntity
  8
GG1
 62
     1
100
AcDbVertex
100
AcDb2dVertex
 10
1.1945
 20
-0.7197
 30
0.0
  0
VERTEX
  5
86C
100
AcDbEntity
  8
GG1
 62
     1
100
AcDbVertex
100
AcDb2dVertex
 10
1.1802
 20
-0.715
 30
0.0
  0
VERTEX
  5
86D
100
AcDbEntity
  8
GG1
 62
     1
100
AcDbVertex
100
AcDb2dVertex
 10
1.1755
 20
-0.7102
 30
0.0
  0
VERTEX
  5
86E
100
AcDbEntity
  8
GG1
 62
     1
100
AcDbVertex
100
AcDb2dVertex
 10
1.1707
 20
-0.7007
 30
0.0
  0
SEQEND
  5
86F
100
AcDbEntity
  8
GG1
 62
     1
  0
POLYLINE
  5
870
100
AcDbEntity
  8
GG1
 62
     1
100
AcDb2dPolyline
 66
     1
 10
0.0
 20
0.0
 30
0.0
  0
VERTEX
  5
871
100
AcDbEntity
  8
GG1
 62
     1
100
AcDbVertex
100
AcDb2dVertex
 10
1.3359
 20
-0.7197
 30
0.0
  0
VERTEX
  5
872
100
AcDbEntity
  8
GG1
 62
     1
100
AcDbVertex
100
AcDb2dVertex
 10
1.2978
 20
-0.6198
 30
0.0
  0
VERTEX
  5
873
100
AcDbEntity
  8
GG1
 62
     1
100
AcDbVertex
100
AcDb2dVertex
 10
1.2597
 20
-0.7197
 30
0.0
  0
SEQEND
  5
874
100
AcDbEntity
  8
GG1
 62
     1
  0
POLYLINE
  5
875
100
AcDbEntity
  8
GG1
 62
     1
100
AcDb2dPolyline
 66
     1
 10
0.0
 20
0.0
 30
0.0
  0
VERTEX
  5
876
100
AcDbEntity
  8
GG1
 62
     1
100
AcDbVertex
100
AcDb2dVertex
 10
1.274
 20
-0.6864
 30
0.0
  0
VERTEX
  5
877
100
AcDbEntity
  8
GG1
 62
     1
100
AcDbVertex
100
AcDb2dVertex
 10
1.3216
 20
-0.6864
 30
0.0
  0
SEQEND
  5
878
100
AcDbEntity
  8
GG1
 62
     1
  0
LINE
  5
119A
100
AcDbEntity
  8
GG1
 62
     1
100
AcDbLine
 10
1.209
 20
1.7825
 30
0.0
 11
1.251
 21
1.7825
 31
0.0
  0
LINE
  5
119B
100
AcDbEntity
  8
GG1
 62
     1
100
AcDbLine
 10
1.187
 20
0.16
 30
0.0
 11
1.273
 21
0.16
 31
0.0
  0
LINE
  5
119C
100
AcDbEntity
  8
GG1
 62
     1
100
AcDbLine
 10
0.0
 20
0.0
 30
0.0
 11
1.86
 21
0.0
 31
0.0
  0
LINE
  5
119D
100
AcDbEntity
  8
GG1
 62
     1
100
AcDbLine
 10
0.0
 20
1.86
 30
0.0
 11
1.86
 21
1.86
 31
0.0
  0
LINE
  5
119E
100
AcDbEntity
  8
GG1
 62
     1
100
AcDbLine
 10
1.1899
 20
-0.175
 30
0.0
 11
1.86
 21
-0.175
 31
0.0
  0
LINE
  5
119F
100
AcDbEntity
  8
GG1
 62
     1
100
AcDbLine
 10
0.0
 20
0.0
 30
0.0
 11
0.0
 21
1.86
 31
0.0
  0
LINE
  5
11A0
100
AcDbEntity
  8
GG1
 62
     1
100
AcDbLine
 10
-0.2
 20
0.0
 30
0.0
 11
-0.2
 21
0.6381
 31
0.0
  0
LINE
  5
11A1
100
AcDbEntity
  8
GG1
 62
     1
100
AcDbLine
 10
0.0
 20
-0.175
 30
0.0
 11
0.6381
 21
-0.175
 31
0.0
  0
LINE
  5
11A2
100
AcDbEntity
  8
GG1
 62
     1
100
AcDbLine
 10
-0.21
 20
0.0
 30
0.0
 11
-0.015
 21
0.0
 31
0.0
  0
LINE
  5
11A3
100
AcDbEntity
  8
GG1
 62
     1
100
AcDbLine
 10
-0.2
 20
0.0
 30
0.0
 11
-0.18
 21
0.06
 31
0.0
  0
LINE
  5
11A4
100
AcDbEntity
  8
GG1
 62
     1
100
AcDbLine
 10
-0.22
 20
0.06
 30
0.0
 11
-0.2
 21
0.0
 31
0.0
  0
LINE
  5
11A5
100
AcDbEntity
  8
GG1
 62
     1
100
AcDbLine
 10
0.0
 20
-0.185
 30
0.0
 11
0.0
 21
-0.015
 31
0.0
  0
LINE
  5
11A6
100
AcDbEntity
  8
GG1
 62
     1
100
AcDbLine
 10
0.0
 20
-0.175
 30
0.0
 11
0.06
 21
-0.155
 31
0.0
  0
LINE
  5
11A7
100
AcDbEntity
  8
GG1
 62
     1
100
AcDbLine
 10
0.0
 20
-0.175
 30
0.0
 11
0.06
 21
-0.195
 31
0.0
  0
LINE
  5
11A8
100
AcDbEntity
  8
GG1
 62
     1
100
AcDbLine
 10
0.804
 20
-0.151
 30
0.0
 11
0.784
 21
-0.161
 31
0.0
  0
LINE
  5
11A9
100
AcDbEntity
  8
GG1
 62
     1
100
AcDbLine
 10
0.784
 20
-0.161
 30
0.0
 11
0.764
 21
-0.181
 31
0.0
  0
LINE
  5
11AA
100
AcDbEntity
  8
GG1
 62
     1
100
AcDbLine
 10
0.764
 20
-0.181
 30
0.0
 11
0.764
 21
-0.201
 31
0.0
  0
LINE
  5
11AB
100
AcDbEntity
  8
GG1
 62
     1
100
AcDbLine
 10
0.764
 20
-0.201
 30
0.0
 11
0.774
 21
-0.211
 31
0.0
  0
LINE
  5
11AC
100
AcDbEntity
  8
GG1
 62
     1
100
AcDbLine
 10
0.774
 20
-0.211
 30
0.0
 11
0.794
 21
-0.211
 31
0.0
  0
LINE
  5
11AD
100
AcDbEntity
  8
GG1
 62
     1
100
AcDbLine
 10
0.794
 20
-0.211
 30
0.0
 11
0.804
 21
-0.201
 31
0.0
  0
LINE
  5
11AE
100
AcDbEntity
  8
GG1
 62
     1
100
AcDbLine
 10
0.804
 20
-0.201
 30
0.0
 11
0.804
 21
-0.191
 31
0.0
  0
LINE
  5
11AF
100
AcDbEntity
  8
GG1
 62
     1
100
AcDbLine
 10
0.804
 20
-0.191
 30
0.0
 11
0.794
 21
-0.181
 31
0.0
  0
LINE
  5
11B0
100
AcDbEntity
  8
GG1
 62
     1
100
AcDbLine
 10
0.794
 20
-0.181
 30
0.0
 11
0.764
 21
-0.181
 31
0.0
  0
LINE
  5
11B1
100
AcDbEntity
  8
GG1
 62
     1
100
AcDbLine
 10
0.6541
 20
-0.211
 30
0.0
 11
0.6741
 21
-0.211
 31
0.0
  0
LINE
  5
11B2
100
AcDbEntity
  8
GG1
 62
     1
100
AcDbLine
 10
0.6741
 20
-0.211
 30
0.0
 11
0.6641
 21
-0.211
 31
0.0
  0
LINE
  5
11B3
100
AcDbEntity
  8
GG1
 62
     1
100
AcDbLine
 10
0.6641
 20
-0.211
 30
0.0
 11
0.6641
 21
-0.151
 31
0.0
  0
LINE
  5
11B4
100
AcDbEntity
  8
GG1
 62
     1
100
AcDbLine
 10
0.6641
 20
-0.151
 30
0.0
 11
0.6541
 21
-0.161
 31
0.0
  0
LINE
  5
11B5
100
AcDbEntity
  8
GG1
 62
     1
100
AcDbLine
 10
0.7141
 20
-0.181
 30
0.0
 11
0.7341
 21
-0.181
 31
0.0
  0
LINE
  5
11B6
100
AcDbEntity
  8
GG1
 62
     1
100
AcDbLine
 10
0.7041
 20
-0.161
 30
0.0
 11
0.7141
 21
-0.151
 31
0.0
  0
LINE
  5
11B7
100
AcDbEntity
  8
GG1
 62
     1
100
AcDbLine
 10
0.7141
 20
-0.151
 30
0.0
 11
0.7341
 21
-0.151
 31
0.0
  0
LINE
  5
11B8
100
AcDbEntity
  8
GG1
 62
     1
100
AcDbLine
 10
0.7341
 20
-0.151
 30
0.0
 11
0.7441
 21
-0.161
 31
0.0
  0
LINE
  5
11B9
100
AcDbEntity
  8
GG1
 62
     1
100
AcDbLine
 10
0.7441
 20
-0.161
 30
0.0
 11
0.7441
 21
-0.171
 31
0.0
  0
LINE
  5
11BA
100
AcDbEntity
  8
GG1
 62
     1
100
AcDbLine
 10
0.7441
 20
-0.171
 30
0.0
 11
0.7341
 21
-0.181
 31
0.0
  0
LINE
  5
11BB
100
AcDbEntity
  8
GG1
 62
     1
100
AcDbLine
 10
0.7341
 20
-0.181
 30
0.0
 11
0.7441
 21
-0.191
 31
0.0
  0
LINE
  5
11BC
100
AcDbEntity
  8
GG1
 62
     1
100
AcDbLine
 10
0.7441
 20
-0.191
 30
0.0
 11
0.7441
 21
-0.201
 31
0.0
  0
LINE
  5
11BD
100
AcDbEntity
  8
GG1
 62
     1
100
AcDbLine
 10
0.7441
 20
-0.201
 30
0.0
 11
0.7341
 21
-0.211
 31
0.0
  0
LINE
  5
11BE
100
AcDbEntity
  8
GG1
 62
     1
100
AcDbLine
 10
0.7341
 20
-0.211
 30
0.0
 11
0.7141
 21
-0.211
 31
0.0
  0
LINE
  5
11BF
100
AcDbEntity
  8
GG1
 62
     1
100
AcDbLine
 10
0.7141
 20
-0.211
 30
0.0
 11
0.7041
 21
-0.201
 31
0.0
  0
LINE
  5
11C0
100
AcDbEntity
  8
GG1
 62
     1
100
AcDbLine
 10
0.7041
 20
-0.201
 30
0.0
 11
0.7041
 21
-0.191
 31
0.0
  0
LINE
  5
11C1
100
AcDbEntity
  8
GG1
 62
     1
100
AcDbLine
 10
0.7041
 20
-0.191
 30
0.0
 11
0.7141
 21
-0.181
 31
0.0
  0
LINE
  5
11C2
100
AcDbEntity
  8
GG1
 62
     1
100
AcDbLine
 10
0.7141
 20
-0.181
 30
0.0
 11
0.7041
 21
-0.171
 31
0.0
  0
LINE
  5
11C3
100
AcDbEntity
  8
GG1
 62
     1
100
AcDbLine
 10
0.7041
 20
-0.171
 30
0.0
 11
0.7041
 21
-0.161
 31
0.0
  0
LINE
  5
11C4
100
AcDbEntity
  8
GG1
 62
     1
100
AcDbLine
 10
0.994
 20
-0.211
 30
0.0
 11
0.994
 21
-0.171
 31
0.0
  0
LINE
  5
11C5
100
AcDbEntity
  8
GG1
 62
     1
100
AcDbLine
 10
0.994
 20
-0.171
 30
0.0
 11
1.004
 21
-0.171
 31
0.0
  0
LINE
  5
11C6
100
AcDbEntity
  8
GG1
 62
     1
100
AcDbLine
 10
1.004
 20
-0.171
 30
0.0
 11
1.014
 21
-0.181
 31
0.0
  0
LINE
  5
11C7
100
AcDbEntity
  8
GG1
 62
     1
100
AcDbLine
 10
1.014
 20
-0.181
 30
0.0
 11
1.014
 21
-0.211
 31
0.0
  0
LINE
  5
11C8
100
AcDbEntity
  8
GG1
 62
     1
100
AcDbLine
 10
1.014
 20
-0.211
 30
0.0
 11
1.014
 21
-0.181
 31
0.0
  0
LINE
  5
11C9
100
AcDbEntity
  8
GG1
 62
     1
100
AcDbLine
 10
1.014
 20
-0.181
 30
0.0
 11
1.024
 21
-0.171
 31
0.0
  0
LINE
  5
11CA
100
AcDbEntity
  8
GG1
 62
     1
100
AcDbLine
 10
1.024
 20
-0.171
 30
0.0
 11
1.034
 21
-0.181
 31
0.0
  0
LINE
  5
11CB
100
AcDbEntity
  8
GG1
 62
     1
100
AcDbLine
 10
1.034
 20
-0.181
 30
0.0
 11
1.034
 21
-0.211
 31
0.0
  0
LINE
  5
11CC
100
AcDbEntity
  8
GG1
 62
     1
100
AcDbLine
 10
0.824
 20
-0.161
 30
0.0
 11
0.834
 21
-0.151
 31
0.0
  0
LINE
  5
11CD
100
AcDbEntity
  8
GG1
 62
     1
100
AcDbLine
 10
0.834
 20
-0.151
 30
0.0
 11
0.854
 21
-0.151
 31
0.0
  0
LINE
  5
11CE
100
AcDbEntity
  8
GG1
 62
     1
100
AcDbLine
 10
0.854
 20
-0.151
 30
0.0
 11
0.864
 21
-0.161
 31
0.0
  0
LINE
  5
11CF
100
AcDbEntity
  8
GG1
 62
     1
100
AcDbLine
 10
0.864
 20
-0.161
 30
0.0
 11
0.864
 21
-0.201
 31
0.0
  0
LINE
  5
11D0
100
AcDbEntity
  8
GG1
 62
     1
100
AcDbLine
 10
0.864
 20
-0.201
 30
0.0
 11
0.854
 21
-0.211
 31
0.0
  0
LINE
  5
11D1
100
AcDbEntity
  8
GG1
 62
     1
100
AcDbLine
 10
0.854
 20
-0.211
 30
0.0
 11
0.834
 21
-0.211
 31
0.0
  0
LINE
  5
11D2
100
AcDbEntity
  8
GG1
 62
     1
100
AcDbLine
 10
0.834
 20
-0.211
 30
0.0
 11
0.824
 21
-0.201
 31
0.0
  0
LINE
  5
11D3
100
AcDbEntity
  8
GG1
 62
     1
100
AcDbLine
 10
0.824
 20
-0.201
 30
0.0
 11
0.824
 21
-0.161
 31
0.0
  0
LINE
  5
11D4
100
AcDbEntity
  8
GG1
 62
     1
100
AcDbLine
 10
0.964
 20
-0.211
 30
0.0
 11
0.944
 21
-0.191
 31
0.0
  0
LINE
  5
11D5
100
AcDbEntity
  8
GG1
 62
     1
100
AcDbLine
 10
0.944
 20
-0.191
 30
0.0
 11
0.944
 21
-0.171
 31
0.0
  0
LINE
  5
11D6
100
AcDbEntity
  8
GG1
 62
     1
100
AcDbLine
 10
0.944
 20
-0.171
 30
0.0
 11
0.964
 21
-0.151
 31
0.0
  0
LINE
  5
11D7
100
AcDbEntity
  8
GG1
 62
     1
100
AcDbLine
 10
1.054
 20
-0.211
 30
0.0
 11
1.0739
 21
-0.211
 31
0.0
  0
LINE
  5
11D8
100
AcDbEntity
  8
GG1
 62
     1
100
AcDbLine
 10
1.0739
 20
-0.211
 30
0.0
 11
1.064
 21
-0.211
 31
0.0
  0
LINE
  5
11D9
100
AcDbEntity
  8
GG1
 62
     1
100
AcDbLine
 10
1.064
 20
-0.211
 30
0.0
 11
1.064
 21
-0.171
 31
0.0
  0
LINE
  5
11DA
100
AcDbEntity
  8
GG1
 62
     1
100
AcDbLine
 10
1.064
 20
-0.171
 30
0.0
 11
1.054
 21
-0.171
 31
0.0
  0
LINE
  5
11DB
100
AcDbEntity
  8
GG1
 62
     1
100
AcDbLine
 10
1.1039
 20
-0.211
 30
0.0
 11
1.1239
 21
-0.211
 31
0.0
  0
LINE
  5
11DC
100
AcDbEntity
  8
GG1
 62
     1
100
AcDbLine
 10
1.1239
 20
-0.211
 30
0.0
 11
1.1139
 21
-0.211
 31
0.0
  0
LINE
  5
11DD
100
AcDbEntity
  8
GG1
 62
     1
100
AcDbLine
 10
1.1139
 20
-0.211
 30
0.0
 11
1.1139
 21
-0.151
 31
0.0
  0
LINE
  5
11DE
100
AcDbEntity
  8
GG1
 62
     1
100
AcDbLine
 10
1.1139
 20
-0.151
 30
0.0
 11
1.1039
 21
-0.151
 31
0.0
  0
LINE
  5
11DF
100
AcDbEntity
  8
GG1
 62
     1
100
AcDbLine
 10
1.1539
 20
-0.211
 30
0.0
 11
1.1739
 21
-0.191
 31
0.0
  0
LINE
  5
11E0
100
AcDbEntity
  8
GG1
 62
     1
100
AcDbLine
 10
1.1739
 20
-0.191
 30
0.0
 11
1.1739
 21
-0.171
 31
0.0
  0
LINE
  5
11E1
100
AcDbEntity
  8
GG1
 62
     1
100
AcDbLine
 10
1.1739
 20
-0.171
 30
0.0
 11
1.1539
 21
-0.151
 31
0.0
  0
LINE
  5
11E2
100
AcDbEntity
  8
GG1
 62
     1
100
AcDbLine
 10
0.309
 20
1.7825
 30
0.0
 11
0.351
 21
1.7825
 31
0.0
  0
LINE
  5
11E3
100
AcDbEntity
  8
GG1
 62
     1
100
AcDbLine
 10
-0.2
 20
1.1899
 30
0.0
 11
-0.2
 21
1.86
 31
0.0
  0
LINE
  5
11E4
100
AcDbEntity
  8
GG1
 62
     1
100
AcDbLine
 10
-0.224
 20
0.804
 30
0.0
 11
-0.214
 21
0.784
 31
0.0
  0
LINE
  5
11E5
100
AcDbEntity
  8
GG1
 62
     1
100
AcDbLine
 10
-0.214
 20
0.784
 30
0.0
 11
-0.194
 21
0.764
 31
0.0
  0
LINE
  5
11E6
100
AcDbEntity
  8
GG1
 62
     1
100
AcDbLine
 10
-0.194
 20
0.764
 30
0.0
 11
-0.174
 21
0.764
 31
0.0
  0
LINE
  5
11E7
100
AcDbEntity
  8
GG1
 62
     1
100
AcDbLine
 10
-0.174
 20
0.764
 30
0.0
 11
-0.164
 21
0.774
 31
0.0
  0
LINE
  5
11E8
100
AcDbEntity
  8
GG1
 62
     1
100
AcDbLine
 10
-0.164
 20
0.774
 30
0.0
 11
-0.164
 21
0.794
 31
0.0
  0
LINE
  5
11E9
100
AcDbEntity
  8
GG1
 62
     1
100
AcDbLine
 10
-0.164
 20
0.794
 30
0.0
 11
-0.174
 21
0.804
 31
0.0
  0
LINE
  5
11EA
100
AcDbEntity
  8
GG1
 62
     1
100
AcDbLine
 10
-0.174
 20
0.804
 30
0.0
 11
-0.184
 21
0.804
 31
0.0
  0
LINE
  5
11EB
100
AcDbEntity
  8
GG1
 62
     1
100
AcDbLine
 10
-0.184
 20
0.804
 30
0.0
 11
-0.194
 21
0.794
 31
0.0
  0
LINE
  5
11EC
100
AcDbEntity
  8
GG1
 62
     1
100
AcDbLine
 10
-0.194
 20
0.794
 30
0.0
 11
-0.194
 21
0.764
 31
0.0
  0
LINE
  5
11ED
100
AcDbEntity
  8
GG1
 62
     1
100
AcDbLine
 10
-0.214
 20
0.7041
 30
0.0
 11
-0.224
 21
0.7141
 31
0.0
  0
LINE
  5
11EE
100
AcDbEntity
  8
GG1
 62
     1
100
AcDbLine
 10
-0.224
 20
0.7141
 30
0.0
 11
-0.224
 21
0.7341
 31
0.0
  0
LINE
  5
11EF
100
AcDbEntity
  8
GG1
 62
     1
100
AcDbLine
 10
-0.224
 20
0.7341
 30
0.0
 11
-0.214
 21
0.7441
 31
0.0
  0
LINE
  5
11F0
100
AcDbEntity
  8
GG1
 62
     1
100
AcDbLine
 10
-0.214
 20
0.7441
 30
0.0
 11
-0.204
 21
0.7441
 31
0.0
  0
LINE
  5
11F1
100
AcDbEntity
  8
GG1
 62
     1
100
AcDbLine
 10
-0.204
 20
0.7441
 30
0.0
 11
-0.194
 21
0.7341
 31
0.0
  0
LINE
  5
11F2
100
AcDbEntity
  8
GG1
 62
     1
100
AcDbLine
 10
-0.194
 20
0.7341
 30
0.0
 11
-0.184
 21
0.7441
 31
0.0
  0
LINE
  5
11F3
100
AcDbEntity
  8
GG1
 62
     1
100
AcDbLine
 10
-0.184
 20
0.7441
 30
0.0
 11
-0.174
 21
0.7441
 31
0.0
  0
LINE
  5
11F4
100
AcDbEntity
  8
GG1
 62
     1
100
AcDbLine
 10
-0.174
 20
0.7441
 30
0.0
 11
-0.164
 21
0.7341
 31
0.0
  0
LINE
  5
11F5
100
AcDbEntity
  8
GG1
 62
     1
100
AcDbLine
 10
-0.164
 20
0.7341
 30
0.0
 11
-0.164
 21
0.7141
 31
0.0
  0
LINE
  5
11F6
100
AcDbEntity
  8
GG1
 62
     1
100
AcDbLine
 10
-0.164
 20
0.7141
 30
0.0
 11
-0.174
 21
0.7041
 31
0.0
  0
LINE
  5
11F7
100
AcDbEntity
  8
GG1
 62
     1
100
AcDbLine
 10
-0.174
 20
0.7041
 30
0.0
 11
-0.184
 21
0.7041
 31
0.0
  0
LINE
  5
11F8
100
AcDbEntity
  8
GG1
 62
     1
100
AcDbLine
 10
-0.184
 20
0.7041
 30
0.0
 11
-0.194
 21
0.7141
 31
0.0
  0
LINE
  5
11F9
100
AcDbEntity
  8
GG1
 62
     1
100
AcDbLine
 10
-0.194
 20
0.7141
 30
0.0
 11
-0.204
 21
0.7041
 31
0.0
  0
LINE
  5
11FA
100
AcDbEntity
  8
GG1
 62
     1
100
AcDbLine
 10
-0.204
 20
0.7041
 30
0.0
 11
-0.214
 21
0.7041
 31
0.0
  0
LINE
  5
11FB
100
AcDbEntity
  8
GG1
 62
     1
100
AcDbLine
 10
-0.164
 20
0.6541
 30
0.0
 11
-0.164
 21
0.6741
 31
0.0
  0
LINE
  5
11FC
100
AcDbEntity
  8
GG1
 62
     1
100
AcDbLine
 10
-0.164
 20
0.6741
 30
0.0
 11
-0.164
 21
0.6641
 31
0.0
  0
LINE
  5
11FD
100
AcDbEntity
  8
GG1
 62
     1
100
AcDbLine
 10
-0.164
 20
0.6641
 30
0.0
 11
-0.224
 21
0.6641
 31
0.0
  0
LINE
  5
11FE
100
AcDbEntity
  8
GG1
 62
     1
100
AcDbLine
 10
-0.224
 20
0.6641
 30
0.0
 11
-0.214
 21
0.6541
 31
0.0
  0
LINE
  5
11FF
100
AcDbEntity
  8
GG1
 62
     1
100
AcDbLine
 10
-0.194
 20
0.7141
 30
0.0
 11
-0.194
 21
0.7341
 31
0.0
  0
LINE
  5
1200
100
AcDbEntity
  8
GG1
 62
     1
100
AcDbLine
 10
-0.214
 20
0.824
 30
0.0
 11
-0.224
 21
0.834
 31
0.0
  0
LINE
  5
1201
100
AcDbEntity
  8
GG1
 62
     1
100
AcDbLine
 10
-0.224
 20
0.834
 30
0.0
 11
-0.224
 21
0.854
 31
0.0
  0
LINE
  5
1202
100
AcDbEntity
  8
GG1
 62
     1
100
AcDbLine
 10
-0.224
 20
0.854
 30
0.0
 11
-0.214
 21
0.864
 31
0.0
  0
LINE
  5
1203
100
AcDbEntity
  8
GG1
 62
     1
100
AcDbLine
 10
-0.214
 20
0.864
 30
0.0
 11
-0.174
 21
0.864
 31
0.0
  0
LINE
  5
1204
100
AcDbEntity
  8
GG1
 62
     1
100
AcDbLine
 10
-0.174
 20
0.864
 30
0.0
 11
-0.164
 21
0.854
 31
0.0
  0
LINE
  5
1205
100
AcDbEntity
  8
GG1
 62
     1
100
AcDbLine
 10
-0.164
 20
0.854
 30
0.0
 11
-0.164
 21
0.834
 31
0.0
  0
LINE
  5
1206
100
AcDbEntity
  8
GG1
 62
     1
100
AcDbLine
 10
-0.164
 20
0.834
 30
0.0
 11
-0.174
 21
0.824
 31
0.0
  0
LINE
  5
1207
100
AcDbEntity
  8
GG1
 62
     1
100
AcDbLine
 10
-0.174
 20
0.824
 30
0.0
 11
-0.214
 21
0.824
 31
0.0
  0
LINE
  5
1208
100
AcDbEntity
  8
GG1
 62
     1
100
AcDbLine
 10
-0.164
 20
0.994
 30
0.0
 11
-0.204
 21
0.994
 31
0.0
  0
LINE
  5
1209
100
AcDbEntity
  8
GG1
 62
     1
100
AcDbLine
 10
-0.204
 20
0.994
 30
0.0
 11
-0.204
 21
1.004
 31
0.0
  0
LINE
  5
120A
100
AcDbEntity
  8
GG1
 62
     1
100
AcDbLine
 10
-0.204
 20
1.004
 30
0.0
 11
-0.194
 21
1.014
 31
0.0
  0
LINE
  5
120B
100
AcDbEntity
  8
GG1
 62
     1
100
AcDbLine
 10
-0.194
 20
1.014
 30
0.0
 11
-0.164
 21
1.014
 31
0.0
  0
LINE
  5
120C
100
AcDbEntity
  8
GG1
 62
     1
100
AcDbLine
 10
-0.164
 20
1.014
 30
0.0
 11
-0.194
 21
1.014
 31
0.0
  0
LINE
  5
120D
100
AcDbEntity
  8
GG1
 62
     1
100
AcDbLine
 10
-0.194
 20
1.014
 30
0.0
 11
-0.204
 21
1.024
 31
0.0
  0
LINE
  5
120E
100
AcDbEntity
  8
GG1
 62
     1
100
AcDbLine
 10
-0.204
 20
1.024
 30
0.0
 11
-0.194
 21
1.034
 31
0.0
  0
LINE
  5
120F
100
AcDbEntity
  8
GG1
 62
     1
100
AcDbLine
 10
-0.194
 20
1.034
 30
0.0
 11
-0.164
 21
1.034
 31
0.0
  0
LINE
  5
1210
100
AcDbEntity
  8
GG1
 62
     1
100
AcDbLine
 10
-0.164
 20
0.964
 30
0.0
 11
-0.184
 21
0.944
 31
0.0
  0
LINE
  5
1211
100
AcDbEntity
  8
GG1
 62
     1
100
AcDbLine
 10
-0.184
 20
0.944
 30
0.0
 11
-0.204
 21
0.944
 31
0.0
  0
LINE
  5
1212
100
AcDbEntity
  8
GG1
 62
     1
100
AcDbLine
 10
-0.204
 20
0.944
 30
0.0
 11
-0.224
 21
0.964
 31
0.0
  0
LINE
  5
1213
100
AcDbEntity
  8
GG1
 62
     1
100
AcDbLine
 10
-0.164
 20
1.1539
 30
0.0
 11
-0.184
 21
1.1739
 31
0.0
  0
LINE
  5
1214
100
AcDbEntity
  8
GG1
 62
     1
100
AcDbLine
 10
-0.184
 20
1.1739
 30
0.0
 11
-0.204
 21
1.1739
 31
0.0
  0
LINE
  5
1215
100
AcDbEntity
  8
GG1
 62
     1
100
AcDbLine
 10
-0.204
 20
1.1739
 30
0.0
 11
-0.224
 21
1.1539
 31
0.0
  0
LINE
  5
1216
100
AcDbEntity
  8
GG1
 62
     1
100
AcDbLine
 10
-0.164
 20
1.1039
 30
0.0
 11
-0.164
 21
1.1239
 31
0.0
  0
LINE
  5
1217
100
AcDbEntity
  8
GG1
 62
     1
100
AcDbLine
 10
-0.164
 20
1.1239
 30
0.0
 11
-0.164
 21
1.1139
 31
0.0
  0
LINE
  5
1218
100
AcDbEntity
  8
GG1
 62
     1
100
AcDbLine
 10
-0.164
 20
1.1139
 30
0.0
 11
-0.224
 21
1.1139
 31
0.0
  0
LINE
  5
1219
100
AcDbEntity
  8
GG1
 62
     1
100
AcDbLine
 10
-0.224
 20
1.1139
 30
0.0
 11
-0.224
 21
1.1039
 31
0.0
  0
LINE
  5
121A
100
AcDbEntity
  8
GG1
 62
     1
100
AcDbLine
 10
-0.164
 20
1.054
 30
0.0
 11
-0.164
 21
1.0739
 31
0.0
  0
LINE
  5
121B
100
AcDbEntity
  8
GG1
 62
     1
100
AcDbLine
 10
-0.164
 20
1.0739
 30
0.0
 11
-0.164
 21
1.064
 31
0.0
  0
LINE
  5
121C
100
AcDbEntity
  8
GG1
 62
     1
100
AcDbLine
 10
-0.164
 20
1.064
 30
0.0
 11
-0.204
 21
1.064
 31
0.0
  0
LINE
  5
121D
100
AcDbEntity
  8
GG1
 62
     1
100
AcDbLine
 10
-0.204
 20
1.064
 30
0.0
 11
-0.204
 21
1.054
 31
0.0
  0
LINE
  5
121E
100
AcDbEntity
  8
GG1
 62
     1
100
AcDbLine
 10
0.0675
 20
0.13
 30
0.0
 11
0.1925
 21
0.13
 31
0.0
  0
LINE
  5
121F
100
AcDbEntity
  8
GG1
 62
     1
100
AcDbLine
 10
0.13
 20
0.0675
 30
0.0
 11
0.13
 21
0.1925
 31
0.0
  0
LINE
  5
1220
100
AcDbEntity
  8
GG1
 62
     1
100
AcDbLine
 10
0.159
 20
0.535
 30
0.0
 11
0.201
 21
0.535
 31
0.0
  0
LINE
  5
1221
100
AcDbEntity
  8
GG1
 62
     1
100
AcDbLine
 10
0.18
 20
0.514
 30
0.0
 11
0.18
 21
0.556
 31
0.0
  0
LINE
  5
1222
100
AcDbEntity
  8
GG1
 62
     1
100
AcDbLine
 10
0.09
 20
1.1
 30
0.0
 11
0.11
 21
1.1
 31
0.0
  0
LINE
  5
1223
100
AcDbEntity
  8
GG1
 62
     1
100
AcDbLine
 10
0.09
 20
1.05
 30
0.0
 11
0.11
 21
1.05
 31
0.0
  0
LINE
  5
1224
100
AcDbEntity
  8
GG1
 62
     1
100
AcDbLine
 10
0.09
 20
1.0
 30
0.0
 11
0.11
 21
1.0
 31
0.0
  0
LINE
  5
1225
100
AcDbEntity
  8
GG1
 62
     1
100
AcDbLine
 10
0.09
 20
0.95
 30
0.0
 11
0.11
 21
0.95
 31
0.0
  0
LINE
  5
1226
100
AcDbEntity
  8
GG1
 62
     1
100
AcDbLine
 10
0.065
 20
0.875
 30
0.0
 11
0.085
 21
0.875
 31
0.0
  0
LINE
  5
1227
100
AcDbEntity
  8
GG1
 62
     1
100
AcDbLine
 10
0.075
 20
0.865
 30
0.0
 11
0.075
 21
0.885
 31
0.0
  0
LINE
  5
1228
100
AcDbEntity
  8
GG1
 62
     1
100
AcDbLine
 10
0.115
 20
0.875
 30
0.0
 11
0.135
 21
0.875
 31
0.0
  0
LINE
  5
1229
100
AcDbEntity
  8
GG1
 62
     1
100
AcDbLine
 10
0.125
 20
0.865
 30
0.0
 11
0.125
 21
0.885
 31
0.0
  0
LINE
  5
122A
100
AcDbEntity
  8
GG1
 62
     1
100
AcDbLine
 10
0.165
 20
0.875
 30
0.0
 11
0.185
 21
0.875
 31
0.0
  0
LINE
  5
122B
100
AcDbEntity
  8
GG1
 62
     1
100
AcDbLine
 10
0.175
 20
0.865
 30
0.0
 11
0.175
 21
0.885
 31
0.0
  0
LINE
  5
122C
100
AcDbEntity
  8
GG1
 62
     1
100
AcDbLine
 10
0.265
 20
0.875
 30
0.0
 11
0.285
 21
0.875
 31
0.0
  0
LINE
  5
122D
100
AcDbEntity
  8
GG1
 62
     1
100
AcDbLine
 10
0.225
 20
0.865
 30
0.0
 11
0.225
 21
0.885
 31
0.0
  0
LINE
  5
122E
100
AcDbEntity
  8
GG1
 62
     1
100
AcDbLine
 10
0.215
 20
0.875
 30
0.0
 11
0.235
 21
0.875
 31
0.0
  0
LINE
  5
122F
100
AcDbEntity
  8
GG1
 62
     1
100
AcDbLine
 10
0.275
 20
0.865
 30
0.0
 11
0.275
 21
0.885
 31
0.0
  0
LINE
  5
1230
100
AcDbEntity
  8
GG1
 62
     1
100
AcDbLine
 10
0.19
 20
1.175
 30
0.0
 11
0.21
 21
1.175
 31
0.0
  0
LINE
  5
1231
100
AcDbEntity
  8
GG1
 62
     1
100
AcDbLine
 10
0.19
 20
1.1
 30
0.0
 11
0.21
 21
1.1
 31
0.0
  0
LINE
  5
1232
100
AcDbEntity
  8
GG1
 62
     1
100
AcDbLine
 10
0.19
 20
1.05
 30
0.0
 11
0.21
 21
1.05
 31
0.0
  0
LINE
  5
1233
100
AcDbEntity
  8
GG1
 62
     1
100
AcDbLine
 10
0.19
 20
1.0
 30
0.0
 11
0.21
 21
1.0
 31
0.0
  0
LINE
  5
1234
100
AcDbEntity
  8
GG1
 62
     1
100
AcDbLine
 10
0.19
 20
0.95
 30
0.0
 11
0.21
 21
0.95
 31
0.0
  0
LINE
  5
1235
100
AcDbEntity
  8
GG1
 62
     1
100
AcDbLine
 10
0.2
 20
1.04
 30
0.0
 11
0.2
 21
1.06
 31
0.0
  0
LINE
  5
1236
100
AcDbEntity
  8
GG1
 62
     1
100
AcDbLine
 10
0.15
 20
1.04
 30
0.0
 11
0.15
 21
1.06
 31
0.0
  0
LINE
  5
1237
100
AcDbEntity
  8
GG1
 62
     1
100
AcDbLine
 10
0.1
 20
1.04
 30
0.0
 11
0.1
 21
1.06
 31
0.0
  0
LINE
  5
1238
100
AcDbEntity
  8
GG1
 62
     1
100
AcDbLine
 10
0.14
 20
1.0
 30
0.0
 11
0.16
 21
1.0
 31
0.0
  0
LINE
  5
1239
100
AcDbEntity
  8
GG1
 62
     1
100
AcDbLine
 10
0.14
 20
0.95
 30
0.0
 11
0.16
 21
0.95
 31
0.0
  0
LINE
  5
123A
100
AcDbEntity
  8
GG1
 62
     1
100
AcDbLine
 10
0.1
 20
0.94
 30
0.0
 11
0.1
 21
0.96
 31
0.0
  0
LINE
  5
123B
100
AcDbEntity
  8
GG1
 62
     1
100
AcDbLine
 10
0.15
 20
0.94
 30
0.0
 11
0.15
 21
0.96
 31
0.0
  0
LINE
  5
123C
100
AcDbEntity
  8
GG1
 62
     1
100
AcDbLine
 10
0.1
 20
0.99
 30
0.0
 11
0.1
 21
1.01
 31
0.0
  0
LINE
  5
123D
100
AcDbEntity
  8
GG1
 62
     1
100
AcDbLine
 10
0.15
 20
0.99
 30
0.0
 11
0.15
 21
1.01
 31
0.0
  0
LINE
  5
123E
100
AcDbEntity
  8
GG1
 62
     1
100
AcDbLine
 10
0.2
 20
0.94
 30
0.0
 11
0.2
 21
0.96
 31
0.0
  0
LINE
  5
123F
100
AcDbEntity
  8
GG1
 62
     1
100
AcDbLine
 10
0.2
 20
0.99
 30
0.0
 11
0.2
 21
1.01
 31
0.0
  0
LINE
  5
1240
100
AcDbEntity
  8
GG1
 62
     1
100
AcDbLine
 10
0.14
 20
1.1
 30
0.0
 11
0.16
 21
1.1
 31
0.0
  0
LINE
  5
1241
100
AcDbEntity
  8
GG1
 62
     1
100
AcDbLine
 10
0.14
 20
1.05
 30
0.0
 11
0.16
 21
1.05
 31
0.0
  0
LINE
  5
1242
100
AcDbEntity
  8
GG1
 62
     1
100
AcDbLine
 10
0.1
 20
1.09
 30
0.0
 11
0.1
 21
1.11
 31
0.0
  0
LINE
  5
1243
100
AcDbEntity
  8
GG1
 62
     1
100
AcDbLine
 10
0.15
 20
1.09
 30
0.0
 11
0.15
 21
1.11
 31
0.0
  0
LINE
  5
1244
100
AcDbEntity
  8
GG1
 62
     1
100
AcDbLine
 10
0.2
 20
1.09
 30
0.0
 11
0.2
 21
1.11
 31
0.0
  0
LINE
  5
1245
100
AcDbEntity
  8
GG1
 62
     1
100
AcDbLine
 10
0.2
 20
1.165
 30
0.0
 11
0.2
 21
1.185
 31
0.0
  0
LINE
  5
1246
100
AcDbEntity
  8
GG1
 62
     1
100
AcDbLine
 10
0.3
 20
1.04
 30
0.0
 11
0.3
 21
1.06
 31
0.0
  0
LINE
  5
1247
100
AcDbEntity
  8
GG1
 62
     1
100
AcDbLine
 10
0.25
 20
1.04
 30
0.0
 11
0.25
 21
1.06
 31
0.0
  0
LINE
  5
1248
100
AcDbEntity
  8
GG1
 62
     1
100
AcDbLine
 10
0.25
 20
0.94
 30
0.0
 11
0.25
 21
0.96
 31
0.0
  0
LINE
  5
1249
100
AcDbEntity
  8
GG1
 62
     1
100
AcDbLine
 10
0.24
 20
0.95
 30
0.0
 11
0.26
 21
0.95
 31
0.0
  0
LINE
  5
124A
100
AcDbEntity
  8
GG1
 62
     1
100
AcDbLine
 10
0.25
 20
0.99
 30
0.0
 11
0.25
 21
1.01
 31
0.0
  0
LINE
  5
124B
100
AcDbEntity
  8
GG1
 62
     1
100
AcDbLine
 10
0.24
 20
1.0
 30
0.0
 11
0.26
 21
1.0
 31
0.0
  0
LINE
  5
124C
100
AcDbEntity
  8
GG1
 62
     1
100
AcDbLine
 10
0.29
 20
0.95
 30
0.0
 11
0.31
 21
0.95
 31
0.0
  0
LINE
  5
124D
100
AcDbEntity
  8
GG1
 62
     1
100
AcDbLine
 10
0.3
 20
0.94
 30
0.0
 11
0.3
 21
0.96
 31
0.0
  0
LINE
  5
124E
100
AcDbEntity
  8
GG1
 62
     1
100
AcDbLine
 10
0.29
 20
1.0
 30
0.0
 11
0.31
 21
1.0
 31
0.0
  0
LINE
  5
124F
100
AcDbEntity
  8
GG1
 62
     1
100
AcDbLine
 10
0.3
 20
0.99
 30
0.0
 11
0.3
 21
1.01
 31
0.0
  0
LINE
  5
1250
100
AcDbEntity
  8
GG1
 62
     1
100
AcDbLine
 10
0.25
 20
1.09
 30
0.0
 11
0.25
 21
1.11
 31
0.0
  0
LINE
  5
1251
100
AcDbEntity
  8
GG1
 62
     1
100
AcDbLine
 10
0.24
 20
1.1
 30
0.0
 11
0.26
 21
1.1
 31
0.0
  0
LINE
  5
1252
100
AcDbEntity
  8
GG1
 62
     1
100
AcDbLine
 10
0.24
 20
1.05
 30
0.0
 11
0.26
 21
1.05
 31
0.0
  0
LINE
  5
1253
100
AcDbEntity
  8
GG1
 62
     1
100
AcDbLine
 10
0.25
 20
1.165
 30
0.0
 11
0.25
 21
1.185
 31
0.0
  0
LINE
  5
1254
100
AcDbEntity
  8
GG1
 62
     1
100
AcDbLine
 10
0.24
 20
1.175
 30
0.0
 11
0.26
 21
1.175
 31
0.0
  0
LINE
  5
1255
100
AcDbEntity
  8
GG1
 62
     1
100
AcDbLine
 10
0.29
 20
1.1
 30
0.0
 11
0.31
 21
1.1
 31
0.0
  0
LINE
  5
1256
100
AcDbEntity
  8
GG1
 62
     1
100
AcDbLine
 10
0.29
 20
1.05
 30
0.0
 11
0.31
 21
1.05
 31
0.0
  0
LINE
  5
1257
100
AcDbEntity
  8
GG1
 62
     1
100
AcDbLine
 10
0.3
 20
1.09
 30
0.0
 11
0.3
 21
1.11
 31
0.0
  0
LINE
  5
1258
100
AcDbEntity
  8
GG1
 62
     1
100
AcDbLine
 10
0.29
 20
1.175
 30
0.0
 11
0.31
 21
1.175
 31
0.0
  0
LINE
  5
1259
100
AcDbEntity
  8
GG1
 62
     1
100
AcDbLine
 10
0.3
 20
1.165
 30
0.0
 11
0.3
 21
1.185
 31
0.0
  0
LINE
  5
125A
100
AcDbEntity
  8
GG1
 62
     1
100
AcDbLine
 10
-0.21
 20
1.86
 30
0.0
 11
-0.015
 21
1.86
 31
0.0
  0
LINE
  5
125B
100
AcDbEntity
  8
GG1
 62
     1
100
AcDbLine
 10
-0.22
 20
1.8
 30
0.0
 11
-0.2
 21
1.86
 31
0.0
  0
LINE
  5
125C
100
AcDbEntity
  8
GG1
 62
     1
100
AcDbLine
 10
-0.2
 20
1.86
 30
0.0
 11
-0.18
 21
1.8
 31
0.0
  0
LINE
  5
125D
100
AcDbEntity
  8
GG1
 62
     1
100
AcDbLine
 10
0.19
 20
1.325
 30
0.0
 11
0.21
 21
1.325
 31
0.0
  0
LINE
  5
125E
100
AcDbEntity
  8
GG1
 62
     1
100
AcDbLine
 10
0.19
 20
1.275
 30
0.0
 11
0.21
 21
1.275
 31
0.0
  0
LINE
  5
125F
100
AcDbEntity
  8
GG1
 62
     1
100
AcDbLine
 10
0.19
 20
1.225
 30
0.0
 11
0.21
 21
1.225
 31
0.0
  0
LINE
  5
1260
100
AcDbEntity
  8
GG1
 62
     1
100
AcDbLine
 10
0.19
 20
1.4
 30
0.0
 11
0.21
 21
1.4
 31
0.0
  0
LINE
  5
1261
100
AcDbEntity
  8
GG1
 62
     1
100
AcDbLine
 10
0.2
 20
1.315
 30
0.0
 11
0.2
 21
1.335
 31
0.0
  0
LINE
  5
1262
100
AcDbEntity
  8
GG1
 62
     1
100
AcDbLine
 10
0.2
 20
1.215
 30
0.0
 11
0.2
 21
1.235
 31
0.0
  0
LINE
  5
1263
100
AcDbEntity
  8
GG1
 62
     1
100
AcDbLine
 10
0.2
 20
1.265
 30
0.0
 11
0.2
 21
1.285
 31
0.0
  0
LINE
  5
1264
100
AcDbEntity
  8
GG1
 62
     1
100
AcDbLine
 10
0.14
 20
1.4
 30
0.0
 11
0.16
 21
1.4
 31
0.0
  0
LINE
  5
1265
100
AcDbEntity
  8
GG1
 62
     1
100
AcDbLine
 10
0.15
 20
1.39
 30
0.0
 11
0.15
 21
1.41
 31
0.0
  0
LINE
  5
1266
100
AcDbEntity
  8
GG1
 62
     1
100
AcDbLine
 10
0.2
 20
1.39
 30
0.0
 11
0.2
 21
1.41
 31
0.0
  0
LINE
  5
1267
100
AcDbEntity
  8
GG1
 62
     1
100
AcDbLine
 10
0.3
 20
1.315
 30
0.0
 11
0.3
 21
1.335
 31
0.0
  0
LINE
  5
1268
100
AcDbEntity
  8
GG1
 62
     1
100
AcDbLine
 10
0.25
 20
1.315
 30
0.0
 11
0.25
 21
1.335
 31
0.0
  0
LINE
  5
1269
100
AcDbEntity
  8
GG1
 62
     1
100
AcDbLine
 10
0.25
 20
1.215
 30
0.0
 11
0.25
 21
1.235
 31
0.0
  0
LINE
  5
126A
100
AcDbEntity
  8
GG1
 62
     1
100
AcDbLine
 10
0.24
 20
1.225
 30
0.0
 11
0.26
 21
1.225
 31
0.0
  0
LINE
  5
126B
100
AcDbEntity
  8
GG1
 62
     1
100
AcDbLine
 10
0.24
 20
1.325
 30
0.0
 11
0.26
 21
1.325
 31
0.0
  0
LINE
  5
126C
100
AcDbEntity
  8
GG1
 62
     1
100
AcDbLine
 10
0.25
 20
1.265
 30
0.0
 11
0.25
 21
1.285
 31
0.0
  0
LINE
  5
126D
100
AcDbEntity
  8
GG1
 62
     1
100
AcDbLine
 10
0.24
 20
1.275
 30
0.0
 11
0.26
 21
1.275
 31
0.0
  0
LINE
  5
126E
100
AcDbEntity
  8
GG1
 62
     1
100
AcDbLine
 10
0.29
 20
1.225
 30
0.0
 11
0.31
 21
1.225
 31
0.0
  0
LINE
  5
126F
100
AcDbEntity
  8
GG1
 62
     1
100
AcDbLine
 10
0.3
 20
1.215
 30
0.0
 11
0.3
 21
1.235
 31
0.0
  0
LINE
  5
1270
100
AcDbEntity
  8
GG1
 62
     1
100
AcDbLine
 10
0.29
 20
1.325
 30
0.0
 11
0.31
 21
1.325
 31
0.0
  0
LINE
  5
1271
100
AcDbEntity
  8
GG1
 62
     1
100
AcDbLine
 10
0.29
 20
1.275
 30
0.0
 11
0.31
 21
1.275
 31
0.0
  0
LINE
  5
1272
100
AcDbEntity
  8
GG1
 62
     1
100
AcDbLine
 10
0.3
 20
1.265
 30
0.0
 11
0.3
 21
1.285
 31
0.0
  0
LINE
  5
1273
100
AcDbEntity
  8
GG1
 62
     1
100
AcDbLine
 10
0.25
 20
1.39
 30
0.0
 11
0.25
 21
1.41
 31
0.0
  0
LINE
  5
1274
100
AcDbEntity
  8
GG1
 62
     1
100
AcDbLine
 10
0.24
 20
1.4
 30
0.0
 11
0.26
 21
1.4
 31
0.0
  0
LINE
  5
1275
100
AcDbEntity
  8
GG1
 62
     1
100
AcDbLine
 10
0.3
 20
1.39
 30
0.0
 11
0.3
 21
1.41
 31
0.0
  0
LINE
  5
1276
100
AcDbEntity
  8
GG1
 62
     1
100
AcDbLine
 10
0.29
 20
1.4
 30
0.0
 11
0.31
 21
1.4
 31
0.0
  0
LINE
  5
1277
100
AcDbEntity
  8
GG1
 62
     1
100
AcDbLine
 10
0.142
 20
1.728
 30
0.0
 11
0.162
 21
1.728
 31
0.0
  0
LINE
  5
1278
100
AcDbEntity
  8
GG1
 62
     1
100
AcDbLine
 10
0.152
 20
1.718
 30
0.0
 11
0.152
 21
1.738
 31
0.0
  0
LINE
  5
1279
100
AcDbEntity
  8
GG1
 62
     1
100
AcDbLine
 10
0.143
 20
1.793
 30
0.0
 11
0.163
 21
1.793
 31
0.0
  0
LINE
  5
127A
100
AcDbEntity
  8
GG1
 62
     1
100
AcDbLine
 10
0.153
 20
1.783
 30
0.0
 11
0.153
 21
1.803
 31
0.0
  0
LINE
  5
127B
100
AcDbEntity
  8
GG1
 62
     1
100
AcDbLine
 10
0.209
 20
1.7825
 30
0.0
 11
0.251
 21
1.7825
 31
0.0
  0
LINE
  5
127C
100
AcDbEntity
  8
GG1
 62
     1
100
AcDbLine
 10
0.23
 20
1.7615
 30
0.0
 11
0.23
 21
1.8035
 31
0.0
  0
LINE
  5
127D
100
AcDbEntity
  8
GG1
 62
     1
100
AcDbLine
 10
1.225
 20
1.19
 30
0.0
 11
1.225
 21
1.21
 31
0.0
  0
LINE
  5
127E
100
AcDbEntity
  8
GG1
 62
     1
100
AcDbLine
 10
1.175
 20
1.19
 30
0.0
 11
1.175
 21
1.21
 31
0.0
  0
LINE
  5
127F
100
AcDbEntity
  8
GG1
 62
     1
100
AcDbLine
 10
1.125
 20
1.19
 30
0.0
 11
1.125
 21
1.21
 31
0.0
  0
LINE
  5
1280
100
AcDbEntity
  8
GG1
 62
     1
100
AcDbLine
 10
1.075
 20
1.19
 30
0.0
 11
1.075
 21
1.21
 31
0.0
  0
LINE
  5
1281
100
AcDbEntity
  8
GG1
 62
     1
100
AcDbLine
 10
0.625
 20
1.19
 30
0.0
 11
0.625
 21
1.21
 31
0.0
  0
LINE
  5
1282
100
AcDbEntity
  8
GG1
 62
     1
100
AcDbLine
 10
0.387
 20
0.16
 30
0.0
 11
0.473
 21
0.16
 31
0.0
  0
LINE
  5
1283
100
AcDbEntity
  8
GG1
 62
     1
100
AcDbLine
 10
0.43
 20
0.117
 30
0.0
 11
0.43
 21
0.203
 31
0.0
  0
LINE
  5
1284
100
AcDbEntity
  8
GG1
 62
     1
100
AcDbLine
 10
0.587
 20
0.16
 30
0.0
 11
0.673
 21
0.16
 31
0.0
  0
LINE
  5
1285
100
AcDbEntity
  8
GG1
 62
     1
100
AcDbLine
 10
0.63
 20
0.117
 30
0.0
 11
0.63
 21
0.203
 31
0.0
  0
LINE
  5
1286
100
AcDbEntity
  8
GG1
 62
     1
100
AcDbLine
 10
0.54
 20
1.175
 30
0.0
 11
0.56
 21
1.175
 31
0.0
  0
LINE
  5
1287
100
AcDbEntity
  8
GG1
 62
     1
100
AcDbLine
 10
0.54
 20
0.875
 30
0.0
 11
0.56
 21
0.875
 31
0.0
  0
LINE
  5
1288
100
AcDbEntity
  8
GG1
 62
     1
100
AcDbLine
 10
0.49
 20
0.875
 30
0.0
 11
0.51
 21
0.875
 31
0.0
  0
LINE
  5
1289
100
AcDbEntity
  8
GG1
 62
     1
100
AcDbLine
 10
0.45
 20
0.865
 30
0.0
 11
0.45
 21
0.885
 31
0.0
  0
LINE
  5
128A
100
AcDbEntity
  8
GG1
 62
     1
100
AcDbLine
 10
0.44
 20
0.875
 30
0.0
 11
0.46
 21
0.875
 31
0.0
  0
LINE
  5
128B
100
AcDbEntity
  8
GG1
 62
     1
100
AcDbLine
 10
0.5
 20
0.865
 30
0.0
 11
0.5
 21
0.885
 31
0.0
  0
LINE
  5
128C
100
AcDbEntity
  8
GG1
 62
     1
100
AcDbLine
 10
0.55
 20
0.865
 30
0.0
 11
0.55
 21
0.885
 31
0.0
  0
LINE
  5
128D
100
AcDbEntity
  8
GG1
 62
     1
100
AcDbLine
 10
0.425
 20
1.04
 30
0.0
 11
0.425
 21
1.06
 31
0.0
  0
LINE
  5
128E
100
AcDbEntity
  8
GG1
 62
     1
100
AcDbLine
 10
0.425
 20
0.94
 30
0.0
 11
0.425
 21
0.96
 31
0.0
  0
LINE
  5
128F
100
AcDbEntity
  8
GG1
 62
     1
100
AcDbLine
 10
0.415
 20
0.95
 30
0.0
 11
0.435
 21
0.95
 31
0.0
  0
LINE
  5
1290
100
AcDbEntity
  8
GG1
 62
     1
100
AcDbLine
 10
0.425
 20
0.99
 30
0.0
 11
0.425
 21
1.01
 31
0.0
  0
LINE
  5
1291
100
AcDbEntity
  8
GG1
 62
     1
100
AcDbLine
 10
0.415
 20
1.0
 30
0.0
 11
0.435
 21
1.0
 31
0.0
  0
LINE
  5
1292
100
AcDbEntity
  8
GG1
 62
     1
100
AcDbLine
 10
0.34
 20
1.175
 30
0.0
 11
0.36
 21
1.175
 31
0.0
  0
LINE
  5
1293
100
AcDbEntity
  8
GG1
 62
     1
100
AcDbLine
 10
0.35
 20
1.165
 30
0.0
 11
0.35
 21
1.185
 31
0.0
  0
LINE
  5
1294
100
AcDbEntity
  8
GG1
 62
     1
100
AcDbLine
 10
0.425
 20
1.09
 30
0.0
 11
0.425
 21
1.11
 31
0.0
  0
LINE
  5
1295
100
AcDbEntity
  8
GG1
 62
     1
100
AcDbLine
 10
0.415
 20
1.1
 30
0.0
 11
0.435
 21
1.1
 31
0.0
  0
LINE
  5
1296
100
AcDbEntity
  8
GG1
 62
     1
100
AcDbLine
 10
0.415
 20
1.05
 30
0.0
 11
0.435
 21
1.05
 31
0.0
  0
LINE
  5
1297
100
AcDbEntity
  8
GG1
 62
     1
100
AcDbLine
 10
0.39
 20
1.175
 30
0.0
 11
0.41
 21
1.175
 31
0.0
  0
LINE
  5
1298
100
AcDbEntity
  8
GG1
 62
     1
100
AcDbLine
 10
0.4
 20
1.165
 30
0.0
 11
0.4
 21
1.185
 31
0.0
  0
LINE
  5
1299
100
AcDbEntity
  8
GG1
 62
     1
100
AcDbLine
 10
0.475
 20
1.04
 30
0.0
 11
0.475
 21
1.06
 31
0.0
  0
LINE
  5
129A
100
AcDbEntity
  8
GG1
 62
     1
100
AcDbLine
 10
0.525
 20
1.04
 30
0.0
 11
0.525
 21
1.06
 31
0.0
  0
LINE
  5
129B
100
AcDbEntity
  8
GG1
 62
     1
100
AcDbLine
 10
0.465
 20
0.95
 30
0.0
 11
0.485
 21
0.95
 31
0.0
  0
LINE
  5
129C
100
AcDbEntity
  8
GG1
 62
     1
100
AcDbLine
 10
0.475
 20
0.94
 30
0.0
 11
0.475
 21
0.96
 31
0.0
  0
LINE
  5
129D
100
AcDbEntity
  8
GG1
 62
     1
100
AcDbLine
 10
0.465
 20
1.0
 30
0.0
 11
0.485
 21
1.0
 31
0.0
  0
LINE
  5
129E
100
AcDbEntity
  8
GG1
 62
     1
100
AcDbLine
 10
0.475
 20
0.99
 30
0.0
 11
0.475
 21
1.01
 31
0.0
  0
LINE
  5
129F
100
AcDbEntity
  8
GG1
 62
     1
100
AcDbLine
 10
0.515
 20
0.95
 30
0.0
 11
0.535
 21
0.95
 31
0.0
  0
LINE
  5
12A0
100
AcDbEntity
  8
GG1
 62
     1
100
AcDbLine
 10
0.525
 20
0.94
 30
0.0
 11
0.525
 21
0.96
 31
0.0
  0
LINE
  5
12A1
100
AcDbEntity
  8
GG1
 62
     1
100
AcDbLine
 10
0.515
 20
1.0
 30
0.0
 11
0.535
 21
1.0
 31
0.0
  0
LINE
  5
12A2
100
AcDbEntity
  8
GG1
 62
     1
100
AcDbLine
 10
0.525
 20
0.99
 30
0.0
 11
0.525
 21
1.01
 31
0.0
  0
LINE
  5
12A3
100
AcDbEntity
  8
GG1
 62
     1
100
AcDbLine
 10
0.49
 20
1.175
 30
0.0
 11
0.51
 21
1.175
 31
0.0
  0
LINE
  5
12A4
100
AcDbEntity
  8
GG1
 62
     1
100
AcDbLine
 10
0.465
 20
1.1
 30
0.0
 11
0.485
 21
1.1
 31
0.0
  0
LINE
  5
12A5
100
AcDbEntity
  8
GG1
 62
     1
100
AcDbLine
 10
0.465
 20
1.05
 30
0.0
 11
0.485
 21
1.05
 31
0.0
  0
LINE
  5
12A6
100
AcDbEntity
  8
GG1
 62
     1
100
AcDbLine
 10
0.475
 20
1.09
 30
0.0
 11
0.475
 21
1.11
 31
0.0
  0
LINE
  5
12A7
100
AcDbEntity
  8
GG1
 62
     1
100
AcDbLine
 10
0.45
 20
1.165
 30
0.0
 11
0.45
 21
1.185
 31
0.0
  0
LINE
  5
12A8
100
AcDbEntity
  8
GG1
 62
     1
100
AcDbLine
 10
0.44
 20
1.175
 30
0.0
 11
0.46
 21
1.175
 31
0.0
  0
LINE
  5
12A9
100
AcDbEntity
  8
GG1
 62
     1
100
AcDbLine
 10
0.515
 20
1.1
 30
0.0
 11
0.535
 21
1.1
 31
0.0
  0
LINE
  5
12AA
100
AcDbEntity
  8
GG1
 62
     1
100
AcDbLine
 10
0.515
 20
1.05
 30
0.0
 11
0.535
 21
1.05
 31
0.0
  0
LINE
  5
12AB
100
AcDbEntity
  8
GG1
 62
     1
100
AcDbLine
 10
0.525
 20
1.09
 30
0.0
 11
0.525
 21
1.11
 31
0.0
  0
LINE
  5
12AC
100
AcDbEntity
  8
GG1
 62
     1
100
AcDbLine
 10
0.5
 20
1.165
 30
0.0
 11
0.5
 21
1.185
 31
0.0
  0
LINE
  5
12AD
100
AcDbEntity
  8
GG1
 62
     1
100
AcDbLine
 10
0.55
 20
1.165
 30
0.0
 11
0.55
 21
1.185
 31
0.0
  0
LINE
  5
12AE
100
AcDbEntity
  8
GG1
 62
     1
100
AcDbLine
 10
0.59
 20
0.875
 30
0.0
 11
0.61
 21
0.875
 31
0.0
  0
LINE
  5
12AF
100
AcDbEntity
  8
GG1
 62
     1
100
AcDbLine
 10
0.6
 20
0.865
 30
0.0
 11
0.6
 21
0.885
 31
0.0
  0
LINE
  5
12B0
100
AcDbEntity
  8
GG1
 62
     1
100
AcDbLine
 10
0.65
 20
0.865
 30
0.0
 11
0.65
 21
0.885
 31
0.0
  0
LINE
  5
12B1
100
AcDbEntity
  8
GG1
 62
     1
100
AcDbLine
 10
0.64
 20
0.875
 30
0.0
 11
0.66
 21
0.875
 31
0.0
  0
LINE
  5
12B2
100
AcDbEntity
  8
GG1
 62
     1
100
AcDbLine
 10
0.575
 20
1.04
 30
0.0
 11
0.575
 21
1.06
 31
0.0
  0
LINE
  5
12B3
100
AcDbEntity
  8
GG1
 62
     1
100
AcDbLine
 10
0.625
 20
1.04
 30
0.0
 11
0.625
 21
1.06
 31
0.0
  0
LINE
  5
12B4
100
AcDbEntity
  8
GG1
 62
     1
100
AcDbLine
 10
0.565
 20
0.95
 30
0.0
 11
0.585
 21
0.95
 31
0.0
  0
LINE
  5
12B5
100
AcDbEntity
  8
GG1
 62
     1
100
AcDbLine
 10
0.575
 20
0.94
 30
0.0
 11
0.575
 21
0.96
 31
0.0
  0
LINE
  5
12B6
100
AcDbEntity
  8
GG1
 62
     1
100
AcDbLine
 10
0.565
 20
1.0
 30
0.0
 11
0.585
 21
1.0
 31
0.0
  0
LINE
  5
12B7
100
AcDbEntity
  8
GG1
 62
     1
100
AcDbLine
 10
0.575
 20
0.99
 30
0.0
 11
0.575
 21
1.01
 31
0.0
  0
LINE
  5
12B8
100
AcDbEntity
  8
GG1
 62
     1
100
AcDbLine
 10
0.625
 20
0.94
 30
0.0
 11
0.625
 21
0.96
 31
0.0
  0
LINE
  5
12B9
100
AcDbEntity
  8
GG1
 62
     1
100
AcDbLine
 10
0.615
 20
0.95
 30
0.0
 11
0.635
 21
0.95
 31
0.0
  0
LINE
  5
12BA
100
AcDbEntity
  8
GG1
 62
     1
100
AcDbLine
 10
0.625
 20
0.99
 30
0.0
 11
0.625
 21
1.01
 31
0.0
  0
LINE
  5
12BB
100
AcDbEntity
  8
GG1
 62
     1
100
AcDbLine
 10
0.615
 20
1.0
 30
0.0
 11
0.635
 21
1.0
 31
0.0
  0
LINE
  5
12BC
100
AcDbEntity
  8
GG1
 62
     1
100
AcDbLine
 10
0.565
 20
1.1
 30
0.0
 11
0.585
 21
1.1
 31
0.0
  0
LINE
  5
12BD
100
AcDbEntity
  8
GG1
 62
     1
100
AcDbLine
 10
0.565
 20
1.05
 30
0.0
 11
0.585
 21
1.05
 31
0.0
  0
LINE
  5
12BE
100
AcDbEntity
  8
GG1
 62
     1
100
AcDbLine
 10
0.575
 20
1.09
 30
0.0
 11
0.575
 21
1.11
 31
0.0
  0
LINE
  5
12BF
100
AcDbEntity
  8
GG1
 62
     1
100
AcDbLine
 10
0.625
 20
1.09
 30
0.0
 11
0.625
 21
1.11
 31
0.0
  0
LINE
  5
12C0
100
AcDbEntity
  8
GG1
 62
     1
100
AcDbLine
 10
0.615
 20
1.1
 30
0.0
 11
0.635
 21
1.1
 31
0.0
  0
LINE
  5
12C1
100
AcDbEntity
  8
GG1
 62
     1
100
AcDbLine
 10
0.615
 20
1.05
 30
0.0
 11
0.635
 21
1.05
 31
0.0
  0
LINE
  5
12C2
100
AcDbEntity
  8
GG1
 62
     1
100
AcDbLine
 10
0.987
 20
0.16
 30
0.0
 11
1.073
 21
0.16
 31
0.0
  0
LINE
  5
12C3
100
AcDbEntity
  8
GG1
 62
     1
100
AcDbLine
 10
0.787
 20
0.16
 30
0.0
 11
0.873
 21
0.16
 31
0.0
  0
LINE
  5
12C4
100
AcDbEntity
  8
GG1
 62
     1
100
AcDbLine
 10
0.83
 20
0.117
 30
0.0
 11
0.83
 21
0.203
 31
0.0
  0
LINE
  5
12C5
100
AcDbEntity
  8
GG1
 62
     1
100
AcDbLine
 10
0.82
 20
0.4
 30
0.0
 11
0.84
 21
0.4
 31
0.0
  0
LINE
  5
12C6
100
AcDbEntity
  8
GG1
 62
     1
100
AcDbLine
 10
0.82
 20
0.475
 30
0.0
 11
0.84
 21
0.475
 31
0.0
  0
LINE
  5
12C7
100
AcDbEntity
  8
GG1
 62
     1
100
AcDbLine
 10
0.83
 20
0.39
 30
0.0
 11
0.83
 21
0.41
 31
0.0
  0
LINE
  5
12C8
100
AcDbEntity
  8
GG1
 62
     1
100
AcDbLine
 10
0.83
 20
0.465
 30
0.0
 11
0.83
 21
0.485
 31
0.0
  0
LINE
  5
12C9
100
AcDbEntity
  8
GG1
 62
     1
100
AcDbLine
 10
0.82
 20
0.55
 30
0.0
 11
0.84
 21
0.55
 31
0.0
  0
LINE
  5
12CA
100
AcDbEntity
  8
GG1
 62
     1
100
AcDbLine
 10
0.83
 20
0.54
 30
0.0
 11
0.83
 21
0.56
 31
0.0
  0
LINE
  5
12CB
100
AcDbEntity
  8
GG1
 62
     1
100
AcDbLine
 10
1.03
 20
0.117
 30
0.0
 11
1.03
 21
0.203
 31
0.0
  0
LINE
  5
12CC
100
AcDbEntity
  8
GG1
 62
     1
100
AcDbLine
 10
1.23
 20
0.117
 30
0.0
 11
1.23
 21
0.203
 31
0.0
  0
LINE
  5
12CD
100
AcDbEntity
  8
GG1
 62
     1
100
AcDbLine
 10
1.01
 20
1.18
 30
0.0
 11
1.03
 21
1.18
 31
0.0
  0
LINE
  5
12CE
100
AcDbEntity
  8
GG1
 62
     1
100
AcDbLine
 10
1.009
 20
0.919
 30
0.0
 11
1.051
 21
0.919
 31
0.0
  0
LINE
  5
12CF
100
AcDbEntity
  8
GG1
 62
     1
100
AcDbLine
 10
0.83
 20
0.898
 30
0.0
 11
0.83
 21
0.94
 31
0.0
  0
LINE
  5
12D0
100
AcDbEntity
  8
GG1
 62
     1
100
AcDbLine
 10
0.809
 20
0.919
 30
0.0
 11
0.851
 21
0.919
 31
0.0
  0
LINE
  5
12D1
100
AcDbEntity
  8
GG1
 62
     1
100
AcDbLine
 10
1.03
 20
0.898
 30
0.0
 11
1.03
 21
0.94
 31
0.0
  0
LINE
  5
12D2
100
AcDbEntity
  8
GG1
 62
     1
100
AcDbLine
 10
1.09
 20
0.64
 30
0.0
 11
1.11
 21
0.64
 31
0.0
  0
LINE
  5
12D3
100
AcDbEntity
  8
GG1
 62
     1
100
AcDbLine
 10
1.1
 20
0.63
 30
0.0
 11
1.1
 21
0.65
 31
0.0
  0
LINE
  5
12D4
100
AcDbEntity
  8
GG1
 62
     1
100
AcDbLine
 10
1.225
 20
0.865
 30
0.0
 11
1.225
 21
0.885
 31
0.0
  0
LINE
  5
12D5
100
AcDbEntity
  8
GG1
 62
     1
100
AcDbLine
 10
1.215
 20
0.875
 30
0.0
 11
1.235
 21
0.875
 31
0.0
  0
LINE
  5
12D6
100
AcDbEntity
  8
GG1
 62
     1
100
AcDbLine
 10
1.03
 20
1.02
 30
0.0
 11
1.05
 21
1.02
 31
0.0
  0
LINE
  5
12D7
100
AcDbEntity
  8
GG1
 62
     1
100
AcDbLine
 10
1.04
 20
1.01
 30
0.0
 11
1.04
 21
1.03
 31
0.0
  0
LINE
  5
12D8
100
AcDbEntity
  8
GG1
 62
     1
100
AcDbLine
 10
1.1
 20
0.97
 30
0.0
 11
1.1
 21
0.99
 31
0.0
  0
LINE
  5
12D9
100
AcDbEntity
  8
GG1
 62
     1
100
AcDbLine
 10
1.09
 20
0.98
 30
0.0
 11
1.11
 21
0.98
 31
0.0
  0
LINE
  5
12DA
100
AcDbEntity
  8
GG1
 62
     1
100
AcDbLine
 10
1.03
 20
1.1
 30
0.0
 11
1.05
 21
1.1
 31
0.0
  0
LINE
  5
12DB
100
AcDbEntity
  8
GG1
 62
     1
100
AcDbLine
 10
1.04
 20
1.09
 30
0.0
 11
1.04
 21
1.11
 31
0.0
  0
LINE
  5
12DC
100
AcDbEntity
  8
GG1
 62
     1
100
AcDbLine
 10
1.02
 20
1.17
 30
0.0
 11
1.02
 21
1.19
 31
0.0
  0
LINE
  5
12DD
100
AcDbEntity
  8
GG1
 62
     1
100
AcDbLine
 10
1.09
 20
1.06
 30
0.0
 11
1.11
 21
1.06
 31
0.0
  0
LINE
  5
12DE
100
AcDbEntity
  8
GG1
 62
     1
100
AcDbLine
 10
1.1
 20
1.05
 30
0.0
 11
1.1
 21
1.07
 31
0.0
  0
LINE
  5
12DF
100
AcDbEntity
  8
GG1
 62
     1
100
AcDbLine
 10
1.09
 20
1.14
 30
0.0
 11
1.11
 21
1.14
 31
0.0
  0
LINE
  5
12E0
100
AcDbEntity
  8
GG1
 62
     1
100
AcDbLine
 10
1.1
 20
1.13
 30
0.0
 11
1.1
 21
1.15
 31
0.0
  0
LINE
  5
12E1
100
AcDbEntity
  8
GG1
 62
     1
100
AcDbLine
 10
1.225
 20
1.04
 30
0.0
 11
1.225
 21
1.06
 31
0.0
  0
LINE
  5
12E2
100
AcDbEntity
  8
GG1
 62
     1
100
AcDbLine
 10
1.225
 20
0.94
 30
0.0
 11
1.225
 21
0.96
 31
0.0
  0
LINE
  5
12E3
100
AcDbEntity
  8
GG1
 62
     1
100
AcDbLine
 10
1.215
 20
0.95
 30
0.0
 11
1.235
 21
0.95
 31
0.0
  0
LINE
  5
12E4
100
AcDbEntity
  8
GG1
 62
     1
100
AcDbLine
 10
1.225
 20
0.99
 30
0.0
 11
1.225
 21
1.01
 31
0.0
  0
LINE
  5
12E5
100
AcDbEntity
  8
GG1
 62
     1
100
AcDbLine
 10
1.215
 20
1.0
 30
0.0
 11
1.235
 21
1.0
 31
0.0
  0
LINE
  5
12E6
100
AcDbEntity
  8
GG1
 62
     1
100
AcDbLine
 10
1.225
 20
1.09
 30
0.0
 11
1.225
 21
1.11
 31
0.0
  0
LINE
  5
12E7
100
AcDbEntity
  8
GG1
 62
     1
100
AcDbLine
 10
1.215
 20
1.1
 30
0.0
 11
1.235
 21
1.1
 31
0.0
  0
LINE
  5
12E8
100
AcDbEntity
  8
GG1
 62
     1
100
AcDbLine
 10
1.215
 20
1.05
 30
0.0
 11
1.235
 21
1.05
 31
0.0
  0
LINE
  5
12E9
100
AcDbEntity
  8
GG1
 62
     1
100
AcDbLine
 10
0.54
 20
1.325
 30
0.0
 11
0.56
 21
1.325
 31
0.0
  0
LINE
  5
12EA
100
AcDbEntity
  8
GG1
 62
     1
100
AcDbLine
 10
0.54
 20
1.275
 30
0.0
 11
0.56
 21
1.275
 31
0.0
  0
LINE
  5
12EB
100
AcDbEntity
  8
GG1
 62
     1
100
AcDbLine
 10
0.54
 20
1.225
 30
0.0
 11
0.56
 21
1.225
 31
0.0
  0
LINE
  5
12EC
100
AcDbEntity
  8
GG1
 62
     1
100
AcDbLine
 10
0.54
 20
1.4
 30
0.0
 11
0.56
 21
1.4
 31
0.0
  0
LINE
  5
12ED
100
AcDbEntity
  8
GG1
 62
     1
100
AcDbLine
 10
0.4
 20
1.315
 30
0.0
 11
0.4
 21
1.335
 31
0.0
  0
LINE
  5
12EE
100
AcDbEntity
  8
GG1
 62
     1
100
AcDbLine
 10
0.35
 20
1.315
 30
0.0
 11
0.35
 21
1.335
 31
0.0
  0
LINE
  5
12EF
100
AcDbEntity
  8
GG1
 62
     1
100
AcDbLine
 10
0.34
 20
1.225
 30
0.0
 11
0.36
 21
1.225
 31
0.0
  0
LINE
  5
12F0
100
AcDbEntity
  8
GG1
 62
     1
100
AcDbLine
 10
0.35
 20
1.215
 30
0.0
 11
0.35
 21
1.235
 31
0.0
  0
LINE
  5
12F1
100
AcDbEntity
  8
GG1
 62
     1
100
AcDbLine
 10
0.34
 20
1.325
 30
0.0
 11
0.36
 21
1.325
 31
0.0
  0
LINE
  5
12F2
100
AcDbEntity
  8
GG1
 62
     1
100
AcDbLine
 10
0.34
 20
1.275
 30
0.0
 11
0.36
 21
1.275
 31
0.0
  0
LINE
  5
12F3
100
AcDbEntity
  8
GG1
 62
     1
100
AcDbLine
 10
0.35
 20
1.265
 30
0.0
 11
0.35
 21
1.285
 31
0.0
  0
LINE
  5
12F4
100
AcDbEntity
  8
GG1
 62
     1
100
AcDbLine
 10
0.39
 20
1.225
 30
0.0
 11
0.41
 21
1.225
 31
0.0
  0
LINE
  5
12F5
100
AcDbEntity
  8
GG1
 62
     1
100
AcDbLine
 10
0.4
 20
1.215
 30
0.0
 11
0.4
 21
1.235
 31
0.0
  0
LINE
  5
12F6
100
AcDbEntity
  8
GG1
 62
     1
100
AcDbLine
 10
0.39
 20
1.325
 30
0.0
 11
0.41
 21
1.325
 31
0.0
  0
LINE
  5
12F7
100
AcDbEntity
  8
GG1
 62
     1
100
AcDbLine
 10
0.39
 20
1.275
 30
0.0
 11
0.41
 21
1.275
 31
0.0
  0
LINE
  5
12F8
100
AcDbEntity
  8
GG1
 62
     1
100
AcDbLine
 10
0.4
 20
1.265
 30
0.0
 11
0.4
 21
1.285
 31
0.0
  0
LINE
  5
12F9
100
AcDbEntity
  8
GG1
 62
     1
100
AcDbLine
 10
0.35
 20
1.39
 30
0.0
 11
0.35
 21
1.41
 31
0.0
  0
LINE
  5
12FA
100
AcDbEntity
  8
GG1
 62
     1
100
AcDbLine
 10
0.34
 20
1.4
 30
0.0
 11
0.36
 21
1.4
 31
0.0
  0
LINE
  5
12FB
100
AcDbEntity
  8
GG1
 62
     1
100
AcDbLine
 10
0.4
 20
1.39
 30
0.0
 11
0.4
 21
1.41
 31
0.0
  0
LINE
  5
12FC
100
AcDbEntity
  8
GG1
 62
     1
100
AcDbLine
 10
0.39
 20
1.4
 30
0.0
 11
0.41
 21
1.4
 31
0.0
  0
LINE
  5
12FD
100
AcDbEntity
  8
GG1
 62
     1
100
AcDbLine
 10
0.55
 20
1.315
 30
0.0
 11
0.55
 21
1.335
 31
0.0
  0
LINE
  5
12FE
100
AcDbEntity
  8
GG1
 62
     1
100
AcDbLine
 10
0.5
 20
1.315
 30
0.0
 11
0.5
 21
1.335
 31
0.0
  0
LINE
  5
12FF
100
AcDbEntity
  8
GG1
 62
     1
100
AcDbLine
 10
0.45
 20
1.315
 30
0.0
 11
0.45
 21
1.335
 31
0.0
  0
LINE
  5
1300
100
AcDbEntity
  8
GG1
 62
     1
100
AcDbLine
 10
0.49
 20
1.325
 30
0.0
 11
0.51
 21
1.325
 31
0.0
  0
LINE
  5
1301
100
AcDbEntity
  8
GG1
 62
     1
100
AcDbLine
 10
0.49
 20
1.275
 30
0.0
 11
0.51
 21
1.275
 31
0.0
  0
LINE
  5
1302
100
AcDbEntity
  8
GG1
 62
     1
100
AcDbLine
 10
0.49
 20
1.225
 30
0.0
 11
0.51
 21
1.225
 31
0.0
  0
LINE
  5
1303
100
AcDbEntity
  8
GG1
 62
     1
100
AcDbLine
 10
0.45
 20
1.215
 30
0.0
 11
0.45
 21
1.235
 31
0.0
  0
LINE
  5
1304
100
AcDbEntity
  8
GG1
 62
     1
100
AcDbLine
 10
0.44
 20
1.225
 30
0.0
 11
0.46
 21
1.225
 31
0.0
  0
LINE
  5
1305
100
AcDbEntity
  8
GG1
 62
     1
100
AcDbLine
 10
0.44
 20
1.325
 30
0.0
 11
0.46
 21
1.325
 31
0.0
  0
LINE
  5
1306
100
AcDbEntity
  8
GG1
 62
     1
100
AcDbLine
 10
0.45
 20
1.265
 30
0.0
 11
0.45
 21
1.285
 31
0.0
  0
LINE
  5
1307
100
AcDbEntity
  8
GG1
 62
     1
100
AcDbLine
 10
0.44
 20
1.275
 30
0.0
 11
0.46
 21
1.275
 31
0.0
  0
LINE
  5
1308
100
AcDbEntity
  8
GG1
 62
     1
100
AcDbLine
 10
0.5
 20
1.215
 30
0.0
 11
0.5
 21
1.235
 31
0.0
  0
LINE
  5
1309
100
AcDbEntity
  8
GG1
 62
     1
100
AcDbLine
 10
0.55
 20
1.215
 30
0.0
 11
0.55
 21
1.235
 31
0.0
  0
LINE
  5
130A
100
AcDbEntity
  8
GG1
 62
     1
100
AcDbLine
 10
0.5
 20
1.265
 30
0.0
 11
0.5
 21
1.285
 31
0.0
  0
LINE
  5
130B
100
AcDbEntity
  8
GG1
 62
     1
100
AcDbLine
 10
0.55
 20
1.265
 30
0.0
 11
0.55
 21
1.285
 31
0.0
  0
LINE
  5
130C
100
AcDbEntity
  8
GG1
 62
     1
100
AcDbLine
 10
0.49
 20
1.4
 30
0.0
 11
0.51
 21
1.4
 31
0.0
  0
LINE
  5
130D
100
AcDbEntity
  8
GG1
 62
     1
100
AcDbLine
 10
0.45
 20
1.39
 30
0.0
 11
0.45
 21
1.41
 31
0.0
  0
LINE
  5
130E
100
AcDbEntity
  8
GG1
 62
     1
100
AcDbLine
 10
0.44
 20
1.4
 30
0.0
 11
0.46
 21
1.4
 31
0.0
  0
LINE
  5
130F
100
AcDbEntity
  8
GG1
 62
     1
100
AcDbLine
 10
0.5
 20
1.39
 30
0.0
 11
0.5
 21
1.41
 31
0.0
  0
LINE
  5
1310
100
AcDbEntity
  8
GG1
 62
     1
100
AcDbLine
 10
0.55
 20
1.39
 30
0.0
 11
0.55
 21
1.41
 31
0.0
  0
LINE
  5
1311
100
AcDbEntity
  8
GG1
 62
     1
100
AcDbLine
 10
0.625
 20
1.24
 30
0.0
 11
0.625
 21
1.26
 31
0.0
  0
LINE
  5
1312
100
AcDbEntity
  8
GG1
 62
     1
100
AcDbLine
 10
0.615
 20
1.25
 30
0.0
 11
0.635
 21
1.25
 31
0.0
  0
LINE
  5
1313
100
AcDbEntity
  8
GG1
 62
     1
100
AcDbLine
 10
0.615
 20
1.2
 30
0.0
 11
0.635
 21
1.2
 31
0.0
  0
LINE
  5
1314
100
AcDbEntity
  8
GG1
 62
     1
100
AcDbLine
 10
0.625
 20
1.29
 30
0.0
 11
0.625
 21
1.31
 31
0.0
  0
LINE
  5
1315
100
AcDbEntity
  8
GG1
 62
     1
100
AcDbLine
 10
0.615
 20
1.3
 30
0.0
 11
0.635
 21
1.3
 31
0.0
  0
LINE
  5
1316
100
AcDbEntity
  8
GG1
 62
     1
100
AcDbLine
 10
0.59
 20
1.4
 30
0.0
 11
0.61
 21
1.4
 31
0.0
  0
LINE
  5
1317
100
AcDbEntity
  8
GG1
 62
     1
100
AcDbLine
 10
0.6
 20
1.39
 30
0.0
 11
0.6
 21
1.41
 31
0.0
  0
LINE
  5
1318
100
AcDbEntity
  8
GG1
 62
     1
100
AcDbLine
 10
0.625
 20
1.34
 30
0.0
 11
0.625
 21
1.36
 31
0.0
  0
LINE
  5
1319
100
AcDbEntity
  8
GG1
 62
     1
100
AcDbLine
 10
0.615
 20
1.35
 30
0.0
 11
0.635
 21
1.35
 31
0.0
  0
LINE
  5
131A
100
AcDbEntity
  8
GG1
 62
     1
100
AcDbLine
 10
0.6394
 20
1.68
 30
0.0
 11
0.6694
 21
1.68
 31
0.0
  0
LINE
  5
131B
100
AcDbEntity
  8
GG1
 62
     1
100
AcDbLine
 10
0.6394
 20
1.6013
 30
0.0
 11
0.6694
 21
1.6013
 31
0.0
  0
LINE
  5
131C
100
AcDbEntity
  8
GG1
 62
     1
100
AcDbLine
 10
0.6544
 20
1.5863
 30
0.0
 11
0.6544
 21
1.6163
 31
0.0
  0
LINE
  5
131D
100
AcDbEntity
  8
GG1
 62
     1
100
AcDbLine
 10
0.5757
 20
1.5863
 30
0.0
 11
0.5757
 21
1.6163
 31
0.0
  0
LINE
  5
131E
100
AcDbEntity
  8
GG1
 62
     1
100
AcDbLine
 10
0.5607
 20
1.6013
 30
0.0
 11
0.5907
 21
1.6013
 31
0.0
  0
LINE
  5
131F
100
AcDbEntity
  8
GG1
 62
     1
100
AcDbLine
 10
0.5757
 20
1.665
 30
0.0
 11
0.5757
 21
1.695
 31
0.0
  0
LINE
  5
1320
100
AcDbEntity
  8
GG1
 62
     1
100
AcDbLine
 10
0.5607
 20
1.68
 30
0.0
 11
0.5907
 21
1.68
 31
0.0
  0
LINE
  5
1321
100
AcDbEntity
  8
GG1
 62
     1
100
AcDbLine
 10
0.6544
 20
1.665
 30
0.0
 11
0.6544
 21
1.695
 31
0.0
  0
LINE
  5
1322
100
AcDbEntity
  8
GG1
 62
     1
100
AcDbLine
 10
0.7332
 20
1.5863
 30
0.0
 11
0.7332
 21
1.6163
 31
0.0
  0
LINE
  5
1323
100
AcDbEntity
  8
GG1
 62
     1
100
AcDbLine
 10
0.7182
 20
1.6013
 30
0.0
 11
0.7481
 21
1.6013
 31
0.0
  0
LINE
  5
1324
100
AcDbEntity
  8
GG1
 62
     1
100
AcDbLine
 10
0.771
 20
1.533
 30
0.0
 11
0.771
 21
1.553
 31
0.0
  0
LINE
  5
1325
100
AcDbEntity
  8
GG1
 62
     1
100
AcDbLine
 10
0.761
 20
1.543
 30
0.0
 11
0.781
 21
1.543
 31
0.0
  0
LINE
  5
1326
100
AcDbEntity
  8
GG1
 62
     1
100
AcDbLine
 10
0.7182
 20
1.68
 30
0.0
 11
0.7481
 21
1.68
 31
0.0
  0
LINE
  5
1327
100
AcDbEntity
  8
GG1
 62
     1
100
AcDbLine
 10
0.7332
 20
1.665
 30
0.0
 11
0.7332
 21
1.695
 31
0.0
  0
LINE
  5
1328
100
AcDbEntity
  8
GG1
 62
     1
100
AcDbLine
 10
0.409
 20
1.7825
 30
0.0
 11
0.451
 21
1.7825
 31
0.0
  0
LINE
  5
1329
100
AcDbEntity
  8
GG1
 62
     1
100
AcDbLine
 10
0.33
 20
1.7615
 30
0.0
 11
0.33
 21
1.8035
 31
0.0
  0
LINE
  5
132A
100
AcDbEntity
  8
GG1
 62
     1
100
AcDbLine
 10
0.43
 20
1.7615
 30
0.0
 11
0.43
 21
1.8035
 31
0.0
  0
LINE
  5
132B
100
AcDbEntity
  8
GG1
 62
     1
100
AcDbLine
 10
0.509
 20
1.7825
 30
0.0
 11
0.551
 21
1.7825
 31
0.0
  0
LINE
  5
132C
100
AcDbEntity
  8
GG1
 62
     1
100
AcDbLine
 10
0.53
 20
1.7615
 30
0.0
 11
0.53
 21
1.8035
 31
0.0
  0
LINE
  5
132D
100
AcDbEntity
  8
GG1
 62
     1
100
AcDbLine
 10
0.609
 20
1.7825
 30
0.0
 11
0.651
 21
1.7825
 31
0.0
  0
LINE
  5
132E
100
AcDbEntity
  8
GG1
 62
     1
100
AcDbLine
 10
0.63
 20
1.7615
 30
0.0
 11
0.63
 21
1.8035
 31
0.0
  0
LINE
  5
132F
100
AcDbEntity
  8
GG1
 62
     1
100
AcDbLine
 10
0.709
 20
1.7825
 30
0.0
 11
0.751
 21
1.7825
 31
0.0
  0
LINE
  5
1330
100
AcDbEntity
  8
GG1
 62
     1
100
AcDbLine
 10
0.73
 20
1.7615
 30
0.0
 11
0.73
 21
1.8035
 31
0.0
  0
LINE
  5
1331
100
AcDbEntity
  8
GG1
 62
     1
100
AcDbLine
 10
1.01
 20
1.26
 30
0.0
 11
1.03
 21
1.26
 31
0.0
  0
LINE
  5
1332
100
AcDbEntity
  8
GG1
 62
     1
100
AcDbLine
 10
1.009
 20
1.344
 30
0.0
 11
1.051
 21
1.344
 31
0.0
  0
LINE
  5
1333
100
AcDbEntity
  8
GG1
 62
     1
100
AcDbLine
 10
0.83
 20
1.323
 30
0.0
 11
0.83
 21
1.365
 31
0.0
  0
LINE
  5
1334
100
AcDbEntity
  8
GG1
 62
     1
100
AcDbLine
 10
0.809
 20
1.344
 30
0.0
 11
0.851
 21
1.344
 31
0.0
  0
LINE
  5
1335
100
AcDbEntity
  8
GG1
 62
     1
100
AcDbLine
 10
0.8756
 20
1.68
 30
0.0
 11
0.9056
 21
1.68
 31
0.0
  0
LINE
  5
1336
100
AcDbEntity
  8
GG1
 62
     1
100
AcDbLine
 10
0.8756
 20
1.6013
 30
0.0
 11
0.9056
 21
1.6013
 31
0.0
  0
LINE
  5
1337
100
AcDbEntity
  8
GG1
 62
     1
100
AcDbLine
 10
0.8906
 20
1.5863
 30
0.0
 11
0.8906
 21
1.6163
 31
0.0
  0
LINE
  5
1338
100
AcDbEntity
  8
GG1
 62
     1
100
AcDbLine
 10
0.8119
 20
1.5863
 30
0.0
 11
0.8119
 21
1.6163
 31
0.0
  0
LINE
  5
1339
100
AcDbEntity
  8
GG1
 62
     1
100
AcDbLine
 10
0.7969
 20
1.6013
 30
0.0
 11
0.8269
 21
1.6013
 31
0.0
  0
LINE
  5
133A
100
AcDbEntity
  8
GG1
 62
     1
100
AcDbLine
 10
0.8119
 20
1.665
 30
0.0
 11
0.8119
 21
1.695
 31
0.0
  0
LINE
  5
133B
100
AcDbEntity
  8
GG1
 62
     1
100
AcDbLine
 10
0.7969
 20
1.68
 30
0.0
 11
0.8269
 21
1.68
 31
0.0
  0
LINE
  5
133C
100
AcDbEntity
  8
GG1
 62
     1
100
AcDbLine
 10
0.8906
 20
1.665
 30
0.0
 11
0.8906
 21
1.695
 31
0.0
  0
LINE
  5
133D
100
AcDbEntity
  8
GG1
 62
     1
100
AcDbLine
 10
0.9694
 20
1.5863
 30
0.0
 11
0.9694
 21
1.6163
 31
0.0
  0
LINE
  5
133E
100
AcDbEntity
  8
GG1
 62
     1
100
AcDbLine
 10
0.9544
 20
1.6013
 30
0.0
 11
0.9844
 21
1.6013
 31
0.0
  0
LINE
  5
133F
100
AcDbEntity
  8
GG1
 62
     1
100
AcDbLine
 10
0.9694
 20
1.665
 30
0.0
 11
0.9694
 21
1.695
 31
0.0
  0
LINE
  5
1340
100
AcDbEntity
  8
GG1
 62
     1
100
AcDbLine
 10
0.9544
 20
1.68
 30
0.0
 11
0.9844
 21
1.68
 31
0.0
  0
LINE
  5
1341
100
AcDbEntity
  8
GG1
 62
     1
100
AcDbLine
 10
1.115
 20
1.4
 30
0.0
 11
1.135
 21
1.4
 31
0.0
  0
LINE
  5
1342
100
AcDbEntity
  8
GG1
 62
     1
100
AcDbLine
 10
1.115
 20
1.35
 30
0.0
 11
1.135
 21
1.35
 31
0.0
  0
LINE
  5
1343
100
AcDbEntity
  8
GG1
 62
     1
100
AcDbLine
 10
1.115
 20
1.3
 30
0.0
 11
1.135
 21
1.3
 31
0.0
  0
LINE
  5
1344
100
AcDbEntity
  8
GG1
 62
     1
100
AcDbLine
 10
1.115
 20
1.25
 30
0.0
 11
1.135
 21
1.25
 31
0.0
  0
LINE
  5
1345
100
AcDbEntity
  8
GG1
 62
     1
100
AcDbLine
 10
1.115
 20
1.2
 30
0.0
 11
1.135
 21
1.2
 31
0.0
  0
LINE
  5
1346
100
AcDbEntity
  8
GG1
 62
     1
100
AcDbLine
 10
1.03
 20
1.323
 30
0.0
 11
1.03
 21
1.365
 31
0.0
  0
LINE
  5
1347
100
AcDbEntity
  8
GG1
 62
     1
100
AcDbLine
 10
1.065
 20
1.2
 30
0.0
 11
1.085
 21
1.2
 31
0.0
  0
LINE
  5
1348
100
AcDbEntity
  8
GG1
 62
     1
100
AcDbLine
 10
1.02
 20
1.25
 30
0.0
 11
1.02
 21
1.27
 31
0.0
  0
LINE
  5
1349
100
AcDbEntity
  8
GG1
 62
     1
100
AcDbLine
 10
1.08
 20
1.27
 30
0.0
 11
1.08
 21
1.29
 31
0.0
  0
LINE
  5
134A
100
AcDbEntity
  8
GG1
 62
     1
100
AcDbLine
 10
1.07
 20
1.28
 30
0.0
 11
1.09
 21
1.28
 31
0.0
  0
LINE
  5
134B
100
AcDbEntity
  8
GG1
 62
     1
100
AcDbLine
 10
1.165
 20
1.2
 30
0.0
 11
1.185
 21
1.2
 31
0.0
  0
LINE
  5
134C
100
AcDbEntity
  8
GG1
 62
     1
100
AcDbLine
 10
1.165
 20
1.25
 30
0.0
 11
1.185
 21
1.25
 31
0.0
  0
LINE
  5
134D
100
AcDbEntity
  8
GG1
 62
     1
100
AcDbLine
 10
1.165
 20
1.3
 30
0.0
 11
1.185
 21
1.3
 31
0.0
  0
LINE
  5
134E
100
AcDbEntity
  8
GG1
 62
     1
100
AcDbLine
 10
1.125
 20
1.24
 30
0.0
 11
1.125
 21
1.26
 31
0.0
  0
LINE
  5
134F
100
AcDbEntity
  8
GG1
 62
     1
100
AcDbLine
 10
1.175
 20
1.24
 30
0.0
 11
1.175
 21
1.26
 31
0.0
  0
LINE
  5
1350
100
AcDbEntity
  8
GG1
 62
     1
100
AcDbLine
 10
1.125
 20
1.29
 30
0.0
 11
1.125
 21
1.31
 31
0.0
  0
LINE
  5
1351
100
AcDbEntity
  8
GG1
 62
     1
100
AcDbLine
 10
1.175
 20
1.29
 30
0.0
 11
1.175
 21
1.31
 31
0.0
  0
LINE
  5
1352
100
AcDbEntity
  8
GG1
 62
     1
100
AcDbLine
 10
1.225
 20
1.24
 30
0.0
 11
1.225
 21
1.26
 31
0.0
  0
LINE
  5
1353
100
AcDbEntity
  8
GG1
 62
     1
100
AcDbLine
 10
1.215
 20
1.25
 30
0.0
 11
1.235
 21
1.25
 31
0.0
  0
LINE
  5
1354
100
AcDbEntity
  8
GG1
 62
     1
100
AcDbLine
 10
1.215
 20
1.2
 30
0.0
 11
1.235
 21
1.2
 31
0.0
  0
LINE
  5
1355
100
AcDbEntity
  8
GG1
 62
     1
100
AcDbLine
 10
1.225
 20
1.29
 30
0.0
 11
1.225
 21
1.31
 31
0.0
  0
LINE
  5
1356
100
AcDbEntity
  8
GG1
 62
     1
100
AcDbLine
 10
1.215
 20
1.3
 30
0.0
 11
1.235
 21
1.3
 31
0.0
  0
LINE
  5
1357
100
AcDbEntity
  8
GG1
 62
     1
100
AcDbLine
 10
1.165
 20
1.35
 30
0.0
 11
1.185
 21
1.35
 31
0.0
  0
LINE
  5
1358
100
AcDbEntity
  8
GG1
 62
     1
100
AcDbLine
 10
1.165
 20
1.4
 30
0.0
 11
1.185
 21
1.4
 31
0.0
  0
LINE
  5
1359
100
AcDbEntity
  8
GG1
 62
     1
100
AcDbLine
 10
1.175
 20
1.39
 30
0.0
 11
1.175
 21
1.41
 31
0.0
  0
LINE
  5
135A
100
AcDbEntity
  8
GG1
 62
     1
100
AcDbLine
 10
1.125
 20
1.39
 30
0.0
 11
1.125
 21
1.41
 31
0.0
  0
LINE
  5
135B
100
AcDbEntity
  8
GG1
 62
     1
100
AcDbLine
 10
1.125
 20
1.34
 30
0.0
 11
1.125
 21
1.36
 31
0.0
  0
LINE
  5
135C
100
AcDbEntity
  8
GG1
 62
     1
100
AcDbLine
 10
1.175
 20
1.34
 30
0.0
 11
1.175
 21
1.36
 31
0.0
  0
LINE
  5
135D
100
AcDbEntity
  8
GG1
 62
     1
100
AcDbLine
 10
1.225
 20
1.39
 30
0.0
 11
1.225
 21
1.41
 31
0.0
  0
LINE
  5
135E
100
AcDbEntity
  8
GG1
 62
     1
100
AcDbLine
 10
1.215
 20
1.4
 30
0.0
 11
1.235
 21
1.4
 31
0.0
  0
LINE
  5
135F
100
AcDbEntity
  8
GG1
 62
     1
100
AcDbLine
 10
1.225
 20
1.34
 30
0.0
 11
1.225
 21
1.36
 31
0.0
  0
LINE
  5
1360
100
AcDbEntity
  8
GG1
 62
     1
100
AcDbLine
 10
1.215
 20
1.35
 30
0.0
 11
1.235
 21
1.35
 31
0.0
  0
LINE
  5
1361
100
AcDbEntity
  8
GG1
 62
     1
100
AcDbLine
 10
1.1119
 20
1.6013
 30
0.0
 11
1.1419
 21
1.6013
 31
0.0
  0
LINE
  5
1362
100
AcDbEntity
  8
GG1
 62
     1
100
AcDbLine
 10
1.1119
 20
1.68
 30
0.0
 11
1.1419
 21
1.68
 31
0.0
  0
LINE
  5
1363
100
AcDbEntity
  8
GG1
 62
     1
100
AcDbLine
 10
1.0481
 20
1.5863
 30
0.0
 11
1.0481
 21
1.6163
 31
0.0
  0
LINE
  5
1364
100
AcDbEntity
  8
GG1
 62
     1
100
AcDbLine
 10
1.0331
 20
1.6013
 30
0.0
 11
1.0631
 21
1.6013
 31
0.0
  0
LINE
  5
1365
100
AcDbEntity
  8
GG1
 62
     1
100
AcDbLine
 10
1.0481
 20
1.665
 30
0.0
 11
1.0481
 21
1.695
 31
0.0
  0
LINE
  5
1366
100
AcDbEntity
  8
GG1
 62
     1
100
AcDbLine
 10
1.0331
 20
1.68
 30
0.0
 11
1.0631
 21
1.68
 31
0.0
  0
LINE
  5
1367
100
AcDbEntity
  8
GG1
 62
     1
100
AcDbLine
 10
1.1269
 20
1.5863
 30
0.0
 11
1.1269
 21
1.6163
 31
0.0
  0
LINE
  5
1368
100
AcDbEntity
  8
GG1
 62
     1
100
AcDbLine
 10
1.2056
 20
1.5863
 30
0.0
 11
1.2056
 21
1.6163
 31
0.0
  0
LINE
  5
1369
100
AcDbEntity
  8
GG1
 62
     1
100
AcDbLine
 10
1.148
 20
1.536
 30
0.0
 11
1.148
 21
1.556
 31
0.0
  0
LINE
  5
136A
100
AcDbEntity
  8
GG1
 62
     1
100
AcDbLine
 10
1.138
 20
1.546
 30
0.0
 11
1.158
 21
1.546
 31
0.0
  0
LINE
  5
136B
100
AcDbEntity
  8
GG1
 62
     1
100
AcDbLine
 10
1.1906
 20
1.6013
 30
0.0
 11
1.2206
 21
1.6013
 31
0.0
  0
LINE
  5
136C
100
AcDbEntity
  8
GG1
 62
     1
100
AcDbLine
 10
1.1269
 20
1.665
 30
0.0
 11
1.1269
 21
1.695
 31
0.0
  0
LINE
  5
136D
100
AcDbEntity
  8
GG1
 62
     1
100
AcDbLine
 10
1.2056
 20
1.665
 30
0.0
 11
1.2056
 21
1.695
 31
0.0
  0
LINE
  5
136E
100
AcDbEntity
  8
GG1
 62
     1
100
AcDbLine
 10
1.1906
 20
1.68
 30
0.0
 11
1.2206
 21
1.68
 31
0.0
  0
LINE
  5
136F
100
AcDbEntity
  8
GG1
 62
     1
100
AcDbLine
 10
1.009
 20
1.7825
 30
0.0
 11
1.051
 21
1.7825
 31
0.0
  0
LINE
  5
1370
100
AcDbEntity
  8
GG1
 62
     1
100
AcDbLine
 10
0.809
 20
1.7825
 30
0.0
 11
0.851
 21
1.7825
 31
0.0
  0
LINE
  5
1371
100
AcDbEntity
  8
GG1
 62
     1
100
AcDbLine
 10
0.83
 20
1.7615
 30
0.0
 11
0.83
 21
1.8035
 31
0.0
  0
LINE
  5
1372
100
AcDbEntity
  8
GG1
 62
     1
100
AcDbLine
 10
0.909
 20
1.7825
 30
0.0
 11
0.951
 21
1.7825
 31
0.0
  0
LINE
  5
1373
100
AcDbEntity
  8
GG1
 62
     1
100
AcDbLine
 10
0.93
 20
1.7615
 30
0.0
 11
0.93
 21
1.8035
 31
0.0
  0
LINE
  5
1374
100
AcDbEntity
  8
GG1
 62
     1
100
AcDbLine
 10
1.109
 20
1.7825
 30
0.0
 11
1.151
 21
1.7825
 31
0.0
  0
LINE
  5
1375
100
AcDbEntity
  8
GG1
 62
     1
100
AcDbLine
 10
1.03
 20
1.7615
 30
0.0
 11
1.03
 21
1.8035
 31
0.0
  0
LINE
  5
1376
100
AcDbEntity
  8
GG1
 62
     1
100
AcDbLine
 10
1.13
 20
1.7615
 30
0.0
 11
1.13
 21
1.8035
 31
0.0
  0
LINE
  5
1377
100
AcDbEntity
  8
GG1
 62
     1
100
AcDbLine
 10
1.23
 20
1.7615
 30
0.0
 11
1.23
 21
1.8035
 31
0.0
  0
LINE
  5
1378
100
AcDbEntity
  8
GG1
 62
     1
100
AcDbLine
 10
1.86
 20
0.0
 30
0.0
 11
1.86
 21
1.86
 31
0.0
  0
LINE
  5
1379
100
AcDbEntity
  8
GG1
 62
     1
100
AcDbLine
 10
1.8
 20
-0.195
 30
0.0
 11
1.86
 21
-0.175
 31
0.0
  0
LINE
  5
137A
100
AcDbEntity
  8
GG1
 62
     1
100
AcDbLine
 10
1.8
 20
-0.155
 30
0.0
 11
1.86
 21
-0.175
 31
0.0
  0
LINE
  5
137B
100
AcDbEntity
  8
GG1
 62
     1
100
AcDbLine
 10
1.86
 20
-0.185
 30
0.0
 11
1.86
 21
-0.015
 31
0.0
  0
LINE
  5
137C
100
AcDbEntity
  8
GG1
 62
     1
100
AcDbLine
 10
1.6675
 20
0.13
 30
0.0
 11
1.7925
 21
0.13
 31
0.0
  0
LINE
  5
137D
100
AcDbEntity
  8
GG1
 62
     1
100
AcDbLine
 10
1.659
 20
0.535
 30
0.0
 11
1.701
 21
0.535
 31
0.0
  0
LINE
  5
137E
100
AcDbEntity
  8
GG1
 62
     1
100
AcDbLine
 10
1.387
 20
0.16
 30
0.0
 11
1.473
 21
0.16
 31
0.0
  0
LINE
  5
137F
100
AcDbEntity
  8
GG1
 62
     1
100
AcDbLine
 10
1.43
 20
0.117
 30
0.0
 11
1.43
 21
0.203
 31
0.0
  0
LINE
  5
1380
100
AcDbEntity
  8
GG1
 62
     1
100
AcDbLine
 10
1.68
 20
0.514
 30
0.0
 11
1.68
 21
0.556
 31
0.0
  0
LINE
  5
1381
100
AcDbEntity
  8
GG1
 62
     1
100
AcDbLine
 10
1.465
 20
1.175
 30
0.0
 11
1.485
 21
1.175
 31
0.0
  0
LINE
  5
1382
100
AcDbEntity
  8
GG1
 62
     1
100
AcDbLine
 10
1.265
 20
0.875
 30
0.0
 11
1.285
 21
0.875
 31
0.0
  0
LINE
  5
1383
100
AcDbEntity
  8
GG1
 62
     1
100
AcDbLine
 10
1.275
 20
0.865
 30
0.0
 11
1.275
 21
0.885
 31
0.0
  0
LINE
  5
1384
100
AcDbEntity
  8
GG1
 62
     1
100
AcDbLine
 10
1.315
 20
0.875
 30
0.0
 11
1.335
 21
0.875
 31
0.0
  0
LINE
  5
1385
100
AcDbEntity
  8
GG1
 62
     1
100
AcDbLine
 10
1.325
 20
0.865
 30
0.0
 11
1.325
 21
0.885
 31
0.0
  0
LINE
  5
1386
100
AcDbEntity
  8
GG1
 62
     1
100
AcDbLine
 10
1.365
 20
0.875
 30
0.0
 11
1.385
 21
0.875
 31
0.0
  0
LINE
  5
1387
100
AcDbEntity
  8
GG1
 62
     1
100
AcDbLine
 10
1.375
 20
0.865
 30
0.0
 11
1.375
 21
0.885
 31
0.0
  0
LINE
  5
1388
100
AcDbEntity
  8
GG1
 62
     1
100
AcDbLine
 10
1.425
 20
0.865
 30
0.0
 11
1.425
 21
0.885
 31
0.0
  0
LINE
  5
1389
100
AcDbEntity
  8
GG1
 62
     1
100
AcDbLine
 10
1.415
 20
0.875
 30
0.0
 11
1.435
 21
0.875
 31
0.0
  0
LINE
  5
138A
100
AcDbEntity
  8
GG1
 62
     1
100
AcDbLine
 10
1.325
 20
1.04
 30
0.0
 11
1.325
 21
1.06
 31
0.0
  0
LINE
  5
138B
100
AcDbEntity
  8
GG1
 62
     1
100
AcDbLine
 10
1.275
 20
1.04
 30
0.0
 11
1.275
 21
1.06
 31
0.0
  0
LINE
  5
138C
100
AcDbEntity
  8
GG1
 62
     1
100
AcDbLine
 10
1.265
 20
0.95
 30
0.0
 11
1.285
 21
0.95
 31
0.0
  0
LINE
  5
138D
100
AcDbEntity
  8
GG1
 62
     1
100
AcDbLine
 10
1.275
 20
0.94
 30
0.0
 11
1.275
 21
0.96
 31
0.0
  0
LINE
  5
138E
100
AcDbEntity
  8
GG1
 62
     1
100
AcDbLine
 10
1.265
 20
1.0
 30
0.0
 11
1.285
 21
1.0
 31
0.0
  0
LINE
  5
138F
100
AcDbEntity
  8
GG1
 62
     1
100
AcDbLine
 10
1.275
 20
0.99
 30
0.0
 11
1.275
 21
1.01
 31
0.0
  0
LINE
  5
1390
100
AcDbEntity
  8
GG1
 62
     1
100
AcDbLine
 10
1.315
 20
0.95
 30
0.0
 11
1.335
 21
0.95
 31
0.0
  0
LINE
  5
1391
100
AcDbEntity
  8
GG1
 62
     1
100
AcDbLine
 10
1.325
 20
0.94
 30
0.0
 11
1.325
 21
0.96
 31
0.0
  0
LINE
  5
1392
100
AcDbEntity
  8
GG1
 62
     1
100
AcDbLine
 10
1.315
 20
1.0
 30
0.0
 11
1.335
 21
1.0
 31
0.0
  0
LINE
  5
1393
100
AcDbEntity
  8
GG1
 62
     1
100
AcDbLine
 10
1.325
 20
0.99
 30
0.0
 11
1.325
 21
1.01
 31
0.0
  0
LINE
  5
1394
100
AcDbEntity
  8
GG1
 62
     1
100
AcDbLine
 10
1.265
 20
1.05
 30
0.0
 11
1.285
 21
1.05
 31
0.0
  0
LINE
  5
1395
100
AcDbEntity
  8
GG1
 62
     1
100
AcDbLine
 10
1.265
 20
1.1
 30
0.0
 11
1.285
 21
1.1
 31
0.0
  0
LINE
  5
1396
100
AcDbEntity
  8
GG1
 62
     1
100
AcDbLine
 10
1.275
 20
1.09
 30
0.0
 11
1.275
 21
1.11
 31
0.0
  0
LINE
  5
1397
100
AcDbEntity
  8
GG1
 62
     1
100
AcDbLine
 10
1.315
 20
1.1
 30
0.0
 11
1.335
 21
1.1
 31
0.0
  0
LINE
  5
1398
100
AcDbEntity
  8
GG1
 62
     1
100
AcDbLine
 10
1.315
 20
1.05
 30
0.0
 11
1.335
 21
1.05
 31
0.0
  0
LINE
  5
1399
100
AcDbEntity
  8
GG1
 62
     1
100
AcDbLine
 10
1.325
 20
1.09
 30
0.0
 11
1.325
 21
1.11
 31
0.0
  0
LINE
  5
139A
100
AcDbEntity
  8
GG1
 62
     1
100
AcDbLine
 10
1.315
 20
1.175
 30
0.0
 11
1.335
 21
1.175
 31
0.0
  0
LINE
  5
139B
100
AcDbEntity
  8
GG1
 62
     1
100
AcDbLine
 10
1.325
 20
1.165
 30
0.0
 11
1.325
 21
1.185
 31
0.0
  0
LINE
  5
139C
100
AcDbEntity
  8
GG1
 62
     1
100
AcDbLine
 10
1.425
 20
1.04
 30
0.0
 11
1.425
 21
1.06
 31
0.0
  0
LINE
  5
139D
100
AcDbEntity
  8
GG1
 62
     1
100
AcDbLine
 10
1.375
 20
1.04
 30
0.0
 11
1.375
 21
1.06
 31
0.0
  0
LINE
  5
139E
100
AcDbEntity
  8
GG1
 62
     1
100
AcDbLine
 10
1.365
 20
0.95
 30
0.0
 11
1.385
 21
0.95
 31
0.0
  0
LINE
  5
139F
100
AcDbEntity
  8
GG1
 62
     1
100
AcDbLine
 10
1.375
 20
0.94
 30
0.0
 11
1.375
 21
0.96
 31
0.0
  0
LINE
  5
13A0
100
AcDbEntity
  8
GG1
 62
     1
100
AcDbLine
 10
1.365
 20
1.0
 30
0.0
 11
1.385
 21
1.0
 31
0.0
  0
LINE
  5
13A1
100
AcDbEntity
  8
GG1
 62
     1
100
AcDbLine
 10
1.375
 20
0.99
 30
0.0
 11
1.375
 21
1.01
 31
0.0
  0
LINE
  5
13A2
100
AcDbEntity
  8
GG1
 62
     1
100
AcDbLine
 10
1.425
 20
0.94
 30
0.0
 11
1.425
 21
0.96
 31
0.0
  0
LINE
  5
13A3
100
AcDbEntity
  8
GG1
 62
     1
100
AcDbLine
 10
1.415
 20
0.95
 30
0.0
 11
1.435
 21
0.95
 31
0.0
  0
LINE
  5
13A4
100
AcDbEntity
  8
GG1
 62
     1
100
AcDbLine
 10
1.425
 20
0.99
 30
0.0
 11
1.425
 21
1.01
 31
0.0
  0
LINE
  5
13A5
100
AcDbEntity
  8
GG1
 62
     1
100
AcDbLine
 10
1.415
 20
1.0
 30
0.0
 11
1.435
 21
1.0
 31
0.0
  0
LINE
  5
13A6
100
AcDbEntity
  8
GG1
 62
     1
100
AcDbLine
 10
1.365
 20
1.05
 30
0.0
 11
1.385
 21
1.05
 31
0.0
  0
LINE
  5
13A7
100
AcDbEntity
  8
GG1
 62
     1
100
AcDbLine
 10
1.365
 20
1.1
 30
0.0
 11
1.385
 21
1.1
 31
0.0
  0
LINE
  5
13A8
100
AcDbEntity
  8
GG1
 62
     1
100
AcDbLine
 10
1.375
 20
1.09
 30
0.0
 11
1.375
 21
1.11
 31
0.0
  0
LINE
  5
13A9
100
AcDbEntity
  8
GG1
 62
     1
100
AcDbLine
 10
1.365
 20
1.175
 30
0.0
 11
1.385
 21
1.175
 31
0.0
  0
LINE
  5
13AA
100
AcDbEntity
  8
GG1
 62
     1
100
AcDbLine
 10
1.375
 20
1.165
 30
0.0
 11
1.375
 21
1.185
 31
0.0
  0
LINE
  5
13AB
100
AcDbEntity
  8
GG1
 62
     1
100
AcDbLine
 10
1.425
 20
1.09
 30
0.0
 11
1.425
 21
1.11
 31
0.0
  0
LINE
  5
13AC
100
AcDbEntity
  8
GG1
 62
     1
100
AcDbLine
 10
1.415
 20
1.1
 30
0.0
 11
1.435
 21
1.1
 31
0.0
  0
LINE
  5
13AD
100
AcDbEntity
  8
GG1
 62
     1
100
AcDbLine
 10
1.415
 20
1.05
 30
0.0
 11
1.435
 21
1.05
 31
0.0
  0
LINE
  5
13AE
100
AcDbEntity
  8
GG1
 62
     1
100
AcDbLine
 10
1.425
 20
1.165
 30
0.0
 11
1.425
 21
1.185
 31
0.0
  0
LINE
  5
13AF
100
AcDbEntity
  8
GG1
 62
     1
100
AcDbLine
 10
1.415
 20
1.175
 30
0.0
 11
1.435
 21
1.175
 31
0.0
  0
LINE
  5
13B0
100
AcDbEntity
  8
GG1
 62
     1
100
AcDbLine
 10
1.565
 20
0.875
 30
0.0
 11
1.585
 21
0.875
 31
0.0
  0
LINE
  5
13B1
100
AcDbEntity
  8
GG1
 62
     1
100
AcDbLine
 10
1.575
 20
0.865
 30
0.0
 11
1.575
 21
0.885
 31
0.0
  0
LINE
  5
13B2
100
AcDbEntity
  8
GG1
 62
     1
100
AcDbLine
 10
1.625
 20
0.865
 30
0.0
 11
1.625
 21
0.885
 31
0.0
  0
LINE
  5
13B3
100
AcDbEntity
  8
GG1
 62
     1
100
AcDbLine
 10
1.615
 20
0.875
 30
0.0
 11
1.635
 21
0.875
 31
0.0
  0
LINE
  5
13B4
100
AcDbEntity
  8
GG1
 62
     1
100
AcDbLine
 10
1.665
 20
0.875
 30
0.0
 11
1.685
 21
0.875
 31
0.0
  0
LINE
  5
13B5
100
AcDbEntity
  8
GG1
 62
     1
100
AcDbLine
 10
1.675
 20
0.865
 30
0.0
 11
1.675
 21
0.885
 31
0.0
  0
LINE
  5
13B6
100
AcDbEntity
  8
GG1
 62
     1
100
AcDbLine
 10
1.565
 20
1.175
 30
0.0
 11
1.585
 21
1.175
 31
0.0
  0
LINE
  5
13B7
100
AcDbEntity
  8
GG1
 62
     1
100
AcDbLine
 10
1.565
 20
1.1
 30
0.0
 11
1.585
 21
1.1
 31
0.0
  0
LINE
  5
13B8
100
AcDbEntity
  8
GG1
 62
     1
100
AcDbLine
 10
1.565
 20
1.05
 30
0.0
 11
1.585
 21
1.05
 31
0.0
  0
LINE
  5
13B9
100
AcDbEntity
  8
GG1
 62
     1
100
AcDbLine
 10
1.565
 20
1.0
 30
0.0
 11
1.585
 21
1.0
 31
0.0
  0
LINE
  5
13BA
100
AcDbEntity
  8
GG1
 62
     1
100
AcDbLine
 10
1.565
 20
0.95
 30
0.0
 11
1.585
 21
0.95
 31
0.0
  0
LINE
  5
13BB
100
AcDbEntity
  8
GG1
 62
     1
100
AcDbLine
 10
1.575
 20
1.04
 30
0.0
 11
1.575
 21
1.06
 31
0.0
  0
LINE
  5
13BC
100
AcDbEntity
  8
GG1
 62
     1
100
AcDbLine
 10
1.575
 20
0.94
 30
0.0
 11
1.575
 21
0.96
 31
0.0
  0
LINE
  5
13BD
100
AcDbEntity
  8
GG1
 62
     1
100
AcDbLine
 10
1.575
 20
0.99
 30
0.0
 11
1.575
 21
1.01
 31
0.0
  0
LINE
  5
13BE
100
AcDbEntity
  8
GG1
 62
     1
100
AcDbLine
 10
1.515
 20
1.175
 30
0.0
 11
1.535
 21
1.175
 31
0.0
  0
LINE
  5
13BF
100
AcDbEntity
  8
GG1
 62
     1
100
AcDbLine
 10
1.475
 20
1.165
 30
0.0
 11
1.475
 21
1.185
 31
0.0
  0
LINE
  5
13C0
100
AcDbEntity
  8
GG1
 62
     1
100
AcDbLine
 10
1.525
 20
1.165
 30
0.0
 11
1.525
 21
1.185
 31
0.0
  0
LINE
  5
13C1
100
AcDbEntity
  8
GG1
 62
     1
100
AcDbLine
 10
1.575
 20
1.09
 30
0.0
 11
1.575
 21
1.11
 31
0.0
  0
LINE
  5
13C2
100
AcDbEntity
  8
GG1
 62
     1
100
AcDbLine
 10
1.575
 20
1.165
 30
0.0
 11
1.575
 21
1.185
 31
0.0
  0
LINE
  5
13C3
100
AcDbEntity
  8
GG1
 62
     1
100
AcDbLine
 10
1.675
 20
1.04
 30
0.0
 11
1.675
 21
1.06
 31
0.0
  0
LINE
  5
13C4
100
AcDbEntity
  8
GG1
 62
     1
100
AcDbLine
 10
1.625
 20
1.04
 30
0.0
 11
1.625
 21
1.06
 31
0.0
  0
LINE
  5
13C5
100
AcDbEntity
  8
GG1
 62
     1
100
AcDbLine
 10
1.625
 20
0.94
 30
0.0
 11
1.625
 21
0.96
 31
0.0
  0
LINE
  5
13C6
100
AcDbEntity
  8
GG1
 62
     1
100
AcDbLine
 10
1.615
 20
0.95
 30
0.0
 11
1.635
 21
0.95
 31
0.0
  0
LINE
  5
13C7
100
AcDbEntity
  8
GG1
 62
     1
100
AcDbLine
 10
1.625
 20
0.99
 30
0.0
 11
1.625
 21
1.01
 31
0.0
  0
LINE
  5
13C8
100
AcDbEntity
  8
GG1
 62
     1
100
AcDbLine
 10
1.615
 20
1.0
 30
0.0
 11
1.635
 21
1.0
 31
0.0
  0
LINE
  5
13C9
100
AcDbEntity
  8
GG1
 62
     1
100
AcDbLine
 10
1.665
 20
0.95
 30
0.0
 11
1.685
 21
0.95
 31
0.0
  0
LINE
  5
13CA
100
AcDbEntity
  8
GG1
 62
     1
100
AcDbLine
 10
1.675
 20
0.94
 30
0.0
 11
1.675
 21
0.96
 31
0.0
  0
LINE
  5
13CB
100
AcDbEntity
  8
GG1
 62
     1
100
AcDbLine
 10
1.665
 20
1.0
 30
0.0
 11
1.685
 21
1.0
 31
0.0
  0
LINE
  5
13CC
100
AcDbEntity
  8
GG1
 62
     1
100
AcDbLine
 10
1.675
 20
0.99
 30
0.0
 11
1.675
 21
1.01
 31
0.0
  0
LINE
  5
13CD
100
AcDbEntity
  8
GG1
 62
     1
100
AcDbLine
 10
1.625
 20
1.09
 30
0.0
 11
1.625
 21
1.11
 31
0.0
  0
LINE
  5
13CE
100
AcDbEntity
  8
GG1
 62
     1
100
AcDbLine
 10
1.615
 20
1.1
 30
0.0
 11
1.635
 21
1.1
 31
0.0
  0
LINE
  5
13CF
100
AcDbEntity
  8
GG1
 62
     1
100
AcDbLine
 10
1.615
 20
1.05
 30
0.0
 11
1.635
 21
1.05
 31
0.0
  0
LINE
  5
13D0
100
AcDbEntity
  8
GG1
 62
     1
100
AcDbLine
 10
1.625
 20
1.165
 30
0.0
 11
1.625
 21
1.185
 31
0.0
  0
LINE
  5
13D1
100
AcDbEntity
  8
GG1
 62
     1
100
AcDbLine
 10
1.615
 20
1.175
 30
0.0
 11
1.635
 21
1.175
 31
0.0
  0
LINE
  5
13D2
100
AcDbEntity
  8
GG1
 62
     1
100
AcDbLine
 10
1.665
 20
1.1
 30
0.0
 11
1.685
 21
1.1
 31
0.0
  0
LINE
  5
13D3
100
AcDbEntity
  8
GG1
 62
     1
100
AcDbLine
 10
1.665
 20
1.05
 30
0.0
 11
1.685
 21
1.05
 31
0.0
  0
LINE
  5
13D4
100
AcDbEntity
  8
GG1
 62
     1
100
AcDbLine
 10
1.675
 20
1.09
 30
0.0
 11
1.675
 21
1.11
 31
0.0
  0
LINE
  5
13D5
100
AcDbEntity
  8
GG1
 62
     1
100
AcDbLine
 10
1.665
 20
1.175
 30
0.0
 11
1.685
 21
1.175
 31
0.0
  0
LINE
  5
13D6
100
AcDbEntity
  8
GG1
 62
     1
100
AcDbLine
 10
1.675
 20
1.165
 30
0.0
 11
1.675
 21
1.185
 31
0.0
  0
LINE
  5
13D7
100
AcDbEntity
  8
GG1
 62
     1
100
AcDbLine
 10
1.73
 20
0.0675
 30
0.0
 11
1.73
 21
0.1925
 31
0.0
  0
LINE
  5
13D8
100
AcDbEntity
  8
GG1
 62
     1
100
AcDbLine
 10
1.715
 20
0.875
 30
0.0
 11
1.735
 21
0.875
 31
0.0
  0
LINE
  5
13D9
100
AcDbEntity
  8
GG1
 62
     1
100
AcDbLine
 10
1.725
 20
0.865
 30
0.0
 11
1.725
 21
0.885
 31
0.0
  0
LINE
  5
13DA
100
AcDbEntity
  8
GG1
 62
     1
100
AcDbLine
 10
1.765
 20
0.875
 30
0.0
 11
1.785
 21
0.875
 31
0.0
  0
LINE
  5
13DB
100
AcDbEntity
  8
GG1
 62
     1
100
AcDbLine
 10
1.775
 20
0.865
 30
0.0
 11
1.775
 21
0.885
 31
0.0
  0
LINE
  5
13DC
100
AcDbEntity
  8
GG1
 62
     1
100
AcDbLine
 10
1.725
 20
1.04
 30
0.0
 11
1.725
 21
1.06
 31
0.0
  0
LINE
  5
13DD
100
AcDbEntity
  8
GG1
 62
     1
100
AcDbLine
 10
1.775
 20
1.04
 30
0.0
 11
1.775
 21
1.06
 31
0.0
  0
LINE
  5
13DE
100
AcDbEntity
  8
GG1
 62
     1
100
AcDbLine
 10
1.715
 20
0.95
 30
0.0
 11
1.735
 21
0.95
 31
0.0
  0
LINE
  5
13DF
100
AcDbEntity
  8
GG1
 62
     1
100
AcDbLine
 10
1.725
 20
0.94
 30
0.0
 11
1.725
 21
0.96
 31
0.0
  0
LINE
  5
13E0
100
AcDbEntity
  8
GG1
 62
     1
100
AcDbLine
 10
1.715
 20
1.0
 30
0.0
 11
1.735
 21
1.0
 31
0.0
  0
LINE
  5
13E1
100
AcDbEntity
  8
GG1
 62
     1
100
AcDbLine
 10
1.725
 20
0.99
 30
0.0
 11
1.725
 21
1.01
 31
0.0
  0
LINE
  5
13E2
100
AcDbEntity
  8
GG1
 62
     1
100
AcDbLine
 10
1.765
 20
0.95
 30
0.0
 11
1.785
 21
0.95
 31
0.0
  0
LINE
  5
13E3
100
AcDbEntity
  8
GG1
 62
     1
100
AcDbLine
 10
1.775
 20
0.94
 30
0.0
 11
1.775
 21
0.96
 31
0.0
  0
LINE
  5
13E4
100
AcDbEntity
  8
GG1
 62
     1
100
AcDbLine
 10
1.765
 20
1.0
 30
0.0
 11
1.785
 21
1.0
 31
0.0
  0
LINE
  5
13E5
100
AcDbEntity
  8
GG1
 62
     1
100
AcDbLine
 10
1.775
 20
0.99
 30
0.0
 11
1.775
 21
1.01
 31
0.0
  0
LINE
  5
13E6
100
AcDbEntity
  8
GG1
 62
     1
100
AcDbLine
 10
1.715
 20
1.1
 30
0.0
 11
1.735
 21
1.1
 31
0.0
  0
LINE
  5
13E7
100
AcDbEntity
  8
GG1
 62
     1
100
AcDbLine
 10
1.715
 20
1.05
 30
0.0
 11
1.735
 21
1.05
 31
0.0
  0
LINE
  5
13E8
100
AcDbEntity
  8
GG1
 62
     1
100
AcDbLine
 10
1.725
 20
1.09
 30
0.0
 11
1.725
 21
1.11
 31
0.0
  0
LINE
  5
13E9
100
AcDbEntity
  8
GG1
 62
     1
100
AcDbLine
 10
1.765
 20
1.1
 30
0.0
 11
1.785
 21
1.1
 31
0.0
  0
LINE
  5
13EA
100
AcDbEntity
  8
GG1
 62
     1
100
AcDbLine
 10
1.765
 20
1.05
 30
0.0
 11
1.785
 21
1.05
 31
0.0
  0
LINE
  5
13EB
100
AcDbEntity
  8
GG1
 62
     1
100
AcDbLine
 10
1.775
 20
1.09
 30
0.0
 11
1.775
 21
1.11
 31
0.0
  0
LINE
  5
13EC
100
AcDbEntity
  8
GG1
 62
     1
100
AcDbLine
 10
1.695
 20
1.736
 30
0.0
 11
1.715
 21
1.736
 31
0.0
  0
LINE
  5
13ED
100
AcDbEntity
  8
GG1
 62
     1
100
AcDbLine
 10
1.465
 20
1.325
 30
0.0
 11
1.485
 21
1.325
 31
0.0
  0
LINE
  5
13EE
100
AcDbEntity
  8
GG1
 62
     1
100
AcDbLine
 10
1.465
 20
1.275
 30
0.0
 11
1.485
 21
1.275
 31
0.0
  0
LINE
  5
13EF
100
AcDbEntity
  8
GG1
 62
     1
100
AcDbLine
 10
1.465
 20
1.225
 30
0.0
 11
1.485
 21
1.225
 31
0.0
  0
LINE
  5
13F0
100
AcDbEntity
  8
GG1
 62
     1
100
AcDbLine
 10
1.465
 20
1.4
 30
0.0
 11
1.485
 21
1.4
 31
0.0
  0
LINE
  5
13F1
100
AcDbEntity
  8
GG1
 62
     1
100
AcDbLine
 10
1.325
 20
1.315
 30
0.0
 11
1.325
 21
1.335
 31
0.0
  0
LINE
  5
13F2
100
AcDbEntity
  8
GG1
 62
     1
100
AcDbLine
 10
1.315
 20
1.225
 30
0.0
 11
1.335
 21
1.225
 31
0.0
  0
LINE
  5
13F3
100
AcDbEntity
  8
GG1
 62
     1
100
AcDbLine
 10
1.325
 20
1.215
 30
0.0
 11
1.325
 21
1.235
 31
0.0
  0
LINE
  5
13F4
100
AcDbEntity
  8
GG1
 62
     1
100
AcDbLine
 10
1.315
 20
1.325
 30
0.0
 11
1.335
 21
1.325
 31
0.0
  0
LINE
  5
13F5
100
AcDbEntity
  8
GG1
 62
     1
100
AcDbLine
 10
1.315
 20
1.275
 30
0.0
 11
1.335
 21
1.275
 31
0.0
  0
LINE
  5
13F6
100
AcDbEntity
  8
GG1
 62
     1
100
AcDbLine
 10
1.325
 20
1.265
 30
0.0
 11
1.325
 21
1.285
 31
0.0
  0
LINE
  5
13F7
100
AcDbEntity
  8
GG1
 62
     1
100
AcDbLine
 10
1.275
 20
1.39
 30
0.0
 11
1.275
 21
1.41
 31
0.0
  0
LINE
  5
13F8
100
AcDbEntity
  8
GG1
 62
     1
100
AcDbLine
 10
1.265
 20
1.4
 30
0.0
 11
1.285
 21
1.4
 31
0.0
  0
LINE
  5
13F9
100
AcDbEntity
  8
GG1
 62
     1
100
AcDbLine
 10
1.325
 20
1.39
 30
0.0
 11
1.325
 21
1.41
 31
0.0
  0
LINE
  5
13FA
100
AcDbEntity
  8
GG1
 62
     1
100
AcDbLine
 10
1.315
 20
1.4
 30
0.0
 11
1.335
 21
1.4
 31
0.0
  0
LINE
  5
13FB
100
AcDbEntity
  8
GG1
 62
     1
100
AcDbLine
 10
1.425
 20
1.315
 30
0.0
 11
1.425
 21
1.335
 31
0.0
  0
LINE
  5
13FC
100
AcDbEntity
  8
GG1
 62
     1
100
AcDbLine
 10
1.375
 20
1.315
 30
0.0
 11
1.375
 21
1.335
 31
0.0
  0
LINE
  5
13FD
100
AcDbEntity
  8
GG1
 62
     1
100
AcDbLine
 10
1.365
 20
1.225
 30
0.0
 11
1.385
 21
1.225
 31
0.0
  0
LINE
  5
13FE
100
AcDbEntity
  8
GG1
 62
     1
100
AcDbLine
 10
1.375
 20
1.215
 30
0.0
 11
1.375
 21
1.235
 31
0.0
  0
LINE
  5
13FF
100
AcDbEntity
  8
GG1
 62
     1
100
AcDbLine
 10
1.365
 20
1.325
 30
0.0
 11
1.385
 21
1.325
 31
0.0
  0
LINE
  5
1400
100
AcDbEntity
  8
GG1
 62
     1
100
AcDbLine
 10
1.365
 20
1.275
 30
0.0
 11
1.385
 21
1.275
 31
0.0
  0
LINE
  5
1401
100
AcDbEntity
  8
GG1
 62
     1
100
AcDbLine
 10
1.375
 20
1.265
 30
0.0
 11
1.375
 21
1.285
 31
0.0
  0
LINE
  5
1402
100
AcDbEntity
  8
GG1
 62
     1
100
AcDbLine
 10
1.425
 20
1.215
 30
0.0
 11
1.425
 21
1.235
 31
0.0
  0
LINE
  5
1403
100
AcDbEntity
  8
GG1
 62
     1
100
AcDbLine
 10
1.415
 20
1.225
 30
0.0
 11
1.435
 21
1.225
 31
0.0
  0
LINE
  5
1404
100
AcDbEntity
  8
GG1
 62
     1
100
AcDbLine
 10
1.415
 20
1.325
 30
0.0
 11
1.435
 21
1.325
 31
0.0
  0
LINE
  5
1405
100
AcDbEntity
  8
GG1
 62
     1
100
AcDbLine
 10
1.425
 20
1.265
 30
0.0
 11
1.425
 21
1.285
 31
0.0
  0
LINE
  5
1406
100
AcDbEntity
  8
GG1
 62
     1
100
AcDbLine
 10
1.415
 20
1.275
 30
0.0
 11
1.435
 21
1.275
 31
0.0
  0
LINE
  5
1407
100
AcDbEntity
  8
GG1
 62
     1
100
AcDbLine
 10
1.375
 20
1.39
 30
0.0
 11
1.375
 21
1.41
 31
0.0
  0
LINE
  5
1408
100
AcDbEntity
  8
GG1
 62
     1
100
AcDbLine
 10
1.365
 20
1.4
 30
0.0
 11
1.385
 21
1.4
 31
0.0
  0
LINE
  5
1409
100
AcDbEntity
  8
GG1
 62
     1
100
AcDbLine
 10
1.425
 20
1.39
 30
0.0
 11
1.425
 21
1.41
 31
0.0
  0
LINE
  5
140A
100
AcDbEntity
  8
GG1
 62
     1
100
AcDbLine
 10
1.415
 20
1.4
 30
0.0
 11
1.435
 21
1.4
 31
0.0
  0
LINE
  5
140B
100
AcDbEntity
  8
GG1
 62
     1
100
AcDbLine
 10
1.2843
 20
1.5863
 30
0.0
 11
1.2843
 21
1.6163
 31
0.0
  0
LINE
  5
140C
100
AcDbEntity
  8
GG1
 62
     1
100
AcDbLine
 10
1.2693
 20
1.6013
 30
0.0
 11
1.2993
 21
1.6013
 31
0.0
  0
LINE
  5
140D
100
AcDbEntity
  8
GG1
 62
     1
100
AcDbLine
 10
1.2693
 20
1.68
 30
0.0
 11
1.2993
 21
1.68
 31
0.0
  0
LINE
  5
140E
100
AcDbEntity
  8
GG1
 62
     1
100
AcDbLine
 10
1.2843
 20
1.665
 30
0.0
 11
1.2843
 21
1.695
 31
0.0
  0
LINE
  5
140F
100
AcDbEntity
  8
GG1
 62
     1
100
AcDbLine
 10
1.565
 20
1.325
 30
0.0
 11
1.585
 21
1.325
 31
0.0
  0
LINE
  5
1410
100
AcDbEntity
  8
GG1
 62
     1
100
AcDbLine
 10
1.565
 20
1.275
 30
0.0
 11
1.585
 21
1.275
 31
0.0
  0
LINE
  5
1411
100
AcDbEntity
  8
GG1
 62
     1
100
AcDbLine
 10
1.565
 20
1.225
 30
0.0
 11
1.585
 21
1.225
 31
0.0
  0
LINE
  5
1412
100
AcDbEntity
  8
GG1
 62
     1
100
AcDbLine
 10
1.565
 20
1.4
 30
0.0
 11
1.585
 21
1.4
 31
0.0
  0
LINE
  5
1413
100
AcDbEntity
  8
GG1
 62
     1
100
AcDbLine
 10
1.575
 20
1.315
 30
0.0
 11
1.575
 21
1.335
 31
0.0
  0
LINE
  5
1414
100
AcDbEntity
  8
GG1
 62
     1
100
AcDbLine
 10
1.525
 20
1.315
 30
0.0
 11
1.525
 21
1.335
 31
0.0
  0
LINE
  5
1415
100
AcDbEntity
  8
GG1
 62
     1
100
AcDbLine
 10
1.475
 20
1.315
 30
0.0
 11
1.475
 21
1.335
 31
0.0
  0
LINE
  5
1416
100
AcDbEntity
  8
GG1
 62
     1
100
AcDbLine
 10
1.515
 20
1.325
 30
0.0
 11
1.535
 21
1.325
 31
0.0
  0
LINE
  5
1417
100
AcDbEntity
  8
GG1
 62
     1
100
AcDbLine
 10
1.515
 20
1.275
 30
0.0
 11
1.535
 21
1.275
 31
0.0
  0
LINE
  5
1418
100
AcDbEntity
  8
GG1
 62
     1
100
AcDbLine
 10
1.515
 20
1.225
 30
0.0
 11
1.535
 21
1.225
 31
0.0
  0
LINE
  5
1419
100
AcDbEntity
  8
GG1
 62
     1
100
AcDbLine
 10
1.475
 20
1.215
 30
0.0
 11
1.475
 21
1.235
 31
0.0
  0
LINE
  5
141A
100
AcDbEntity
  8
GG1
 62
     1
100
AcDbLine
 10
1.525
 20
1.215
 30
0.0
 11
1.525
 21
1.235
 31
0.0
  0
LINE
  5
141B
100
AcDbEntity
  8
GG1
 62
     1
100
AcDbLine
 10
1.475
 20
1.265
 30
0.0
 11
1.475
 21
1.285
 31
0.0
  0
LINE
  5
141C
100
AcDbEntity
  8
GG1
 62
     1
100
AcDbLine
 10
1.525
 20
1.265
 30
0.0
 11
1.525
 21
1.285
 31
0.0
  0
LINE
  5
141D
100
AcDbEntity
  8
GG1
 62
     1
100
AcDbLine
 10
1.575
 20
1.215
 30
0.0
 11
1.575
 21
1.235
 31
0.0
  0
LINE
  5
141E
100
AcDbEntity
  8
GG1
 62
     1
100
AcDbLine
 10
1.575
 20
1.265
 30
0.0
 11
1.575
 21
1.285
 31
0.0
  0
LINE
  5
141F
100
AcDbEntity
  8
GG1
 62
     1
100
AcDbLine
 10
1.515
 20
1.4
 30
0.0
 11
1.535
 21
1.4
 31
0.0
  0
LINE
  5
1420
100
AcDbEntity
  8
GG1
 62
     1
100
AcDbLine
 10
1.525
 20
1.39
 30
0.0
 11
1.525
 21
1.41
 31
0.0
  0
LINE
  5
1421
100
AcDbEntity
  8
GG1
 62
     1
100
AcDbLine
 10
1.475
 20
1.39
 30
0.0
 11
1.475
 21
1.41
 31
0.0
  0
LINE
  5
1422
100
AcDbEntity
  8
GG1
 62
     1
100
AcDbLine
 10
1.575
 20
1.39
 30
0.0
 11
1.575
 21
1.41
 31
0.0
  0
LINE
  5
1423
100
AcDbEntity
  8
GG1
 62
     1
100
AcDbLine
 10
1.675
 20
1.315
 30
0.0
 11
1.675
 21
1.335
 31
0.0
  0
LINE
  5
1424
100
AcDbEntity
  8
GG1
 62
     1
100
AcDbLine
 10
1.625
 20
1.315
 30
0.0
 11
1.625
 21
1.335
 31
0.0
  0
LINE
  5
1425
100
AcDbEntity
  8
GG1
 62
     1
100
AcDbLine
 10
1.625
 20
1.215
 30
0.0
 11
1.625
 21
1.235
 31
0.0
  0
LINE
  5
1426
100
AcDbEntity
  8
GG1
 62
     1
100
AcDbLine
 10
1.615
 20
1.225
 30
0.0
 11
1.635
 21
1.225
 31
0.0
  0
LINE
  5
1427
100
AcDbEntity
  8
GG1
 62
     1
100
AcDbLine
 10
1.615
 20
1.325
 30
0.0
 11
1.635
 21
1.325
 31
0.0
  0
LINE
  5
1428
100
AcDbEntity
  8
GG1
 62
     1
100
AcDbLine
 10
1.625
 20
1.265
 30
0.0
 11
1.625
 21
1.285
 31
0.0
  0
LINE
  5
1429
100
AcDbEntity
  8
GG1
 62
     1
100
AcDbLine
 10
1.615
 20
1.275
 30
0.0
 11
1.635
 21
1.275
 31
0.0
  0
LINE
  5
142A
100
AcDbEntity
  8
GG1
 62
     1
100
AcDbLine
 10
1.665
 20
1.225
 30
0.0
 11
1.685
 21
1.225
 31
0.0
  0
LINE
  5
142B
100
AcDbEntity
  8
GG1
 62
     1
100
AcDbLine
 10
1.675
 20
1.215
 30
0.0
 11
1.675
 21
1.235
 31
0.0
  0
LINE
  5
142C
100
AcDbEntity
  8
GG1
 62
     1
100
AcDbLine
 10
1.665
 20
1.325
 30
0.0
 11
1.685
 21
1.325
 31
0.0
  0
LINE
  5
142D
100
AcDbEntity
  8
GG1
 62
     1
100
AcDbLine
 10
1.665
 20
1.275
 30
0.0
 11
1.685
 21
1.275
 31
0.0
  0
LINE
  5
142E
100
AcDbEntity
  8
GG1
 62
     1
100
AcDbLine
 10
1.675
 20
1.265
 30
0.0
 11
1.675
 21
1.285
 31
0.0
  0
LINE
  5
142F
100
AcDbEntity
  8
GG1
 62
     1
100
AcDbLine
 10
1.625
 20
1.39
 30
0.0
 11
1.625
 21
1.41
 31
0.0
  0
LINE
  5
1430
100
AcDbEntity
  8
GG1
 62
     1
100
AcDbLine
 10
1.615
 20
1.4
 30
0.0
 11
1.635
 21
1.4
 31
0.0
  0
LINE
  5
1431
100
AcDbEntity
  8
GG1
 62
     1
100
AcDbLine
 10
1.675
 20
1.39
 30
0.0
 11
1.675
 21
1.41
 31
0.0
  0
LINE
  5
1432
100
AcDbEntity
  8
GG1
 62
     1
100
AcDbLine
 10
1.665
 20
1.4
 30
0.0
 11
1.685
 21
1.4
 31
0.0
  0
LINE
  5
1433
100
AcDbEntity
  8
GG1
 62
     1
100
AcDbLine
 10
1.511
 20
1.571
 30
0.0
 11
1.511
 21
1.591
 31
0.0
  0
LINE
  5
1434
100
AcDbEntity
  8
GG1
 62
     1
100
AcDbLine
 10
1.501
 20
1.581
 30
0.0
 11
1.521
 21
1.581
 31
0.0
  0
LINE
  5
1435
100
AcDbEntity
  8
GG1
 62
     1
100
AcDbLine
 10
1.309
 20
1.7825
 30
0.0
 11
1.351
 21
1.7825
 31
0.0
  0
LINE
  5
1436
100
AcDbEntity
  8
GG1
 62
     1
100
AcDbLine
 10
1.33
 20
1.7615
 30
0.0
 11
1.33
 21
1.8035
 31
0.0
  0
LINE
  5
1437
100
AcDbEntity
  8
GG1
 62
     1
100
AcDbLine
 10
1.409
 20
1.7825
 30
0.0
 11
1.451
 21
1.7825
 31
0.0
  0
LINE
  5
1438
100
AcDbEntity
  8
GG1
 62
     1
100
AcDbLine
 10
1.43
 20
1.7615
 30
0.0
 11
1.43
 21
1.8035
 31
0.0
  0
LINE
  5
1439
100
AcDbEntity
  8
GG1
 62
     1
100
AcDbLine
 10
1.509
 20
1.7825
 30
0.0
 11
1.551
 21
1.7825
 31
0.0
  0
LINE
  5
143A
100
AcDbEntity
  8
GG1
 62
     1
100
AcDbLine
 10
1.53
 20
1.7615
 30
0.0
 11
1.53
 21
1.8035
 31
0.0
  0
LINE
  5
143B
100
AcDbEntity
  8
GG1
 62
     1
100
AcDbLine
 10
1.609
 20
1.7825
 30
0.0
 11
1.651
 21
1.7825
 31
0.0
  0
LINE
  5
143C
100
AcDbEntity
  8
GG1
 62
     1
100
AcDbLine
 10
1.63
 20
1.7615
 30
0.0
 11
1.63
 21
1.8035
 31
0.0
  0
LINE
  5
143D
100
AcDbEntity
  8
GG1
 62
     1
100
AcDbLine
 10
1.705
 20
1.726
 30
0.0
 11
1.705
 21
1.746
 31
0.0
  0
ENDSEC
  0
SECTION
  2
OBJECTS
  0
DICTIONARY
  5
C
100
AcDbDictionary
  3
ACAD_GROUP
350
D
  3
ACAD_MLINESTYLE
350
1B
  0
DICTIONARY
  5
D
102
{ACAD_REACTORS
330
C
102
}
100
AcDbDictionary
  0
DICTIONARY
  5
1B
102
{ACAD_REACTORS
330
C
102
}
100
AcDbDictionary
  3
STANDARD
350
1C
  0
MLINESTYLE
  5
1C
102
{ACAD_REACTORS
330
1B
102
}
100
AcDbMlineStyle
  2
STANDARD
 70
     0
  3

 62
   256
 51
90.0
 52
90.0
 71
     2
 49
0.5
 62
   256
  6
BYLAYER
 49
-0.5
 62
   256
  6
BYLAYER
  0
ENDSEC
  0
EOF
