999
dxfrw 0.5.11
0
SECTION
2
HEADER
9
$ACADVER
1
AC1009
9
$DWGCODEPAGE
3
ANSI_1252
9
$INSBASE
10
0
20
0
30
0
9
$EXTMIN
10
-324.290748
20
636.621765
30
0
9
$EXTMAX
10
-224.325586
20
700.17319
30
0
9
$LIMMIN
10
0
20
0
9
$LIMMAX
10
420
20
297
9
$ORTHOMODE
70
0
9
$LTSCALE
40
1
9
$TEXTSTYLE
7
STANDARD
9
$CLAYER
8
EBENE_1
9
$DIMASZ
40
2.5
9
$DIMLFAC
40
1
9
$DIMSCALE
40
1
9
$DIMEXO
40
0.625
9
$DIMEXE
40
1.25
9
$DIMTXT
40
2.5
9
$DIMTSZ
40
0
9
$DIMUNIT
70
2
9
$DIMSTYLE
2
STANDARD
9
$DIMGAP
40
0.625
9
$DIMTIH
70
0
9
$LUNITS
70
2
9
$LUPREC
70
4
9
$AUNITS
70
0
9
$AUPREC
70
2
9
$GRIDMODE
70
0
9
$SNAPSTYLE
70
0
9
$PLIMMIN
10
0
20
0
9
$PLIMMAX
10
210
20
297
0
ENDSEC
0
SECTION
2
CLASSES
0
ENDSEC
0
SECTION
2
TABLES
0
TABLE
2
VPORT
70
1
0
VPORT
2
*ACTIVE
70
0
10
0
20
0
11
1
21
1
12
79.7234482759
22
384.977241379
13
0
23
0
14
10
24
10
15
10
25
10
16
0
26
0
36
1
17
0
27
0
37
0
40
341
41
1.83586206897
42
50
43
0
44
0
50
0
51
0
71
0
72
100
73
1
74
3
75
0
76
0
77
0
78
0
0
ENDTAB
0
TABLE
2
LTYPE
70
4
0
LTYPE
2
BYBLOCK
70
0
3

72
65
73
0
40
0
0
LTYPE
2
BYLAYER
70
0
3

72
65
73
0
40
0
0
LTYPE
2
CONTINUOUS
70
0
3
Solid line
72
65
73
0
40
0
0
LTYPE
2
DOT
70
0
3
Dot . . . . . . . . . . . . . . . . . . . . . .
72
65
73
2
40
6.35
49
0
49
-6.35
0
LTYPE
2
DOT2
70
0
3
Dot (.5x) .....................................
72
65
73
2
40
3.175
49
0
49
-3.175
0
LTYPE
2
DOTX2
70
0
3
Dot (2x) .  .  .  .  .  .  .  .  .  .  .  .  .
72
65
73
2
40
12.7
49
0
49
-12.7
0
LTYPE
2
DASHED
70
0
3
Dot . . . . . . . . . . . . . . . . . . . . . .
72
65
73
2
40
19.05
49
12.7
49
-6.35
0
LTYPE
2
DASHED2
70
0
3
Dashed (.5x) _ _ _ _ _ _ _ _ _ _ _ _ _ _ _ _ _
72
65
73
2
40
9.525
49
6.35
49
-3.175
0
LTYPE
2
DASHEDX2
70
0
3
Dashed (2x) ____  ____  ____  ____  ____  ___
72
65
73
2
40
38.1
49
25.4
49
-12.7
0
LTYPE
2
DASHDOT
70
0
3
Dash dot __ . __ . __ . __ . __ . __ . __ . __
72
65
73
4
40
25.4
49
12.7
49
-6.35
49
0
49
-6.35
0
LTYPE
2
DASHDOT2
70
0
3
Dash dot (.5x) _._._._._._._._._._._._._._._.
72
65
73
4
40
12.7
49
6.35
49
-3.175
49
0
49
-3.175
0
LTYPE
2
DASHDOTX2
70
0
3
Dash dot (2x) ____  .  ____  .  ____  .  ___
72
65
73
4
40
50.8
49
25.4
49
-12.7
49
0
49
-12.7
0
LTYPE
2
DIVIDE
70
0
3
Divide ____ . . ____ . . ____ . . ____ . . ____
72
65
73
6
40
31.75
49
12.7
49
-6.35
49
0
49
-6.35
49
0
49
-6.35
0
LTYPE
2
DIVIDE2
70
0
3
Divide (.5x) __..__..__..__..__..__..__..__.._
72
65
73
6
40
15.875
49
6.35
49
-3.175
49
0
49
-3.175
49
0
49
-3.175
0
LTYPE
2
DIVIDEX2
70
0
3
Divide (2x) ________  .  .  ________  .  .  _
72
65
73
6
40
63.5
49
25.4
49
-12.7
49
0
49
-12.7
49
0
49
-12.7
0
LTYPE
2
BORDER
70
0
3
Border __ __ . __ __ . __ __ . __ __ . __ __ .
72
65
73
6
40
44.45
49
12.7
49
-6.35
49
12.7
49
-6.35
49
0
49
-6.35
0
LTYPE
2
BORDER2
70
0
3
Border (.5x) __.__.__.__.__.__.__.__.__.__.__.
72
65
73
6
40
22.225
49
6.35
49
-3.175
49
6.35
49
-3.175
49
0
49
-3.175
0
LTYPE
2
BORDERX2
70
0
3
Border (2x) ____  ____  .  ____  ____  .  ___
72
65
73
6
40
88.9
49
25.4
49
-12.7
49
25.4
49
-12.7
49
0
49
-12.7
0
LTYPE
2
CENTER
70
0
3
Center ____ _ ____ _ ____ _ ____ _ ____ _ ____
72
65
73
4
40
50.8
49
31.75
49
-6.35
49
6.35
49
-6.35
0
LTYPE
2
CENTER2
70
0
3
Center (.5x) ___ _ ___ _ ___ _ ___ _ ___ _ ___
72
65
73
4
40
28.575
49
19.05
49
-3.175
49
3.175
49
-3.175
0
LTYPE
2
CENTERX2
70
0
3
Center (2x) ________  __  ________  __  _____
72
65
73
4
40
101.6
49
63.5
49
-12.7
49
12.7
49
-12.7
0
ENDTAB
0
TABLE
2
LAYER
70
1
0
LAYER
2
0
70
1
62
7
6
CONTINUOUS
0
LAYER
2
EBENE_1
70
0
62
7
6
CONTINUOUS
0
ENDTAB
0
TABLE
2
STYLE
70
3
0
STYLE
2
STANDARD
70
0
40
0
41
1
50
0
71
0
42
1
3
TXT
4

0
ENDTAB
0
TABLE
2
VIEW
70
0
0
ENDTAB
0
TABLE
2
UCS
70
0
0
ENDTAB
0
TABLE
2
APPID
70
1
0
APPID
2
ACAD
70
0
0
ENDTAB
0
TABLE
2
DIMSTYLE
70
1
0
DIMSTYLE
2
STANDARD
70
0
3

4

5

6

7

40
1
41
2.5
42
0.625
43
0.38
44
1.25
45
0
46
0
47
0
48
0
140
2.5
141
0.09
142
0
143
25.4
144
1
145
0
146
1
147
0.625
71
0
72
0
73
0
74
1
75
0
76
0
77
0
78
0
170
0
171
2
172
0
173
0
174
0
175
0
176
0
177
0
178
0
0
ENDTAB
0
ENDSEC
0
SECTION
2
BLOCKS
0
BLOCK
8
0
2
$MODEL_SPACE
70
0
10
0
20
0
30
0
3
$MODEL_SPACE
1

0
ENDBLK
8
0
0
BLOCK
8
0
2
$PAPER_SPACE
70
0
10
0
20
0
30
0
3
$PAPER_SPACE
1

0
ENDBLK
8
0
0
ENDSEC
0
SECTION
2
ENTITIES
0
POLYLINE
5
31
8
EBENE_1
6
BYLAYER
62
7
66
1
10
0
20
0
30
0
70
0
0
VERTEX
5
32
8
EBENE_1
6
BYLAYER
62
7
10
-324.290748
20
636.621765
30
0
0
VERTEX
5
33
8
EBENE_1
6
BYLAYER
62
7
10
-324.730095169
20
635.982838203
30
0
0
VERTEX
5
34
8
EBENE_1
6
BYLAYER
62
7
10
-325.146872488
20
635.322242418
30
0
0
VERTEX
5
35
8
EBENE_1
6
BYLAYER
62
7
10
-325.540064223
20
634.641737043
30
0
0
VERTEX
5
36
8
EBENE_1
6
BYLAYER
62
7
10
-325.908654642
20
633.943081474
30
0
0
VERTEX
5
37
8
EBENE_1
6
BYLAYER
62
7
10
-326.25162801
20
633.228035106
30
0
0
VERTEX
5
38
8
EBENE_1
6
BYLAYER
62
7
10
-326.567968594
20
632.498357335
30
0
0
VERTEX
5
39
8
EBENE_1
6
BYLAYER
62
7
10
-326.85666066
20
631.755807559
30
0
0
VERTEX
5
3A
8
EBENE_1
6
BYLAYER
62
7
10
-327.116688476
20
631.002145173
30
0
0
VERTEX
5
3B
8
EBENE_1
6
BYLAYER
62
7
10
-327.347036308
20
630.239129572
30
0
0
VERTEX
5
3C
8
EBENE_1
6
BYLAYER
62
7
10
-327.546688421
20
629.468520154
30
0
0
VERTEX
5
3D
8
EBENE_1
6
BYLAYER
62
7
10
-327.714629084
20
628.692076314
30
0
0
VERTEX
5
3E
8
EBENE_1
6
BYLAYER
62
7
10
-327.849842561
20
627.911557449
30
0
0
VERTEX
5
3F
8
EBENE_1
6
BYLAYER
62
7
10
-327.95131312
20
627.128722954
30
0
0
VERTEX
5
40
8
EBENE_1
6
BYLAYER
62
7
10
-328.018025028
20
626.345332226
30
0
0
VERTEX
5
41
8
EBENE_1
6
BYLAYER
62
7
10
-328.04896255
20
625.56314466
30
0
0
VERTEX
5
42
8
EBENE_1
6
BYLAYER
62
7
10
-328.043109954
20
624.783919654
30
0
0
VERTEX
5
43
8
EBENE_1
6
BYLAYER
62
7
10
-327.999451505
20
624.009416603
30
0
0
VERTEX
5
44
8
EBENE_1
6
BYLAYER
62
7
10
-327.916971471
20
623.241394903
30
0
0
VERTEX
5
45
8
EBENE_1
6
BYLAYER
62
7
10
-327.794654117
20
622.48161395
30
0
0
VERTEX
5
46
8
EBENE_1
6
BYLAYER
62
7
10
-327.631483711
20
621.731833141
30
0
0
VERTEX
5
47
8
EBENE_1
6
BYLAYER
62
7
10
-327.426444519
20
620.993811871
30
0
0
VERTEX
5
48
8
EBENE_1
6
BYLAYER
62
7
10
-327.178520808
20
620.269309537
30
0
0
VERTEX
5
49
8
EBENE_1
6
BYLAYER
62
7
10
-326.886696843
20
619.560085535
30
0
0
VERTEX
5
4A
8
EBENE_1
6
BYLAYER
62
7
10
-326.549956892
20
618.867899261
30
0
0
VERTEX
5
4B
8
EBENE_1
6
BYLAYER
62
7
10
-326.167285221
20
618.194510111
30
0
0
VERTEX
5
4C
8
EBENE_1
6
BYLAYER
62
7
10
-325.737666096
20
617.541677481
30
0
0
VERTEX
5
4D
8
EBENE_1
6
BYLAYER
62
7
10
-325.260083785
20
616.911160768
30
0
0
VERTEX
5
4E
8
EBENE_1
6
BYLAYER
62
7
10
-324.733522553
20
616.304719367
30
0
0
VERTEX
5
4F
8
EBENE_1
6
BYLAYER
62
7
10
-324.156966667
20
615.724112674
30
0
0
VERTEX
5
50
8
EBENE_1
6
BYLAYER
62
7
10
-323.529400394
20
615.171100087
30
0
0
VERTEX
5
51
8
EBENE_1
6
BYLAYER
62
7
10
-322.849808
20
614.647441
30
0
0
SEQEND
5
52
8
EBENE_1
6
BYLAYER
62
7
0
POLYLINE
5
53
8
EBENE_1
6
BYLAYER
62
7
66
1
10
0
20
0
30
0
70
0
0
VERTEX
5
54
8
EBENE_1
6
BYLAYER
62
7
10
-322.849808
20
614.647441
30
0
0
VERTEX
5
55
8
EBENE_1
6
BYLAYER
62
7
10
-321.894645426
20
614.002450051
30
0
0
VERTEX
5
56
8
EBENE_1
6
BYLAYER
62
7
10
-320.913412352
20
613.422357235
30
0
0
VERTEX
5
57
8
EBENE_1
6
BYLAYER
62
7
10
-319.908714619
20
612.900088689
30
0
0
VERTEX
5
58
8
EBENE_1
6
BYLAYER
62
7
10
-318.883158066
20
612.428570556
30
0
0
VERTEX
5
59
8
EBENE_1
6
BYLAYER
62
7
10
-317.839348536
20
612.000728973
30
0
0
VERTEX
5
5A
8
EBENE_1
6
BYLAYER
62
7
10
-316.779891868
20
611.609490083
30
0
0
VERTEX
5
5B
8
EBENE_1
6
BYLAYER
62
7
10
-315.707393904
20
611.247780024
30
0
0
VERTEX
5
5C
8
EBENE_1
6
BYLAYER
62
7
10
-314.624460484
20
610.908524936
30
0
0
VERTEX
5
5D
8
EBENE_1
6
BYLAYER
62
7
10
-313.53369745
20
610.58465096
30
0
0
VERTEX
5
5E
8
EBENE_1
6
BYLAYER
62
7
10
-312.437710642
20
610.269084236
30
0
0
VERTEX
5
5F
8
EBENE_1
6
BYLAYER
62
7
10
-311.3391059
20
609.954750902
30
0
0
VERTEX
5
60
8
EBENE_1
6
BYLAYER
62
7
10
-310.240489067
20
609.634577101
30
0
0
VERTEX
5
61
8
EBENE_1
6
BYLAYER
62
7
10
-309.144465982
20
609.30148897
30
0
0
VERTEX
5
62
8
EBENE_1
6
BYLAYER
62
7
10
-308.053642486
20
608.948412651
30
0
0
VERTEX
5
63
8
EBENE_1
6
BYLAYER
62
7
10
-306.970624421
20
608.568274283
30
0
0
VERTEX
5
64
8
EBENE_1
6
BYLAYER
62
7
10
-305.898017627
20
608.154000007
30
0
0
VERTEX
5
65
8
EBENE_1
6
BYLAYER
62
7
10
-304.838427944
20
607.698515962
30
0
0
VERTEX
5
66
8
EBENE_1
6
BYLAYER
62
7
10
-303.794461215
20
607.194748288
30
0
0
VERTEX
5
67
8
EBENE_1
6
BYLAYER
62
7
10
-302.768723279
20
606.635623125
30
0
0
VERTEX
5
68
8
EBENE_1
6
BYLAYER
62
7
10
-301.763819977
20
606.014066614
30
0
0
VERTEX
5
69
8
EBENE_1
6
BYLAYER
62
7
10
-300.78235715
20
605.323004893
30
0
0
VERTEX
5
6A
8
EBENE_1
6
BYLAYER
62
7
10
-299.82694064
20
604.555364104
30
0
0
VERTEX
5
6B
8
EBENE_1
6
BYLAYER
62
7
10
-298.900176286
20
603.704070386
30
0
0
VERTEX
5
6C
8
EBENE_1
6
BYLAYER
62
7
10
-298.00466993
20
602.762049879
30
0
0
VERTEX
5
6D
8
EBENE_1
6
BYLAYER
62
7
10
-297.143027412
20
601.722228724
30
0
0
VERTEX
5
6E
8
EBENE_1
6
BYLAYER
62
7
10
-296.317854574
20
600.577533059
30
0
0
VERTEX
5
6F
8
EBENE_1
6
BYLAYER
62
7
10
-295.531757255
20
599.320889025
30
0
0
VERTEX
5
70
8
EBENE_1
6
BYLAYER
62
7
10
-294.787341298
20
597.945222762
30
0
0
VERTEX
5
71
8
EBENE_1
6
BYLAYER
62
7
10
-294.087212542
20
596.443460411
30
0
0
VERTEX
5
72
8
EBENE_1
6
BYLAYER
62
7
10
-293.43397683
20
594.80852811
30
0
0
VERTEX
5
73
8
EBENE_1
6
BYLAYER
62
7
10
-292.83024
20
593.033352
30
0
0
SEQEND
5
74
8
EBENE_1
6
BYLAYER
62
7
0
POLYLINE
5
75
8
EBENE_1
6
BYLAYER
62
7
66
1
10
0
20
0
30
0
70
0
0
VERTEX
5
76
8
EBENE_1
6
BYLAYER
62
7
10
-292.83024
20
593.033352
30
0
0
VERTEX
5
77
8
EBENE_1
6
BYLAYER
62
7
10
-292.579989622
20
591.198696976
30
0
0
VERTEX
5
78
8
EBENE_1
6
BYLAYER
62
7
10
-292.441609017
20
589.473348207
30
0
0
VERTEX
5
79
8
EBENE_1
6
BYLAYER
62
7
10
-292.409826042
20
587.851531732
30
0
0
VERTEX
5
7A
8
EBENE_1
6
BYLAYER
62
7
10
-292.479368557
20
586.327473587
30
0
0
VERTEX
5
7B
8
EBENE_1
6
BYLAYER
62
7
10
-292.644964419
20
584.89539981
30
0
0
VERTEX
5
7C
8
EBENE_1
6
BYLAYER
62
7
10
-292.901341486
20
583.549536438
30
0
0
VERTEX
5
7D
8
EBENE_1
6
BYLAYER
62
7
10
-293.243227617
20
582.284109509
30
0
0
VERTEX
5
7E
8
EBENE_1
6
BYLAYER
62
7
10
-293.66535067
20
581.09334506
30
0
0
VERTEX
5
7F
8
EBENE_1
6
BYLAYER
62
7
10
-294.162438502
20
579.971469127
30
0
0
VERTEX
5
80
8
EBENE_1
6
BYLAYER
62
7
10
-294.729218973
20
578.912707749
30
0
0
VERTEX
5
81
8
EBENE_1
6
BYLAYER
62
7
10
-295.360419939
20
577.911286963
30
0
0
VERTEX
5
82
8
EBENE_1
6
BYLAYER
62
7
10
-296.05076926
20
576.961432806
30
0
0
VERTEX
5
83
8
EBENE_1
6
BYLAYER
62
7
10
-296.794994793
20
576.057371316
30
0
0
VERTEX
5
84
8
EBENE_1
6
BYLAYER
62
7
10
-297.587824397
20
575.193328529
30
0
0
VERTEX
5
85
8
EBENE_1
6
BYLAYER
62
7
10
-298.42398593
20
574.363530483
30
0
0
VERTEX
5
86
8
EBENE_1
6
BYLAYER
62
7
10
-299.298207249
20
573.562203216
30
0
0
VERTEX
5
87
8
EBENE_1
6
BYLAYER
62
7
10
-300.205216214
20
572.783572764
30
0
0
VERTEX
5
88
8
EBENE_1
6
BYLAYER
62
7
10
-301.139740681
20
572.021865166
30
0
0
VERTEX
5
89
8
EBENE_1
6
BYLAYER
62
7
10
-302.09650851
20
571.271306458
30
0
0
VERTEX
5
8A
8
EBENE_1
6
BYLAYER
62
7
10
-303.070247558
20
570.526122678
30
0
0
VERTEX
5
8B
8
EBENE_1
6
BYLAYER
62
7
10
-304.055685684
20
569.780539862
30
0
0
VERTEX
5
8C
8
EBENE_1
6
BYLAYER
62
7
10
-305.047550745
20
569.02878405
30
0
0
VERTEX
5
8D
8
EBENE_1
6
BYLAYER
62
7
10
-306.040570601
20
568.265081276
30
0
0
VERTEX
5
8E
8
EBENE_1
6
BYLAYER
62
7
10
-307.029473108
20
567.48365758
30
0
0
VERTEX
5
8F
8
EBENE_1
6
BYLAYER
62
7
10
-308.008986126
20
566.678738999
30
0
0
VERTEX
5
90
8
EBENE_1
6
BYLAYER
62
7
10
-308.973837511
20
565.844551569
30
0
0
VERTEX
5
91
8
EBENE_1
6
BYLAYER
62
7
10
-309.918755124
20
564.975321327
30
0
0
VERTEX
5
92
8
EBENE_1
6
BYLAYER
62
7
10
-310.83846682
20
564.065274313
30
0
0
VERTEX
5
93
8
EBENE_1
6
BYLAYER
62
7
10
-311.72770046
20
563.108636562
30
0
0
VERTEX
5
94
8
EBENE_1
6
BYLAYER
62
7
10
-312.581183901
20
562.099634112
30
0
0
VERTEX
5
95
8
EBENE_1
6
BYLAYER
62
7
10
-313.393645
20
561.032493
30
0
0
SEQEND
5
96
8
EBENE_1
6
BYLAYER
62
7
0
POLYLINE
5
97
8
EBENE_1
6
BYLAYER
62
7
66
1
10
0
20
0
30
0
70
0
0
VERTEX
5
98
8
EBENE_1
6
BYLAYER
62
7
10
-313.393645
20
561.032493
30
0
0
VERTEX
5
99
8
EBENE_1
6
BYLAYER
62
7
10
-313.92733241
20
560.25123245
30
0
0
VERTEX
5
9A
8
EBENE_1
6
BYLAYER
62
7
10
-314.396478413
20
559.476332336
30
0
0
VERTEX
5
9B
8
EBENE_1
6
BYLAYER
62
7
10
-314.802703345
20
558.707967992
30
0
0
VERTEX
5
9C
8
EBENE_1
6
BYLAYER
62
7
10
-315.147627543
20
557.946314752
30
0
0
VERTEX
5
9D
8
EBENE_1
6
BYLAYER
62
7
10
-315.432871344
20
557.191547951
30
0
0
VERTEX
5
9E
8
EBENE_1
6
BYLAYER
62
7
10
-315.660055085
20
556.443842923
30
0
0
VERTEX
5
9F
8
EBENE_1
6
BYLAYER
62
7
10
-315.830799103
20
555.703375004
30
0
0
VERTEX
5
A0
8
EBENE_1
6
BYLAYER
62
7
10
-315.946723734
20
554.970319526
30
0
0
VERTEX
5
A1
8
EBENE_1
6
BYLAYER
62
7
10
-316.009449314
20
554.244851826
30
0
0
VERTEX
5
A2
8
EBENE_1
6
BYLAYER
62
7
10
-316.020596182
20
553.527147237
30
0
0
VERTEX
5
A3
8
EBENE_1
6
BYLAYER
62
7
10
-315.981784672
20
552.817381094
30
0
0
VERTEX
5
A4
8
EBENE_1
6
BYLAYER
62
7
10
-315.894635123
20
552.115728732
30
0
0
VERTEX
5
A5
8
EBENE_1
6
BYLAYER
62
7
10
-315.760767871
20
551.422365484
30
0
0
VERTEX
5
A6
8
EBENE_1
6
BYLAYER
62
7
10
-315.581803253
20
550.737466686
30
0
0
VERTEX
5
A7
8
EBENE_1
6
BYLAYER
62
7
10
-315.359361605
20
550.061207671
30
0
0
VERTEX
5
A8
8
EBENE_1
6
BYLAYER
62
7
10
-315.095063264
20
549.393763775
30
0
0
VERTEX
5
A9
8
EBENE_1
6
BYLAYER
62
7
10
-314.790528567
20
548.735310332
30
0
0
VERTEX
5
AA
8
EBENE_1
6
BYLAYER
62
7
10
-314.447377851
20
548.086022676
30
0
0
VERTEX
5
AB
8
EBENE_1
6
BYLAYER
62
7
10
-314.067231452
20
547.446076142
30
0
0
VERTEX
5
AC
8
EBENE_1
6
BYLAYER
62
7
10
-313.651709707
20
546.815646065
30
0
0
VERTEX
5
AD
8
EBENE_1
6
BYLAYER
62
7
10
-313.202432954
20
546.194907778
30
0
0
VERTEX
5
AE
8
EBENE_1
6
BYLAYER
62
7
10
-312.721021528
20
545.584036617
30
0
0
VERTEX
5
AF
8
EBENE_1
6
BYLAYER
62
7
10
-312.209095766
20
544.983207916
30
0
0
VERTEX
5
B0
8
EBENE_1
6
BYLAYER
62
7
10
-311.668276005
20
544.392597009
30
0
0
VERTEX
5
B1
8
EBENE_1
6
BYLAYER
62
7
10
-311.100182583
20
543.812379231
30
0
0
VERTEX
5
B2
8
EBENE_1
6
BYLAYER
62
7
10
-310.506435835
20
543.242729916
30
0
0
VERTEX
5
B3
8
EBENE_1
6
BYLAYER
62
7
10
-309.888656098
20
542.683824399
30
0
0
VERTEX
5
B4
8
EBENE_1
6
BYLAYER
62
7
10
-309.248463709
20
542.135838015
30
0
0
VERTEX
5
B5
8
EBENE_1
6
BYLAYER
62
7
10
-308.587479006
20
541.598946097
30
0
0
VERTEX
5
B6
8
EBENE_1
6
BYLAYER
62
7
10
-307.907322324
20
541.07332398
30
0
0
VERTEX
5
B7
8
EBENE_1
6
BYLAYER
62
7
10
-307.209614
20
540.559147
30
0
0
SEQEND
5
B8
8
EBENE_1
6
BYLAYER
62
7
0
POLYLINE
5
B9
8
EBENE_1
6
BYLAYER
62
7
66
1
10
0
20
0
30
0
70
0
0
VERTEX
5
BA
8
EBENE_1
6
BYLAYER
62
7
10
-307.209614
20
540.559147
30
0
0
VERTEX
5
BB
8
EBENE_1
6
BYLAYER
62
7
10
-306.025782307
20
539.805569272
30
0
0
VERTEX
5
BC
8
EBENE_1
6
BYLAYER
62
7
10
-304.833075037
20
539.232695422
30
0
0
VERTEX
5
BD
8
EBENE_1
6
BYLAYER
62
7
10
-303.631238256
20
538.827429738
30
0
0
VERTEX
5
BE
8
EBENE_1
6
BYLAYER
62
7
10
-302.42001803
20
538.57667651
30
0
0
VERTEX
5
BF
8
EBENE_1
6
BYLAYER
62
7
10
-301.199160426
20
538.467340028
30
0
0
VERTEX
5
C0
8
EBENE_1
6
BYLAYER
62
7
10
-299.968411511
20
538.48632458
30
0
0
VERTEX
5
C1
8
EBENE_1
6
BYLAYER
62
7
10
-298.72751735
20
538.620534456
30
0
0
VERTEX
5
C2
8
EBENE_1
6
BYLAYER
62
7
10
-297.476224012
20
538.856873946
30
0
0
VERTEX
5
C3
8
EBENE_1
6
BYLAYER
62
7
10
-296.214277561
20
539.182247338
30
0
0
VERTEX
5
C4
8
EBENE_1
6
BYLAYER
62
7
10
-294.941424065
20
539.583558922
30
0
0
VERTEX
5
C5
8
EBENE_1
6
BYLAYER
62
7
10
-293.65740959
20
540.047712988
30
0
0
VERTEX
5
C6
8
EBENE_1
6
BYLAYER
62
7
10
-292.361980203
20
540.561613825
30
0
0
VERTEX
5
C7
8
EBENE_1
6
BYLAYER
62
7
10
-291.054881971
20
541.112165721
30
0
0
VERTEX
5
C8
8
EBENE_1
6
BYLAYER
62
7
10
-289.735860959
20
541.686272968
30
0
0
VERTEX
5
C9
8
EBENE_1
6
BYLAYER
62
7
10
-288.404663234
20
542.270839853
30
0
0
VERTEX
5
CA
8
EBENE_1
6
BYLAYER
62
7
10
-287.061034863
20
542.852770666
30
0
0
VERTEX
5
CB
8
EBENE_1
6
BYLAYER
62
7
10
-285.704721912
20
543.418969696
30
0
0
VERTEX
5
CC
8
EBENE_1
6
BYLAYER
62
7
10
-284.335470449
20
543.956341234
30
0
0
VERTEX
5
CD
8
EBENE_1
6
BYLAYER
62
7
10
-282.953026539
20
544.451789568
30
0
0
VERTEX
5
CE
8
EBENE_1
6
BYLAYER
62
7
10
-281.557136248
20
544.892218987
30
0
0
VERTEX
5
CF
8
EBENE_1
6
BYLAYER
62
7
10
-280.147545645
20
545.264533781
30
0
0
VERTEX
5
D0
8
EBENE_1
6
BYLAYER
62
7
10
-278.724000794
20
545.55563824
30
0
0
VERTEX
5
D1
8
EBENE_1
6
BYLAYER
62
7
10
-277.286247763
20
545.752436652
30
0
0
VERTEX
5
D2
8
EBENE_1
6
BYLAYER
62
7
10
-275.834032617
20
545.841833307
30
0
0
VERTEX
5
D3
8
EBENE_1
6
BYLAYER
62
7
10
-274.367101425
20
545.810732494
30
0
0
VERTEX
5
D4
8
EBENE_1
6
BYLAYER
62
7
10
-272.885200251
20
545.646038503
30
0
0
VERTEX
5
D5
8
EBENE_1
6
BYLAYER
62
7
10
-271.388075164
20
545.334655623
30
0
0
VERTEX
5
D6
8
EBENE_1
6
BYLAYER
62
7
10
-269.875472228
20
544.863488143
30
0
0
VERTEX
5
D7
8
EBENE_1
6
BYLAYER
62
7
10
-268.347137511
20
544.219440353
30
0
0
VERTEX
5
D8
8
EBENE_1
6
BYLAYER
62
7
10
-266.80281708
20
543.389416542
30
0
0
VERTEX
5
D9
8
EBENE_1
6
BYLAYER
62
7
10
-265.242257
20
542.360321
30
0
0
SEQEND
5
DA
8
EBENE_1
6
BYLAYER
62
7
0
POLYLINE
5
DB
8
EBENE_1
6
BYLAYER
62
7
66
1
10
0
20
0
30
0
70
0
0
VERTEX
5
DC
8
EBENE_1
6
BYLAYER
62
7
10
-265.242257
20
542.360321
30
0
0
VERTEX
5
DD
8
EBENE_1
6
BYLAYER
62
7
10
-263.12361778
20
540.715865202
30
0
0
VERTEX
5
DE
8
EBENE_1
6
BYLAYER
62
7
10
-261.309952622
20
539.060713969
30
0
0
VERTEX
5
DF
8
EBENE_1
6
BYLAYER
62
7
10
-259.78179934
20
537.39672948
30
0
0
VERTEX
5
E0
8
EBENE_1
6
BYLAYER
62
7
10
-258.519695751
20
535.725773913
30
0
0
VERTEX
5
E1
8
EBENE_1
6
BYLAYER
62
7
10
-257.50417967
20
534.049709447
30
0
0
VERTEX
5
E2
8
EBENE_1
6
BYLAYER
62
7
10
-256.715788913
20
532.37039826
30
0
0
VERTEX
5
E3
8
EBENE_1
6
BYLAYER
62
7
10
-256.135061295
20
530.68970253
30
0
0
VERTEX
5
E4
8
EBENE_1
6
BYLAYER
62
7
10
-255.742534633
20
529.009484436
30
0
0
VERTEX
5
E5
8
EBENE_1
6
BYLAYER
62
7
10
-255.518746741
20
527.331606157
30
0
0
VERTEX
5
E6
8
EBENE_1
6
BYLAYER
62
7
10
-255.444235435
20
525.657929869
30
0
0
VERTEX
5
E7
8
EBENE_1
6
BYLAYER
62
7
10
-255.499538532
20
523.990317753
30
0
0
VERTEX
5
E8
8
EBENE_1
6
BYLAYER
62
7
10
-255.665193847
20
522.330631985
30
0
0
VERTEX
5
E9
8
EBENE_1
6
BYLAYER
62
7
10
-255.921739194
20
520.680734745
30
0
0
VERTEX
5
EA
8
EBENE_1
6
BYLAYER
62
7
10
-256.249712391
20
519.042488212
30
0
0
VERTEX
5
EB
8
EBENE_1
6
BYLAYER
62
7
10
-256.629651253
20
517.417754562
30
0
0
VERTEX
5
EC
8
EBENE_1
6
BYLAYER
62
7
10
-257.042093594
20
515.808395976
30
0
0
VERTEX
5
ED
8
EBENE_1
6
BYLAYER
62
7
10
-257.467577232
20
514.21627463
30
0
0
VERTEX
5
EE
8
EBENE_1
6
BYLAYER
62
7
10
-257.886639982
20
512.643252704
30
0
0
VERTEX
5
EF
8
EBENE_1
6
BYLAYER
62
7
10
-258.279819658
20
511.091192376
30
0
0
VERTEX
5
F0
8
EBENE_1
6
BYLAYER
62
7
10
-258.627654078
20
509.561955824
30
0
0
VERTEX
5
F1
8
EBENE_1
6
BYLAYER
62
7
10
-258.910681056
20
508.057405227
30
0
0
VERTEX
5
F2
8
EBENE_1
6
BYLAYER
62
7
10
-259.109438408
20
506.579402762
30
0
0
VERTEX
5
F3
8
EBENE_1
6
BYLAYER
62
7
10
-259.20446395
20
505.129810609
30
0
0
VERTEX
5
F4
8
EBENE_1
6
BYLAYER
62
7
10
-259.176295498
20
503.710490946
30
0
0
VERTEX
5
F5
8
EBENE_1
6
BYLAYER
62
7
10
-259.005470867
20
502.323305951
30
0
0
VERTEX
5
F6
8
EBENE_1
6
BYLAYER
62
7
10
-258.672527872
20
500.970117802
30
0
0
VERTEX
5
F7
8
EBENE_1
6
BYLAYER
62
7
10
-258.15800433
20
499.652788679
30
0
0
VERTEX
5
F8
8
EBENE_1
6
BYLAYER
62
7
10
-257.442438056
20
498.373180758
30
0
0
VERTEX
5
F9
8
EBENE_1
6
BYLAYER
62
7
10
-256.506366866
20
497.133156219
30
0
0
VERTEX
5
FA
8
EBENE_1
6
BYLAYER
62
7
10
-255.330328576
20
495.93457724
30
0
0
VERTEX
5
FB
8
EBENE_1
6
BYLAYER
62
7
10
-253.894861
20
494.779306
30
0
0
SEQEND
5
FC
8
EBENE_1
6
BYLAYER
62
7
0
POLYLINE
5
FD
8
EBENE_1
6
BYLAYER
62
7
66
1
10
0
20
0
30
0
70
0
0
VERTEX
5
FE
8
EBENE_1
6
BYLAYER
62
7
10
-253.894861
20
494.779306
30
0
0
VERTEX
5
FF
8
EBENE_1
6
BYLAYER
62
7
10
-252.203858708
20
493.640502195
30
0
0
VERTEX
5
100
8
EBENE_1
6
BYLAYER
62
7
10
-250.580493405
20
492.704887466
30
0
0
VERTEX
5
101
8
EBENE_1
6
BYLAYER
62
7
10
-249.022304355
20
491.96348345
30
0
0
VERTEX
5
102
8
EBENE_1
6
BYLAYER
62
7
10
-247.526830823
20
491.407311787
30
0
0
VERTEX
5
103
8
EBENE_1
6
BYLAYER
62
7
10
-246.091612073
20
491.027394116
30
0
0
VERTEX
5
104
8
EBENE_1
6
BYLAYER
62
7
10
-244.714187368
20
490.814752076
30
0
0
VERTEX
5
105
8
EBENE_1
6
BYLAYER
62
7
10
-243.392095973
20
490.760407306
30
0
0
VERTEX
5
106
8
EBENE_1
6
BYLAYER
62
7
10
-242.122877152
20
490.855381444
30
0
0
VERTEX
5
107
8
EBENE_1
6
BYLAYER
62
7
10
-240.904070169
20
491.090696129
30
0
0
VERTEX
5
108
8
EBENE_1
6
BYLAYER
62
7
10
-239.733214287
20
491.457373002
30
0
0
VERTEX
5
109
8
EBENE_1
6
BYLAYER
62
7
10
-238.607848772
20
491.9464337
30
0
0
VERTEX
5
10A
8
EBENE_1
6
BYLAYER
62
7
10
-237.525512887
20
492.548899862
30
0
0
VERTEX
5
10B
8
EBENE_1
6
BYLAYER
62
7
10
-236.483745895
20
493.255793128
30
0
0
VERTEX
5
10C
8
EBENE_1
6
BYLAYER
62
7
10
-235.480087063
20
494.058135136
30
0
0
VERTEX
5
10D
8
EBENE_1
6
BYLAYER
62
7
10
-234.512075652
20
494.946947525
30
0
0
VERTEX
5
10E
8
EBENE_1
6
BYLAYER
62
7
10
-233.577250928
20
495.913251935
30
0
0
VERTEX
5
10F
8
EBENE_1
6
BYLAYER
62
7
10
-232.673152154
20
496.948070004
30
0
0
VERTEX
5
110
8
EBENE_1
6
BYLAYER
62
7
10
-231.797318595
20
498.042423371
30
0
0
VERTEX
5
111
8
EBENE_1
6
BYLAYER
62
7
10
-230.947289514
20
499.187333675
30
0
0
VERTEX
5
112
8
EBENE_1
6
BYLAYER
62
7
10
-230.120604176
20
500.373822555
30
0
0
VERTEX
5
113
8
EBENE_1
6
BYLAYER
62
7
10
-229.314801845
20
501.592911651
30
0
0
VERTEX
5
114
8
EBENE_1
6
BYLAYER
62
7
10
-228.527421785
20
502.8356226
30
0
0
VERTEX
5
115
8
EBENE_1
6
BYLAYER
62
7
10
-227.756003259
20
504.092977042
30
0
0
VERTEX
5
116
8
EBENE_1
6
BYLAYER
62
7
10
-226.998085533
20
505.355996616
30
0
0
VERTEX
5
117
8
EBENE_1
6
BYLAYER
62
7
10
-226.251207869
20
506.615702961
30
0
0
VERTEX
5
118
8
EBENE_1
6
BYLAYER
62
7
10
-225.512909533
20
507.863117716
30
0
0
VERTEX
5
119
8
EBENE_1
6
BYLAYER
62
7
10
-224.780729787
20
509.08926252
30
0
0
VERTEX
5
11A
8
EBENE_1
6
BYLAYER
62
7
10
-224.052207898
20
510.285159011
30
0
0
VERTEX
5
11B
8
EBENE_1
6
BYLAYER
62
7
10
-223.324883127
20
511.441828829
30
0
0
VERTEX
5
11C
8
EBENE_1
6
BYLAYER
62
7
10
-222.59629474
20
512.550293612
30
0
0
VERTEX
5
11D
8
EBENE_1
6
BYLAYER
62
7
10
-221.863982
20
513.601575
30
0
0
SEQEND
5
11E
8
EBENE_1
6
BYLAYER
62
7
0
POLYLINE
5
11F
8
EBENE_1
6
BYLAYER
62
7
66
1
10
0
20
0
30
0
70
0
0
VERTEX
5
120
8
EBENE_1
6
BYLAYER
62
7
10
-221.863982
20
513.601575
30
0
0
VERTEX
5
121
8
EBENE_1
6
BYLAYER
62
7
10
-221.56613219
20
513.992482335
30
0
0
VERTEX
5
122
8
EBENE_1
6
BYLAYER
62
7
10
-221.237187625
20
514.374749892
30
0
0
VERTEX
5
123
8
EBENE_1
6
BYLAYER
62
7
10
-220.878665858
20
514.74798468
30
0
0
VERTEX
5
124
8
EBENE_1
6
BYLAYER
62
7
10
-220.492084445
20
515.111793705
30
0
0
VERTEX
5
125
8
EBENE_1
6
BYLAYER
62
7
10
-220.078960939
20
515.465783975
30
0
0
VERTEX
5
126
8
EBENE_1
6
BYLAYER
62
7
10
-219.640812896
20
515.809562497
30
0
0
VERTEX
5
127
8
EBENE_1
6
BYLAYER
62
7
10
-219.17915787
20
516.142736278
30
0
0
VERTEX
5
128
8
EBENE_1
6
BYLAYER
62
7
10
-218.695513416
20
516.464912327
30
0
0
VERTEX
5
129
8
EBENE_1
6
BYLAYER
62
7
10
-218.191397087
20
516.775697649
30
0
0
VERTEX
5
12A
8
EBENE_1
6
BYLAYER
62
7
10
-217.668326438
20
517.074699253
30
0
0
VERTEX
5
12B
8
EBENE_1
6
BYLAYER
62
7
10
-217.127819025
20
517.361524146
30
0
0
VERTEX
5
12C
8
EBENE_1
6
BYLAYER
62
7
10
-216.5713924
20
517.635779336
30
0
0
VERTEX
5
12D
8
EBENE_1
6
BYLAYER
62
7
10
-216.00056412
20
517.897071829
30
0
0
VERTEX
5
12E
8
EBENE_1
6
BYLAYER
62
7
10
-215.416851738
20
518.145008633
30
0
0
VERTEX
5
12F
8
EBENE_1
6
BYLAYER
62
7
10
-214.821772809
20
518.379196755
30
0
0
VERTEX
5
130
8
EBENE_1
6
BYLAYER
62
7
10
-214.216844887
20
518.599243203
30
0
0
VERTEX
5
131
8
EBENE_1
6
BYLAYER
62
7
10
-213.603585527
20
518.804754984
30
0
0
VERTEX
5
132
8
EBENE_1
6
BYLAYER
62
7
10
-212.983512284
20
518.995339105
30
0
0
VERTEX
5
133
8
EBENE_1
6
BYLAYER
62
7
10
-212.358142711
20
519.170602574
30
0
0
VERTEX
5
134
8
EBENE_1
6
BYLAYER
62
7
10
-211.728994363
20
519.330152398
30
0
0
VERTEX
5
135
8
EBENE_1
6
BYLAYER
62
7
10
-211.097584796
20
519.473595584
30
0
0
VERTEX
5
136
8
EBENE_1
6
BYLAYER
62
7
10
-210.465431563
20
519.600539141
30
0
0
VERTEX
5
137
8
EBENE_1
6
BYLAYER
62
7
10
-209.834052218
20
519.710590074
30
0
0
VERTEX
5
138
8
EBENE_1
6
BYLAYER
62
7
10
-209.204964317
20
519.803355392
30
0
0
VERTEX
5
139
8
EBENE_1
6
BYLAYER
62
7
10
-208.579685414
20
519.878442102
30
0
0
VERTEX
5
13A
8
EBENE_1
6
BYLAYER
62
7
10
-207.959733063
20
519.935457211
30
0
0
VERTEX
5
13B
8
EBENE_1
6
BYLAYER
62
7
10
-207.346624819
20
519.974007726
30
0
0
VERTEX
5
13C
8
EBENE_1
6
BYLAYER
62
7
10
-206.741878236
20
519.993700655
30
0
0
VERTEX
5
13D
8
EBENE_1
6
BYLAYER
62
7
10
-206.147010869
20
519.994143006
30
0
0
VERTEX
5
13E
8
EBENE_1
6
BYLAYER
62
7
10
-205.563540272
20
519.974941785
30
0
0
VERTEX
5
13F
8
EBENE_1
6
BYLAYER
62
7
10
-204.992984
20
519.935704
30
0
0
SEQEND
5
140
8
EBENE_1
6
BYLAYER
62
7
0
POLYLINE
5
141
8
EBENE_1
6
BYLAYER
62
7
66
1
10
0
20
0
30
0
70
0
0
VERTEX
5
142
8
EBENE_1
6
BYLAYER
62
7
10
-204.992984
20
519.935704
30
0
0
VERTEX
5
143
8
EBENE_1
6
BYLAYER
62
7
10
-202.95859834
20
519.613768786
30
0
0
VERTEX
5
144
8
EBENE_1
6
BYLAYER
62
7
10
-201.072153083
20
519.078553666
30
0
0
VERTEX
5
145
8
EBENE_1
6
BYLAYER
62
7
10
-199.322650493
20
518.348438585
30
0
0
VERTEX
5
146
8
EBENE_1
6
BYLAYER
62
7
10
-197.699092835
20
517.441803487
30
0
0
VERTEX
5
147
8
EBENE_1
6
BYLAYER
62
7
10
-196.190482373
20
516.377028316
30
0
0
VERTEX
5
148
8
EBENE_1
6
BYLAYER
62
7
10
-194.78582137
20
515.172493016
30
0
0
VERTEX
5
149
8
EBENE_1
6
BYLAYER
62
7
10
-193.474112091
20
513.846577533
30
0
0
VERTEX
5
14A
8
EBENE_1
6
BYLAYER
62
7
10
-192.2443568
20
512.417661809
30
0
0
VERTEX
5
14B
8
EBENE_1
6
BYLAYER
62
7
10
-191.08555776
20
510.904125791
30
0
0
VERTEX
5
14C
8
EBENE_1
6
BYLAYER
62
7
10
-189.986717237
20
509.324349421
30
0
0
VERTEX
5
14D
8
EBENE_1
6
BYLAYER
62
7
10
-188.936837493
20
507.696712644
30
0
0
VERTEX
5
14E
8
EBENE_1
6
BYLAYER
62
7
10
-187.924920793
20
506.039595405
30
0
0
VERTEX
5
14F
8
EBENE_1
6
BYLAYER
62
7
10
-186.9399694
20
504.371377649
30
0
0
VERTEX
5
150
8
EBENE_1
6
BYLAYER
62
7
10
-185.97098558
20
502.710439318
30
0
0
VERTEX
5
151
8
EBENE_1
6
BYLAYER
62
7
10
-185.006971596
20
501.075160358
30
0
0
VERTEX
5
152
8
EBENE_1
6
BYLAYER
62
7
10
-184.036929712
20
499.483920714
30
0
0
VERTEX
5
153
8
EBENE_1
6
BYLAYER
62
7
10
-183.049862192
20
497.955100328
30
0
0
VERTEX
5
154
8
EBENE_1
6
BYLAYER
62
7
10
-182.0347713
20
496.507079146
30
0
0
VERTEX
5
155
8
EBENE_1
6
BYLAYER
62
7
10
-180.9806593
20
495.158237113
30
0
0
VERTEX
5
156
8
EBENE_1
6
BYLAYER
62
7
10
-179.876528456
20
493.926954172
30
0
0
VERTEX
5
157
8
EBENE_1
6
BYLAYER
62
7
10
-178.711381033
20
492.831610267
30
0
0
VERTEX
5
158
8
EBENE_1
6
BYLAYER
62
7
10
-177.474219294
20
491.890585344
30
0
0
VERTEX
5
159
8
EBENE_1
6
BYLAYER
62
7
10
-176.154045503
20
491.122259346
30
0
0
VERTEX
5
15A
8
EBENE_1
6
BYLAYER
62
7
10
-174.739861924
20
490.545012218
30
0
0
VERTEX
5
15B
8
EBENE_1
6
BYLAYER
62
7
10
-173.220670822
20
490.177223904
30
0
0
VERTEX
5
15C
8
EBENE_1
6
BYLAYER
62
7
10
-171.585474461
20
490.037274348
30
0
0
VERTEX
5
15D
8
EBENE_1
6
BYLAYER
62
7
10
-169.823275103
20
490.143543495
30
0
0
VERTEX
5
15E
8
EBENE_1
6
BYLAYER
62
7
10
-167.923075015
20
490.51441129
30
0
0
VERTEX
5
15F
8
EBENE_1
6
BYLAYER
62
7
10
-165.873876459
20
491.168257676
30
0
0
VERTEX
5
160
8
EBENE_1
6
BYLAYER
62
7
10
-163.664681699
20
492.123462598
30
0
0
VERTEX
5
161
8
EBENE_1
6
BYLAYER
62
7
10
-161.284493
20
493.398406
30
0
0
SEQEND
5
162
8
EBENE_1
6
BYLAYER
62
7
0
POLYLINE
5
163
8
EBENE_1
6
BYLAYER
62
7
66
1
10
0
20
0
30
0
70
0
0
VERTEX
5
164
8
EBENE_1
6
BYLAYER
62
7
10
-161.284493
20
493.398406
30
0
0
VERTEX
5
165
8
EBENE_1
6
BYLAYER
62
7
10
-159.828157576
20
494.432116655
30
0
0
VERTEX
5
166
8
EBENE_1
6
BYLAYER
62
7
10
-158.587574878
20
495.498741916
30
0
0
VERTEX
5
167
8
EBENE_1
6
BYLAYER
62
7
10
-157.549086916
20
496.59689724
30
0
0
VERTEX
5
168
8
EBENE_1
6
BYLAYER
62
7
10
-156.699035699
20
497.725198087
30
0
0
VERTEX
5
169
8
EBENE_1
6
BYLAYER
62
7
10
-156.023763236
20
498.882259914
30
0
0
VERTEX
5
16A
8
EBENE_1
6
BYLAYER
62
7
10
-155.509611536
20
500.066698181
30
0
0
VERTEX
5
16B
8
EBENE_1
6
BYLAYER
62
7
10
-155.142922607
20
501.277128347
30
0
0
VERTEX
5
16C
8
EBENE_1
6
BYLAYER
62
7
10
-154.910038458
20
502.512165869
30
0
0
VERTEX
5
16D
8
EBENE_1
6
BYLAYER
62
7
10
-154.797301099
20
503.770426206
30
0
0
VERTEX
5
16E
8
EBENE_1
6
BYLAYER
62
7
10
-154.791052539
20
505.050524817
30
0
0
VERTEX
5
16F
8
EBENE_1
6
BYLAYER
62
7
10
-154.877634785
20
506.35107716
30
0
0
VERTEX
5
170
8
EBENE_1
6
BYLAYER
62
7
10
-155.043389848
20
507.670698694
30
0
0
VERTEX
5
171
8
EBENE_1
6
BYLAYER
62
7
10
-155.274659736
20
509.008004878
30
0
0
VERTEX
5
172
8
EBENE_1
6
BYLAYER
62
7
10
-155.557786458
20
510.361611169
30
0
0
VERTEX
5
173
8
EBENE_1
6
BYLAYER
62
7
10
-155.879112024
20
511.730133028
30
0
0
VERTEX
5
174
8
EBENE_1
6
BYLAYER
62
7
10
-156.224978441
20
513.112185911
30
0
0
VERTEX
5
175
8
EBENE_1
6
BYLAYER
62
7
10
-156.581727718
20
514.506385278
30
0
0
VERTEX
5
176
8
EBENE_1
6
BYLAYER
62
7
10
-156.935701866
20
515.911346587
30
0
0
VERTEX
5
177
8
EBENE_1
6
BYLAYER
62
7
10
-157.273242893
20
517.325685298
30
0
0
VERTEX
5
178
8
EBENE_1
6
BYLAYER
62
7
10
-157.580692807
20
518.748016867
30
0
0
VERTEX
5
179
8
EBENE_1
6
BYLAYER
62
7
10
-157.844393617
20
520.176956755
30
0
0
VERTEX
5
17A
8
EBENE_1
6
BYLAYER
62
7
10
-158.050687333
20
521.611120419
30
0
0
VERTEX
5
17B
8
EBENE_1
6
BYLAYER
62
7
10
-158.185915964
20
523.049123318
30
0
0
VERTEX
5
17C
8
EBENE_1
6
BYLAYER
62
7
10
-158.236421518
20
524.48958091
30
0
0
VERTEX
5
17D
8
EBENE_1
6
BYLAYER
62
7
10
-158.188546004
20
525.931108655
30
0
0
VERTEX
5
17E
8
EBENE_1
6
BYLAYER
62
7
10
-158.028631432
20
527.372322011
30
0
0
VERTEX
5
17F
8
EBENE_1
6
BYLAYER
62
7
10
-157.743019809
20
528.811836436
30
0
0
VERTEX
5
180
8
EBENE_1
6
BYLAYER
62
7
10
-157.318053146
20
530.248267389
30
0
0
VERTEX
5
181
8
EBENE_1
6
BYLAYER
62
7
10
-156.740073451
20
531.680230328
30
0
0
VERTEX
5
182
8
EBENE_1
6
BYLAYER
62
7
10
-155.995422732
20
533.106340712
30
0
0
VERTEX
5
183
8
EBENE_1
6
BYLAYER
62
7
10
-155.070443
20
534.525214
30
0
0
SEQEND
5
184
8
EBENE_1
6
BYLAYER
62
7
0
POLYLINE
5
185
8
EBENE_1
6
BYLAYER
62
7
66
1
10
0
20
0
30
0
70
0
0
VERTEX
5
186
8
EBENE_1
6
BYLAYER
62
7
10
-155.070443
20
534.525214
30
0
0
VERTEX
5
187
8
EBENE_1
6
BYLAYER
62
7
10
-154.390501983
20
535.448988586
30
0
0
VERTEX
5
188
8
EBENE_1
6
BYLAYER
62
7
10
-153.703892188
20
536.337206446
30
0
0
VERTEX
5
189
8
EBENE_1
6
BYLAYER
62
7
10
-153.009755078
20
537.188984856
30
0
0
VERTEX
5
18A
8
EBENE_1
6
BYLAYER
62
7
10
-152.307232116
20
538.003441098
30
0
0
VERTEX
5
18B
8
EBENE_1
6
BYLAYER
62
7
10
-151.595464764
20
538.779692449
30
0
0
VERTEX
5
18C
8
EBENE_1
6
BYLAYER
62
7
10
-150.873594486
20
539.516856189
30
0
0
VERTEX
5
18D
8
EBENE_1
6
BYLAYER
62
7
10
-150.140762745
20
540.214049596
30
0
0
VERTEX
5
18E
8
EBENE_1
6
BYLAYER
62
7
10
-149.396111004
20
540.87038995
30
0
0
VERTEX
5
18F
8
EBENE_1
6
BYLAYER
62
7
10
-148.638780726
20
541.48499453
30
0
0
VERTEX
5
190
8
EBENE_1
6
BYLAYER
62
7
10
-147.867913375
20
542.056980614
30
0
0
VERTEX
5
191
8
EBENE_1
6
BYLAYER
62
7
10
-147.082650412
20
542.585465482
30
0
0
VERTEX
5
192
8
EBENE_1
6
BYLAYER
62
7
10
-146.282133302
20
543.069566412
30
0
0
VERTEX
5
193
8
EBENE_1
6
BYLAYER
62
7
10
-145.465503507
20
543.508400684
30
0
0
VERTEX
5
194
8
EBENE_1
6
BYLAYER
62
7
10
-144.63190249
20
543.901085576
30
0
0
VERTEX
5
195
8
EBENE_1
6
BYLAYER
62
7
10
-143.780471715
20
544.246738367
30
0
0
VERTEX
5
196
8
EBENE_1
6
BYLAYER
62
7
10
-142.910352644
20
544.544476337
30
0
0
VERTEX
5
197
8
EBENE_1
6
BYLAYER
62
7
10
-142.020686741
20
544.793416765
30
0
0
VERTEX
5
198
8
EBENE_1
6
BYLAYER
62
7
10
-141.110615468
20
544.992676928
30
0
0
VERTEX
5
199
8
EBENE_1
6
BYLAYER
62
7
10
-140.179280289
20
545.141374107
30
0
0
VERTEX
5
19A
8
EBENE_1
6
BYLAYER
62
7
10
-139.225822667
20
545.238625581
30
0
0
VERTEX
5
19B
8
EBENE_1
6
BYLAYER
62
7
10
-138.249384065
20
545.283548627
30
0
0
VERTEX
5
19C
8
EBENE_1
6
BYLAYER
62
7
10
-137.249105945
20
545.275260526
30
0
0
VERTEX
5
19D
8
EBENE_1
6
BYLAYER
62
7
10
-136.224129771
20
545.212878556
30
0
0
VERTEX
5
19E
8
EBENE_1
6
BYLAYER
62
7
10
-135.173597006
20
545.095519997
30
0
0
VERTEX
5
19F
8
EBENE_1
6
BYLAYER
62
7
10
-134.096649113
20
544.922302126
30
0
0
VERTEX
5
1A0
8
EBENE_1
6
BYLAYER
62
7
10
-132.992427556
20
544.692342224
30
0
0
VERTEX
5
1A1
8
EBENE_1
6
BYLAYER
62
7
10
-131.860073796
20
544.404757569
30
0
0
VERTEX
5
1A2
8
EBENE_1
6
BYLAYER
62
7
10
-130.698729298
20
544.05866544
30
0
0
VERTEX
5
1A3
8
EBENE_1
6
BYLAYER
62
7
10
-129.507535523
20
543.653183116
30
0
0
VERTEX
5
1A4
8
EBENE_1
6
BYLAYER
62
7
10
-128.285633937
20
543.187427877
30
0
0
VERTEX
5
1A5
8
EBENE_1
6
BYLAYER
62
7
10
-127.032166
20
542.660517
30
0
0
SEQEND
5
1A6
8
EBENE_1
6
BYLAYER
62
7
0
POLYLINE
5
1A7
8
EBENE_1
6
BYLAYER
62
7
66
1
10
0
20
0
30
0
70
0
0
VERTEX
5
1A8
8
EBENE_1
6
BYLAYER
62
7
10
-127.032166
20
542.660517
30
0
0
VERTEX
5
1A9
8
EBENE_1
6
BYLAYER
62
7
10
-125.991793659
20
542.147460575
30
0
0
VERTEX
5
1AA
8
EBENE_1
6
BYLAYER
62
7
10
-124.978809856
20
541.649924321
30
0
0
VERTEX
5
1AB
8
EBENE_1
6
BYLAYER
62
7
10
-123.991739358
20
541.170308514
30
0
0
VERTEX
5
1AC
8
EBENE_1
6
BYLAYER
62
7
10
-123.029106934
20
540.711013431
30
0
0
VERTEX
5
1AD
8
EBENE_1
6
BYLAYER
62
7
10
-122.089437351
20
540.274439347
30
0
0
VERTEX
5
1AE
8
EBENE_1
6
BYLAYER
62
7
10
-121.171255375
20
539.862986537
30
0
0
VERTEX
5
1AF
8
EBENE_1
6
BYLAYER
62
7
10
-120.273085774
20
539.479055277
30
0
0
VERTEX
5
1B0
8
EBENE_1
6
BYLAYER
62
7
10
-119.393453316
20
539.125045843
30
0
0
VERTEX
5
1B1
8
EBENE_1
6
BYLAYER
62
7
10
-118.530882767
20
538.803358512
30
0
0
VERTEX
5
1B2
8
EBENE_1
6
BYLAYER
62
7
10
-117.683898896
20
538.516393557
30
0
0
VERTEX
5
1B3
8
EBENE_1
6
BYLAYER
62
7
10
-116.85102647
20
538.266551256
30
0
0
VERTEX
5
1B4
8
EBENE_1
6
BYLAYER
62
7
10
-116.030790255
20
538.056231883
30
0
0
VERTEX
5
1B5
8
EBENE_1
6
BYLAYER
62
7
10
-115.221715019
20
537.887835715
30
0
0
VERTEX
5
1B6
8
EBENE_1
6
BYLAYER
62
7
10
-114.42232553
20
537.763763028
30
0
0
VERTEX
5
1B7
8
EBENE_1
6
BYLAYER
62
7
10
-113.631146555
20
537.686414096
30
0
0
VERTEX
5
1B8
8
EBENE_1
6
BYLAYER
62
7
10
-112.846702861
20
537.658189196
30
0
0
VERTEX
5
1B9
8
EBENE_1
6
BYLAYER
62
7
10
-112.067519216
20
537.681488604
30
0
0
VERTEX
5
1BA
8
EBENE_1
6
BYLAYER
62
7
10
-111.292120387
20
537.758712595
30
0
0
VERTEX
5
1BB
8
EBENE_1
6
BYLAYER
62
7
10
-110.519031141
20
537.892261445
30
0
0
VERTEX
5
1BC
8
EBENE_1
6
BYLAYER
62
7
10
-109.746776245
20
538.084535429
30
0
0
VERTEX
5
1BD
8
EBENE_1
6
BYLAYER
62
7
10
-108.973880468
20
538.337934824
30
0
0
VERTEX
5
1BE
8
EBENE_1
6
BYLAYER
62
7
10
-108.198868576
20
538.654859905
30
0
0
VERTEX
5
1BF
8
EBENE_1
6
BYLAYER
62
7
10
-107.420265337
20
539.037710947
30
0
0
VERTEX
5
1C0
8
EBENE_1
6
BYLAYER
62
7
10
-106.636595517
20
539.488888228
30
0
0
VERTEX
5
1C1
8
EBENE_1
6
BYLAYER
62
7
10
-105.846383885
20
540.010792021
30
0
0
VERTEX
5
1C2
8
EBENE_1
6
BYLAYER
62
7
10
-105.048155208
20
540.605822603
30
0
0
VERTEX
5
1C3
8
EBENE_1
6
BYLAYER
62
7
10
-104.240434253
20
541.27638025
30
0
0
VERTEX
5
1C4
8
EBENE_1
6
BYLAYER
62
7
10
-103.421745787
20
542.024865238
30
0
0
VERTEX
5
1C5
8
EBENE_1
6
BYLAYER
62
7
10
-102.590614578
20
542.853677842
30
0
0
VERTEX
5
1C6
8
EBENE_1
6
BYLAYER
62
7
10
-101.745565393
20
543.765218337
30
0
0
VERTEX
5
1C7
8
EBENE_1
6
BYLAYER
62
7
10
-100.885123
20
544.761887
30
0
0
SEQEND
5
1C8
8
EBENE_1
6
BYLAYER
62
7
0
POLYLINE
5
1C9
8
EBENE_1
6
BYLAYER
62
7
66
1
10
0
20
0
30
0
70
0
0
VERTEX
5
1CA
8
EBENE_1
6
BYLAYER
62
7
10
-100.885123
20
544.761887
30
0
0
VERTEX
5
1CB
8
EBENE_1
6
BYLAYER
62
7
10
-100.754645497
20
545.262355514
30
0
0
VERTEX
5
1CC
8
EBENE_1
6
BYLAYER
62
7
10
-100.614065078
20
545.747872187
30
0
0
VERTEX
5
1CD
8
EBENE_1
6
BYLAYER
62
7
10
-100.464899296
20
546.219791332
30
0
0
VERTEX
5
1CE
8
EBENE_1
6
BYLAYER
62
7
10
-100.308665707
20
546.679467259
30
0
0
VERTEX
5
1CF
8
EBENE_1
6
BYLAYER
62
7
10
-100.146881863
20
547.128254282
30
0
0
VERTEX
5
1D0
8
EBENE_1
6
BYLAYER
62
7
10
-99.9810653199
20
547.56750671
30
0
0
VERTEX
5
1D1
8
EBENE_1
6
BYLAYER
62
7
10
-99.8127336308
20
547.998578857
30
0
0
VERTEX
5
1D2
8
EBENE_1
6
BYLAYER
62
7
10
-99.6434043499
20
548.422825033
30
0
0
VERTEX
5
1D3
8
EBENE_1
6
BYLAYER
62
7
10
-99.4745950315
20
548.84159955
30
0
0
VERTEX
5
1D4
8
EBENE_1
6
BYLAYER
62
7
10
-99.3078232296
20
549.25625672
30
0
0
VERTEX
5
1D5
8
EBENE_1
6
BYLAYER
62
7
10
-99.1446064983
20
549.668150854
30
0
0
VERTEX
5
1D6
8
EBENE_1
6
BYLAYER
62
7
10
-98.9864623916
20
550.078636265
30
0
0
VERTEX
5
1D7
8
EBENE_1
6
BYLAYER
62
7
10
-98.8349084638
20
550.489067263
30
0
0
VERTEX
5
1D8
8
EBENE_1
6
BYLAYER
62
7
10
-98.6914622688
20
550.900798161
30
0
0
VERTEX
5
1D9
8
EBENE_1
6
BYLAYER
62
7
10
-98.5576413607
20
551.315183269
30
0
0
VERTEX
5
1DA
8
EBENE_1
6
BYLAYER
62
7
10
-98.4349632938
20
551.7335769
30
0
0
VERTEX
5
1DB
8
EBENE_1
6
BYLAYER
62
7
10
-98.324945622
20
552.157333366
30
0
0
VERTEX
5
1DC
8
EBENE_1
6
BYLAYER
62
7
10
-98.2291058994
20
552.587806977
30
0
0
VERTEX
5
1DD
8
EBENE_1
6
BYLAYER
62
7
10
-98.1489616802
20
553.026352046
30
0
0
VERTEX
5
1DE
8
EBENE_1
6
BYLAYER
62
7
10
-98.0860305184
20
553.474322885
30
0
0
VERTEX
5
1DF
8
EBENE_1
6
BYLAYER
62
7
10
-98.0418299681
20
553.933073804
30
0
0
VERTEX
5
1E0
8
EBENE_1
6
BYLAYER
62
7
10
-98.0178775835
20
554.403959115
30
0
0
VERTEX
5
1E1
8
EBENE_1
6
BYLAYER
62
7
10
-98.0156909185
20
554.888333131
30
0
0
VERTEX
5
1E2
8
EBENE_1
6
BYLAYER
62
7
10
-98.0367875274
20
555.387550162
30
0
0
VERTEX
5
1E3
8
EBENE_1
6
BYLAYER
62
7
10
-98.0826849642
20
555.902964521
30
0
0
VERTEX
5
1E4
8
EBENE_1
6
BYLAYER
62
7
10
-98.154900783
20
556.435930519
30
0
0
VERTEX
5
1E5
8
EBENE_1
6
BYLAYER
62
7
10
-98.2549525378
20
556.987802467
30
0
0
VERTEX
5
1E6
8
EBENE_1
6
BYLAYER
62
7
10
-98.3843577829
20
557.559934678
30
0
0
VERTEX
5
1E7
8
EBENE_1
6
BYLAYER
62
7
10
-98.5446340722
20
558.153681462
30
0
0
VERTEX
5
1E8
8
EBENE_1
6
BYLAYER
62
7
10
-98.7372989599
20
558.770397133
30
0
0
VERTEX
5
1E9
8
EBENE_1
6
BYLAYER
62
7
10
-98.96387
20
559.411436
30
0
0
SEQEND
5
1EA
8
EBENE_1
6
BYLAYER
62
7
0
POLYLINE
5
1EB
8
EBENE_1
6
BYLAYER
62
7
66
1
10
0
20
0
30
0
70
0
0
VERTEX
5
1EC
8
EBENE_1
6
BYLAYER
62
7
10
-98.96387
20
559.411436
30
0
0
VERTEX
5
1ED
8
EBENE_1
6
BYLAYER
62
7
10
-99.7110702047
20
560.589389927
30
0
0
VERTEX
5
1EE
8
EBENE_1
6
BYLAYER
62
7
10
-100.577981883
20
561.716399966
30
0
0
VERTEX
5
1EF
8
EBENE_1
6
BYLAYER
62
7
10
-101.550681018
20
562.79906234
30
0
0
VERTEX
5
1F0
8
EBENE_1
6
BYLAYER
62
7
10
-102.615243594
20
563.843973272
30
0
0
VERTEX
5
1F1
8
EBENE_1
6
BYLAYER
62
7
10
-103.757745593
20
564.857728987
30
0
0
VERTEX
5
1F2
8
EBENE_1
6
BYLAYER
62
7
10
-104.964262999
20
565.846925707
30
0
0
VERTEX
5
1F3
8
EBENE_1
6
BYLAYER
62
7
10
-106.220871796
20
566.818159658
30
0
0
VERTEX
5
1F4
8
EBENE_1
6
BYLAYER
62
7
10
-107.513647968
20
567.778027062
30
0
0
VERTEX
5
1F5
8
EBENE_1
6
BYLAYER
62
7
10
-108.828667496
20
568.733124143
30
0
0
VERTEX
5
1F6
8
EBENE_1
6
BYLAYER
62
7
10
-110.152006366
20
569.690047125
30
0
0
VERTEX
5
1F7
8
EBENE_1
6
BYLAYER
62
7
10
-111.469740559
20
570.655392232
30
0
0
VERTEX
5
1F8
8
EBENE_1
6
BYLAYER
62
7
10
-112.767946061
20
571.635755686
30
0
0
VERTEX
5
1F9
8
EBENE_1
6
BYLAYER
62
7
10
-114.032698854
20
572.637733713
30
0
0
VERTEX
5
1FA
8
EBENE_1
6
BYLAYER
62
7
10
-115.250074921
20
573.667922535
30
0
0
VERTEX
5
1FB
8
EBENE_1
6
BYLAYER
62
7
10
-116.406150246
20
574.732918377
30
0
0
VERTEX
5
1FC
8
EBENE_1
6
BYLAYER
62
7
10
-117.487000812
20
575.839317462
30
0
0
VERTEX
5
1FD
8
EBENE_1
6
BYLAYER
62
7
10
-118.478702604
20
576.993716013
30
0
0
VERTEX
5
1FE
8
EBENE_1
6
BYLAYER
62
7
10
-119.367331603
20
578.202710255
30
0
0
VERTEX
5
1FF
8
EBENE_1
6
BYLAYER
62
7
10
-120.138963794
20
579.47289641
30
0
0
VERTEX
5
200
8
EBENE_1
6
BYLAYER
62
7
10
-120.779675161
20
580.810870704
30
0
0
VERTEX
5
201
8
EBENE_1
6
BYLAYER
62
7
10
-121.275541685
20
582.223229359
30
0
0
VERTEX
5
202
8
EBENE_1
6
BYLAYER
62
7
10
-121.612639352
20
583.716568599
30
0
0
VERTEX
5
203
8
EBENE_1
6
BYLAYER
62
7
10
-121.777044144
20
585.297484648
30
0
0
VERTEX
5
204
8
EBENE_1
6
BYLAYER
62
7
10
-121.754832044
20
586.972573729
30
0
0
VERTEX
5
205
8
EBENE_1
6
BYLAYER
62
7
10
-121.532079037
20
588.748432067
30
0
0
VERTEX
5
206
8
EBENE_1
6
BYLAYER
62
7
10
-121.094861105
20
590.631655884
30
0
0
VERTEX
5
207
8
EBENE_1
6
BYLAYER
62
7
10
-120.429254233
20
592.628841405
30
0
0
VERTEX
5
208
8
EBENE_1
6
BYLAYER
62
7
10
-119.521334402
20
594.746584854
30
0
0
VERTEX
5
209
8
EBENE_1
6
BYLAYER
62
7
10
-118.357177598
20
596.991482453
30
0
0
VERTEX
5
20A
8
EBENE_1
6
BYLAYER
62
7
10
-116.922859803
20
599.370130428
30
0
0
VERTEX
5
20B
8
EBENE_1
6
BYLAYER
62
7
10
-115.204457
20
601.889125
30
0
0
SEQEND
5
20C
8
EBENE_1
6
BYLAYER
62
7
0
POLYLINE
5
20D
8
EBENE_1
6
BYLAYER
62
7
66
1
10
0
20
0
30
0
70
0
0
VERTEX
5
20E
8
EBENE_1
6
BYLAYER
62
7
10
-115.204457
20
601.889125
30
0
0
VERTEX
5
20F
8
EBENE_1
6
BYLAYER
62
7
10
-114.311351914
20
603.006249694
30
0
0
VERTEX
5
210
8
EBENE_1
6
BYLAYER
62
7
10
-113.334188812
20
604.005652057
30
0
0
VERTEX
5
211
8
EBENE_1
6
BYLAYER
62
7
10
-112.281311224
20
604.897809866
30
0
0
VERTEX
5
212
8
EBENE_1
6
BYLAYER
62
7
10
-111.161062675
20
605.693200899
30
0
0
VERTEX
5
213
8
EBENE_1
6
BYLAYER
62
7
10
-109.981786694
20
606.402302934
30
0
0
VERTEX
5
214
8
EBENE_1
6
BYLAYER
62
7
10
-108.751826808
20
607.035593747
30
0
0
VERTEX
5
215
8
EBENE_1
6
BYLAYER
62
7
10
-107.479526543
20
607.603551117
30
0
0
VERTEX
5
216
8
EBENE_1
6
BYLAYER
62
7
10
-106.173229428
20
608.11665282
30
0
0
VERTEX
5
217
8
EBENE_1
6
BYLAYER
62
7
10
-104.84127899
20
608.585376634
30
0
0
VERTEX
5
218
8
EBENE_1
6
BYLAYER
62
7
10
-103.492018756
20
609.020200336
30
0
0
VERTEX
5
219
8
EBENE_1
6
BYLAYER
62
7
10
-102.133792254
20
609.431601703
30
0
0
VERTEX
5
21A
8
EBENE_1
6
BYLAYER
62
7
10
-100.774943011
20
609.830058514
30
0
0
VERTEX
5
21B
8
EBENE_1
6
BYLAYER
62
7
10
-99.4238145537
20
610.226048545
30
0
0
VERTEX
5
21C
8
EBENE_1
6
BYLAYER
62
7
10
-98.0887504105
20
610.630049573
30
0
0
VERTEX
5
21D
8
EBENE_1
6
BYLAYER
62
7
10
-96.7780941084
20
611.052539377
30
0
0
VERTEX
5
21E
8
EBENE_1
6
BYLAYER
62
7
10
-95.5001891747
20
611.503995733
30
0
0
VERTEX
5
21F
8
EBENE_1
6
BYLAYER
62
7
10
-94.2633791369
20
611.99489642
30
0
0
VERTEX
5
220
8
EBENE_1
6
BYLAYER
62
7
10
-93.0760075222
20
612.535719213
30
0
0
VERTEX
5
221
8
EBENE_1
6
BYLAYER
62
7
10
-91.9464178582
20
613.136941891
30
0
0
VERTEX
5
222
8
EBENE_1
6
BYLAYER
62
7
10
-90.8829536721
20
613.809042231
30
0
0
VERTEX
5
223
8
EBENE_1
6
BYLAYER
62
7
10
-89.8939584914
20
614.562498011
30
0
0
VERTEX
5
224
8
EBENE_1
6
BYLAYER
62
7
10
-88.9877758434
20
615.407787007
30
0
0
VERTEX
5
225
8
EBENE_1
6
BYLAYER
62
7
10
-88.1727492555
20
616.355386998
30
0
0
VERTEX
5
226
8
EBENE_1
6
BYLAYER
62
7
10
-87.457222255
20
617.41577576
30
0
0
VERTEX
5
227
8
EBENE_1
6
BYLAYER
62
7
10
-86.8495383694
20
618.599431071
30
0
0
VERTEX
5
228
8
EBENE_1
6
BYLAYER
62
7
10
-86.3580411259
20
619.916830709
30
0
0
VERTEX
5
229
8
EBENE_1
6
BYLAYER
62
7
10
-85.9910740521
20
621.37845245
30
0
0
VERTEX
5
22A
8
EBENE_1
6
BYLAYER
62
7
10
-85.7569806752
20
622.994774073
30
0
0
VERTEX
5
22B
8
EBENE_1
6
BYLAYER
62
7
10
-85.6641045226
20
624.776273353
30
0
0
VERTEX
5
22C
8
EBENE_1
6
BYLAYER
62
7
10
-85.7207891218
20
626.73342807
30
0
0
VERTEX
5
22D
8
EBENE_1
6
BYLAYER
62
7
10
-85.935378
20
628.876716
30
0
0
SEQEND
5
22E
8
EBENE_1
6
BYLAYER
62
7
0
POLYLINE
5
22F
8
EBENE_1
6
BYLAYER
62
7
66
1
10
0
20
0
30
0
70
0
0
VERTEX
5
230
8
EBENE_1
6
BYLAYER
62
7
10
-85.935378
20
628.876716
30
0
0
VERTEX
5
231
8
EBENE_1
6
BYLAYER
62
7
10
-86.3916207692
20
630.844072455
30
0
0
VERTEX
5
232
8
EBENE_1
6
BYLAYER
62
7
10
-86.9440982698
20
632.588934842
30
0
0
VERTEX
5
233
8
EBENE_1
6
BYLAYER
62
7
10
-87.588584324
20
634.124404917
30
0
0
VERTEX
5
234
8
EBENE_1
6
BYLAYER
62
7
10
-88.3208527537
20
635.463584436
30
0
0
VERTEX
5
235
8
EBENE_1
6
BYLAYER
62
7
10
-89.136677381
20
636.619575157
30
0
0
VERTEX
5
236
8
EBENE_1
6
BYLAYER
62
7
10
-90.0318320279
20
637.605478835
30
0
0
VERTEX
5
237
8
EBENE_1
6
BYLAYER
62
7
10
-91.0020905165
20
638.434397227
30
0
0
VERTEX
5
238
8
EBENE_1
6
BYLAYER
62
7
10
-92.0432266687
20
639.11943209
30
0
0
VERTEX
5
239
8
EBENE_1
6
BYLAYER
62
7
10
-93.1510143065
20
639.673685181
30
0
0
VERTEX
5
23A
8
EBENE_1
6
BYLAYER
62
7
10
-94.3212272521
20
640.110258255
30
0
0
VERTEX
5
23B
8
EBENE_1
6
BYLAYER
62
7
10
-95.5496393274
20
640.44225307
30
0
0
VERTEX
5
23C
8
EBENE_1
6
BYLAYER
62
7
10
-96.8320243545
20
640.682771382
30
0
0
VERTEX
5
23D
8
EBENE_1
6
BYLAYER
62
7
10
-98.1641561554
20
640.844914948
30
0
0
VERTEX
5
23E
8
EBENE_1
6
BYLAYER
62
7
10
-99.5418085521
20
640.941785524
30
0
0
VERTEX
5
23F
8
EBENE_1
6
BYLAYER
62
7
10
-100.960755367
20
640.986484867
30
0
0
VERTEX
5
240
8
EBENE_1
6
BYLAYER
62
7
10
-102.416770421
20
640.992114733
30
0
0
VERTEX
5
241
8
EBENE_1
6
BYLAYER
62
7
10
-103.905627537
20
640.971776879
30
0
0
VERTEX
5
242
8
EBENE_1
6
BYLAYER
62
7
10
-105.423100538
20
640.938573062
30
0
0
VERTEX
5
243
8
EBENE_1
6
BYLAYER
62
7
10
-106.964963244
20
640.905605038
30
0
0
VERTEX
5
244
8
EBENE_1
6
BYLAYER
62
7
10
-108.526989478
20
640.885974563
30
0
0
VERTEX
5
245
8
EBENE_1
6
BYLAYER
62
7
10
-110.104953062
20
640.892783395
30
0
0
VERTEX
5
246
8
EBENE_1
6
BYLAYER
62
7
10
-111.694627818
20
640.939133289
30
0
0
VERTEX
5
247
8
EBENE_1
6
BYLAYER
62
7
10
-113.291787569
20
641.038126003
30
0
0
VERTEX
5
248
8
EBENE_1
6
BYLAYER
62
7
10
-114.892206135
20
641.202863293
30
0
0
VERTEX
5
249
8
EBENE_1
6
BYLAYER
62
7
10
-116.491657339
20
641.446446915
30
0
0
VERTEX
5
24A
8
EBENE_1
6
BYLAYER
62
7
10
-118.085915004
20
641.781978627
30
0
0
VERTEX
5
24B
8
EBENE_1
6
BYLAYER
62
7
10
-119.670752951
20
642.222560184
30
0
0
VERTEX
5
24C
8
EBENE_1
6
BYLAYER
62
7
10
-121.241945002
20
642.781293343
30
0
0
VERTEX
5
24D
8
EBENE_1
6
BYLAYER
62
7
10
-122.795264979
20
643.471279861
30
0
0
VERTEX
5
24E
8
EBENE_1
6
BYLAYER
62
7
10
-124.326486704
20
644.305621495
30
0
0
VERTEX
5
24F
8
EBENE_1
6
BYLAYER
62
7
10
-125.831384
20
645.29742
30
0
0
SEQEND
5
250
8
EBENE_1
6
BYLAYER
62
7
0
POLYLINE
5
251
8
EBENE_1
6
BYLAYER
62
7
66
1
10
0
20
0
30
0
70
0
0
VERTEX
5
252
8
EBENE_1
6
BYLAYER
62
7
10
-125.831384
20
645.29742
30
0
0
VERTEX
5
253
8
EBENE_1
6
BYLAYER
62
7
10
-127.595299336
20
646.664902947
30
0
0
VERTEX
5
254
8
EBENE_1
6
BYLAYER
62
7
10
-129.123854654
20
648.052531282
30
0
0
VERTEX
5
255
8
EBENE_1
6
BYLAYER
62
7
10
-130.428531374
20
649.458146572
30
0
0
VERTEX
5
256
8
EBENE_1
6
BYLAYER
62
7
10
-131.520810915
20
650.879590382
30
0
0
VERTEX
5
257
8
EBENE_1
6
BYLAYER
62
7
10
-132.412174695
20
652.314704279
30
0
0
VERTEX
5
258
8
EBENE_1
6
BYLAYER
62
7
10
-133.114104133
20
653.761329826
30
0
0
VERTEX
5
259
8
EBENE_1
6
BYLAYER
62
7
10
-133.638080647
20
655.217308592
30
0
0
VERTEX
5
25A
8
EBENE_1
6
BYLAYER
62
7
10
-133.995585658
20
656.68048214
30
0
0
VERTEX
5
25B
8
EBENE_1
6
BYLAYER
62
7
10
-134.198100583
20
658.148692037
30
0
0
VERTEX
5
25C
8
EBENE_1
6
BYLAYER
62
7
10
-134.257106841
20
659.619779848
30
0
0
VERTEX
5
25D
8
EBENE_1
6
BYLAYER
62
7
10
-134.184085852
20
661.09158714
30
0
0
VERTEX
5
25E
8
EBENE_1
6
BYLAYER
62
7
10
-133.990519034
20
662.561955477
30
0
0
VERTEX
5
25F
8
EBENE_1
6
BYLAYER
62
7
10
-133.687887805
20
664.028726427
30
0
0
VERTEX
5
260
8
EBENE_1
6
BYLAYER
62
7
10
-133.287673585
20
665.489741553
30
0
0
VERTEX
5
261
8
EBENE_1
6
BYLAYER
62
7
10
-132.801357793
20
666.942842422
30
0
0
VERTEX
5
262
8
EBENE_1
6
BYLAYER
62
7
10
-132.240421846
20
668.385870601
30
0
0
VERTEX
5
263
8
EBENE_1
6
BYLAYER
62
7
10
-131.616347165
20
669.816667653
30
0
0
VERTEX
5
264
8
EBENE_1
6
BYLAYER
62
7
10
-130.940615168
20
671.233075146
30
0
0
VERTEX
5
265
8
EBENE_1
6
BYLAYER
62
7
10
-130.224707273
20
672.632934644
30
0
0
VERTEX
5
266
8
EBENE_1
6
BYLAYER
62
7
10
-129.4801049
20
674.014087714
30
0
0
VERTEX
5
267
8
EBENE_1
6
BYLAYER
62
7
10
-128.718289468
20
675.374375922
30
0
0
VERTEX
5
268
8
EBENE_1
6
BYLAYER
62
7
10
-127.950742394
20
676.711640832
30
0
0
VERTEX
5
269
8
EBENE_1
6
BYLAYER
62
7
10
-127.188945099
20
678.023724011
30
0
0
VERTEX
5
26A
8
EBENE_1
6
BYLAYER
62
7
10
-126.444379
20
679.308467024
30
0
0
VERTEX
5
26B
8
EBENE_1
6
BYLAYER
62
7
10
-125.728525517
20
680.563711438
30
0
0
VERTEX
5
26C
8
EBENE_1
6
BYLAYER
62
7
10
-125.052866068
20
681.787298817
30
0
0
VERTEX
5
26D
8
EBENE_1
6
BYLAYER
62
7
10
-124.428882073
20
682.977070728
30
0
0
VERTEX
5
26E
8
EBENE_1
6
BYLAYER
62
7
10
-123.868054949
20
684.130868736
30
0
0
VERTEX
5
26F
8
EBENE_1
6
BYLAYER
62
7
10
-123.381866117
20
685.246534407
30
0
0
VERTEX
5
270
8
EBENE_1
6
BYLAYER
62
7
10
-122.981796994
20
686.321909306
30
0
0
VERTEX
5
271
8
EBENE_1
6
BYLAYER
62
7
10
-122.679329
20
687.354835
30
0
0
SEQEND
5
272
8
EBENE_1
6
BYLAYER
62
7
0
POLYLINE
5
273
8
EBENE_1
6
BYLAYER
62
7
66
1
10
0
20
0
30
0
70
0
0
VERTEX
5
274
8
EBENE_1
6
BYLAYER
62
7
10
-122.679329
20
687.354835
30
0
0
VERTEX
5
275
8
EBENE_1
6
BYLAYER
62
7
10
-122.426771068
20
688.208886673
30
0
0
VERTEX
5
276
8
EBENE_1
6
BYLAYER
62
7
10
-122.214509952
20
689.017635418
30
0
0
VERTEX
5
277
8
EBENE_1
6
BYLAYER
62
7
10
-122.041421089
20
689.783009919
30
0
0
VERTEX
5
278
8
EBENE_1
6
BYLAYER
62
7
10
-121.906379917
20
690.50693886
30
0
0
VERTEX
5
279
8
EBENE_1
6
BYLAYER
62
7
10
-121.808261874
20
691.191350927
30
0
0
VERTEX
5
27A
8
EBENE_1
6
BYLAYER
62
7
10
-121.745942397
20
691.838174803
30
0
0
VERTEX
5
27B
8
EBENE_1
6
BYLAYER
62
7
10
-121.718296924
20
692.449339174
30
0
0
VERTEX
5
27C
8
EBENE_1
6
BYLAYER
62
7
10
-121.724200894
20
693.026772723
30
0
0
VERTEX
5
27D
8
EBENE_1
6
BYLAYER
62
7
10
-121.762529743
20
693.572404135
30
0
0
VERTEX
5
27E
8
EBENE_1
6
BYLAYER
62
7
10
-121.832158909
20
694.088162094
30
0
0
VERTEX
5
27F
8
EBENE_1
6
BYLAYER
62
7
10
-121.931963831
20
694.575975286
30
0
0
VERTEX
5
280
8
EBENE_1
6
BYLAYER
62
7
10
-122.060819946
20
695.037772395
30
0
0
VERTEX
5
281
8
EBENE_1
6
BYLAYER
62
7
10
-122.217602692
20
695.475482104
30
0
0
VERTEX
5
282
8
EBENE_1
6
BYLAYER
62
7
10
-122.401187506
20
695.891033099
30
0
0
VERTEX
5
283
8
EBENE_1
6
BYLAYER
62
7
10
-122.610449826
20
696.286354065
30
0
0
VERTEX
5
284
8
EBENE_1
6
BYLAYER
62
7
10
-122.84426509
20
696.663373685
30
0
0
VERTEX
5
285
8
EBENE_1
6
BYLAYER
62
7
10
-123.101508736
20
697.024020644
30
0
0
VERTEX
5
286
8
EBENE_1
6
BYLAYER
62
7
10
-123.381056201
20
697.370223626
30
0
0
VERTEX
5
287
8
EBENE_1
6
BYLAYER
62
7
10
-123.681782924
20
697.703911317
30
0
0
VERTEX
5
288
8
EBENE_1
6
BYLAYER
62
7
10
-124.002564342
20
698.027012401
30
0
0
VERTEX
5
289
8
EBENE_1
6
BYLAYER
62
7
10
-124.342275892
20
698.341455561
30
0
0
VERTEX
5
28A
8
EBENE_1
6
BYLAYER
62
7
10
-124.699793013
20
698.649169483
30
0
0
VERTEX
5
28B
8
EBENE_1
6
BYLAYER
62
7
10
-125.073991142
20
698.952082852
30
0
0
VERTEX
5
28C
8
EBENE_1
6
BYLAYER
62
7
10
-125.463745717
20
699.252124351
30
0
0
VERTEX
5
28D
8
EBENE_1
6
BYLAYER
62
7
10
-125.867932175
20
699.551222665
30
0
0
VERTEX
5
28E
8
EBENE_1
6
BYLAYER
62
7
10
-126.285425956
20
699.851306479
30
0
0
VERTEX
5
28F
8
EBENE_1
6
BYLAYER
62
7
10
-126.715102495
20
700.154304477
30
0
0
VERTEX
5
290
8
EBENE_1
6
BYLAYER
62
7
10
-127.155837231
20
700.462145343
30
0
0
VERTEX
5
291
8
EBENE_1
6
BYLAYER
62
7
10
-127.606505603
20
700.776757763
30
0
0
VERTEX
5
292
8
EBENE_1
6
BYLAYER
62
7
10
-128.065983046
20
701.10007042
30
0
0
VERTEX
5
293
8
EBENE_1
6
BYLAYER
62
7
10
-128.533145
20
701.434012
30
0
0
SEQEND
5
294
8
EBENE_1
6
BYLAYER
62
7
0
POLYLINE
5
295
8
EBENE_1
6
BYLAYER
62
7
66
1
10
0
20
0
30
0
70
0
0
VERTEX
5
296
8
EBENE_1
6
BYLAYER
62
7
10
-128.533145
20
701.434012
30
0
0
VERTEX
5
297
8
EBENE_1
6
BYLAYER
62
7
10
-129.640929627
20
701.987701773
30
0
0
VERTEX
5
298
8
EBENE_1
6
BYLAYER
62
7
10
-130.69471712
20
702.492654466
30
0
0
VERTEX
5
299
8
EBENE_1
6
BYLAYER
62
7
10
-131.697863029
20
702.949051458
30
0
0
VERTEX
5
29A
8
EBENE_1
6
BYLAYER
62
7
10
-132.653722902
20
703.357074132
30
0
0
VERTEX
5
29B
8
EBENE_1
6
BYLAYER
62
7
10
-133.56565229
20
703.716903867
30
0
0
VERTEX
5
29C
8
EBENE_1
6
BYLAYER
62
7
10
-134.437006742
20
704.028722046
30
0
0
VERTEX
5
29D
8
EBENE_1
6
BYLAYER
62
7
10
-135.271141806
20
704.292710048
30
0
0
VERTEX
5
29E
8
EBENE_1
6
BYLAYER
62
7
10
-136.071413031
20
704.509049256
30
0
0
VERTEX
5
29F
8
EBENE_1
6
BYLAYER
62
7
10
-136.841175968
20
704.67792105
30
0
0
VERTEX
5
2A0
8
EBENE_1
6
BYLAYER
62
7
10
-137.583786164
20
704.799506811
30
0
0
VERTEX
5
2A1
8
EBENE_1
6
BYLAYER
62
7
10
-138.30259917
20
704.873987921
30
0
0
VERTEX
5
2A2
8
EBENE_1
6
BYLAYER
62
7
10
-139.000970535
20
704.901545759
30
0
0
VERTEX
5
2A3
8
EBENE_1
6
BYLAYER
62
7
10
-139.682255807
20
704.882361708
30
0
0
VERTEX
5
2A4
8
EBENE_1
6
BYLAYER
62
7
10
-140.349810536
20
704.816617148
30
0
0
VERTEX
5
2A5
8
EBENE_1
6
BYLAYER
62
7
10
-141.006990271
20
704.70449346
30
0
0
VERTEX
5
2A6
8
EBENE_1
6
BYLAYER
62
7
10
-141.657150561
20
704.546172026
30
0
0
VERTEX
5
2A7
8
EBENE_1
6
BYLAYER
62
7
10
-142.303646956
20
704.341834226
30
0
0
VERTEX
5
2A8
8
EBENE_1
6
BYLAYER
62
7
10
-142.949835005
20
704.091661441
30
0
0
VERTEX
5
2A9
8
EBENE_1
6
BYLAYER
62
7
10
-143.599070256
20
703.795835053
30
0
0
VERTEX
5
2AA
8
EBENE_1
6
BYLAYER
62
7
10
-144.254708259
20
703.454536442
30
0
0
VERTEX
5
2AB
8
EBENE_1
6
BYLAYER
62
7
10
-144.920104564
20
703.067946989
30
0
0
VERTEX
5
2AC
8
EBENE_1
6
BYLAYER
62
7
10
-145.598614719
20
702.636248076
30
0
0
VERTEX
5
2AD
8
EBENE_1
6
BYLAYER
62
7
10
-146.293594274
20
702.159621083
30
0
0
VERTEX
5
2AE
8
EBENE_1
6
BYLAYER
62
7
10
-147.008398777
20
701.638247392
30
0
0
VERTEX
5
2AF
8
EBENE_1
6
BYLAYER
62
7
10
-147.746383778
20
701.072308383
30
0
0
VERTEX
5
2B0
8
EBENE_1
6
BYLAYER
62
7
10
-148.510904827
20
700.461985438
30
0
0
VERTEX
5
2B1
8
EBENE_1
6
BYLAYER
62
7
10
-149.305317472
20
699.807459937
30
0
0
VERTEX
5
2B2
8
EBENE_1
6
BYLAYER
62
7
10
-150.132977263
20
699.108913262
30
0
0
VERTEX
5
2B3
8
EBENE_1
6
BYLAYER
62
7
10
-150.997239748
20
698.366526793
30
0
0
VERTEX
5
2B4
8
EBENE_1
6
BYLAYER
62
7
10
-151.901460477
20
697.580481912
30
0
0
VERTEX
5
2B5
8
EBENE_1
6
BYLAYER
62
7
10
-152.848995
20
696.75096
30
0
0
SEQEND
5
2B6
8
EBENE_1
6
BYLAYER
62
7
0
POLYLINE
5
2B7
8
EBENE_1
6
BYLAYER
62
7
66
1
10
0
20
0
30
0
70
0
0
VERTEX
5
2B8
8
EBENE_1
6
BYLAYER
62
7
10
-152.848995
20
696.75096
30
0
0
VERTEX
5
2B9
8
EBENE_1
6
BYLAYER
62
7
10
-154.084946511
20
695.556834888
30
0
0
VERTEX
5
2BA
8
EBENE_1
6
BYLAYER
62
7
10
-155.289567468
20
694.459633757
30
0
0
VERTEX
5
2BB
8
EBENE_1
6
BYLAYER
62
7
10
-156.464327058
20
693.456944241
30
0
0
VERTEX
5
2BC
8
EBENE_1
6
BYLAYER
62
7
10
-157.610694469
20
692.546353971
30
0
0
VERTEX
5
2BD
8
EBENE_1
6
BYLAYER
62
7
10
-158.730138885
20
691.72545058
30
0
0
VERTEX
5
2BE
8
EBENE_1
6
BYLAYER
62
7
10
-159.824129495
20
690.991821699
30
0
0
VERTEX
5
2BF
8
EBENE_1
6
BYLAYER
62
7
10
-160.894135483
20
690.343054962
30
0
0
VERTEX
5
2C0
8
EBENE_1
6
BYLAYER
62
7
10
-161.941626038
20
689.776738
30
0
0
VERTEX
5
2C1
8
EBENE_1
6
BYLAYER
62
7
10
-162.968070345
20
689.290458445
30
0
0
VERTEX
5
2C2
8
EBENE_1
6
BYLAYER
62
7
10
-163.974937591
20
688.88180393
30
0
0
VERTEX
5
2C3
8
EBENE_1
6
BYLAYER
62
7
10
-164.963696962
20
688.548362087
30
0
0
VERTEX
5
2C4
8
EBENE_1
6
BYLAYER
62
7
10
-165.935817645
20
688.287720549
30
0
0
VERTEX
5
2C5
8
EBENE_1
6
BYLAYER
62
7
10
-166.892768827
20
688.097466947
30
0
0
VERTEX
5
2C6
8
EBENE_1
6
BYLAYER
62
7
10
-167.836019694
20
687.975188913
30
0
0
VERTEX
5
2C7
8
EBENE_1
6
BYLAYER
62
7
10
-168.767039433
20
687.918474081
30
0
0
VERTEX
5
2C8
8
EBENE_1
6
BYLAYER
62
7
10
-169.68729723
20
687.924910082
30
0
0
VERTEX
5
2C9
8
EBENE_1
6
BYLAYER
62
7
10
-170.598262271
20
687.992084548
30
0
0
VERTEX
5
2CA
8
EBENE_1
6
BYLAYER
62
7
10
-171.501403744
20
688.117585112
30
0
0
VERTEX
5
2CB
8
EBENE_1
6
BYLAYER
62
7
10
-172.398190834
20
688.298999406
30
0
0
VERTEX
5
2CC
8
EBENE_1
6
BYLAYER
62
7
10
-173.290092729
20
688.533915062
30
0
0
VERTEX
5
2CD
8
EBENE_1
6
BYLAYER
62
7
10
-174.178578614
20
688.819919712
30
0
0
VERTEX
5
2CE
8
EBENE_1
6
BYLAYER
62
7
10
-175.065117677
20
689.154600989
30
0
0
VERTEX
5
2CF
8
EBENE_1
6
BYLAYER
62
7
10
-175.951179104
20
689.535546525
30
0
0
VERTEX
5
2D0
8
EBENE_1
6
BYLAYER
62
7
10
-176.838232081
20
689.960343952
30
0
0
VERTEX
5
2D1
8
EBENE_1
6
BYLAYER
62
7
10
-177.727745795
20
690.426580902
30
0
0
VERTEX
5
2D2
8
EBENE_1
6
BYLAYER
62
7
10
-178.621189432
20
690.931845008
30
0
0
VERTEX
5
2D3
8
EBENE_1
6
BYLAYER
62
7
10
-179.52003218
20
691.473723902
30
0
0
VERTEX
5
2D4
8
EBENE_1
6
BYLAYER
62
7
10
-180.425743224
20
692.049805216
30
0
0
VERTEX
5
2D5
8
EBENE_1
6
BYLAYER
62
7
10
-181.339791751
20
692.657676582
30
0
0
VERTEX
5
2D6
8
EBENE_1
6
BYLAYER
62
7
10
-182.263646947
20
693.294925633
30
0
0
VERTEX
5
2D7
8
EBENE_1
6
BYLAYER
62
7
10
-183.198778
20
693.95914
30
0
0
SEQEND
5
2D8
8
EBENE_1
6
BYLAYER
62
7
0
POLYLINE
5
2D9
8
EBENE_1
6
BYLAYER
62
7
66
1
10
0
20
0
30
0
70
0
0
VERTEX
5
2DA
8
EBENE_1
6
BYLAYER
62
7
10
-183.198778
20
693.95914
30
0
0
VERTEX
5
2DB
8
EBENE_1
6
BYLAYER
62
7
10
-184.521700685
20
695.008375811
30
0
0
VERTEX
5
2DC
8
EBENE_1
6
BYLAYER
62
7
10
-185.675189306
20
696.113392335
30
0
0
VERTEX
5
2DD
8
EBENE_1
6
BYLAYER
62
7
10
-186.671988902
20
697.269243916
30
0
0
VERTEX
5
2DE
8
EBENE_1
6
BYLAYER
62
7
10
-187.524844513
20
698.470984897
30
0
0
VERTEX
5
2DF
8
EBENE_1
6
BYLAYER
62
7
10
-188.246501181
20
699.713669622
30
0
0
VERTEX
5
2E0
8
EBENE_1
6
BYLAYER
62
7
10
-188.849703944
20
700.992352436
30
0
0
VERTEX
5
2E1
8
EBENE_1
6
BYLAYER
62
7
10
-189.347197844
20
702.302087683
30
0
0
VERTEX
5
2E2
8
EBENE_1
6
BYLAYER
62
7
10
-189.751727921
20
703.637929707
30
0
0
VERTEX
5
2E3
8
EBENE_1
6
BYLAYER
62
7
10
-190.076039214
20
704.994932852
30
0
0
VERTEX
5
2E4
8
EBENE_1
6
BYLAYER
62
7
10
-190.332876765
20
706.368151461
30
0
0
VERTEX
5
2E5
8
EBENE_1
6
BYLAYER
62
7
10
-190.534985613
20
707.75263988
30
0
0
VERTEX
5
2E6
8
EBENE_1
6
BYLAYER
62
7
10
-190.695110798
20
709.143452451
30
0
0
VERTEX
5
2E7
8
EBENE_1
6
BYLAYER
62
7
10
-190.825997362
20
710.53564352
30
0
0
VERTEX
5
2E8
8
EBENE_1
6
BYLAYER
62
7
10
-190.940390343
20
711.92426743
30
0
0
VERTEX
5
2E9
8
EBENE_1
6
BYLAYER
62
7
10
-191.051034783
20
713.304378525
30
0
0
VERTEX
5
2EA
8
EBENE_1
6
BYLAYER
62
7
10
-191.170675722
20
714.67103115
30
0
0
VERTEX
5
2EB
8
EBENE_1
6
BYLAYER
62
7
10
-191.312058199
20
716.019279648
30
0
0
VERTEX
5
2EC
8
EBENE_1
6
BYLAYER
62
7
10
-191.487927255
20
717.344178363
30
0
0
VERTEX
5
2ED
8
EBENE_1
6
BYLAYER
62
7
10
-191.711027931
20
718.64078164
30
0
0
VERTEX
5
2EE
8
EBENE_1
6
BYLAYER
62
7
10
-191.994105267
20
719.904143823
30
0
0
VERTEX
5
2EF
8
EBENE_1
6
BYLAYER
62
7
10
-192.349904302
20
721.129319255
30
0
0
VERTEX
5
2F0
8
EBENE_1
6
BYLAYER
62
7
10
-192.791170077
20
722.311362281
30
0
0
VERTEX
5
2F1
8
EBENE_1
6
BYLAYER
62
7
10
-193.330647633
20
723.445327244
30
0
0
VERTEX
5
2F2
8
EBENE_1
6
BYLAYER
62
7
10
-193.981082009
20
724.52626849
30
0
0
VERTEX
5
2F3
8
EBENE_1
6
BYLAYER
62
7
10
-194.755218246
20
725.549240361
30
0
0
VERTEX
5
2F4
8
EBENE_1
6
BYLAYER
62
7
10
-195.665801384
20
726.509297202
30
0
0
VERTEX
5
2F5
8
EBENE_1
6
BYLAYER
62
7
10
-196.725576464
20
727.401493357
30
0
0
VERTEX
5
2F6
8
EBENE_1
6
BYLAYER
62
7
10
-197.947288525
20
728.220883171
30
0
0
VERTEX
5
2F7
8
EBENE_1
6
BYLAYER
62
7
10
-199.343682608
20
728.962520986
30
0
0
VERTEX
5
2F8
8
EBENE_1
6
BYLAYER
62
7
10
-200.927503753
20
729.621461148
30
0
0
VERTEX
5
2F9
8
EBENE_1
6
BYLAYER
62
7
10
-202.711497
20
730.192758
30
0
0
SEQEND
5
2FA
8
EBENE_1
6
BYLAYER
62
7
0
POLYLINE
5
2FB
8
EBENE_1
6
BYLAYER
62
7
66
1
10
0
20
0
30
0
70
0
0
VERTEX
5
2FC
8
EBENE_1
6
BYLAYER
62
7
10
-202.711497
20
730.192758
30
0
0
VERTEX
5
2FD
8
EBENE_1
6
BYLAYER
62
7
10
-205.089583708
20
730.455296976
30
0
0
VERTEX
5
2FE
8
EBENE_1
6
BYLAYER
62
7
10
-207.262510333
20
730.535191302
30
0
0
VERTEX
5
2FF
8
EBENE_1
6
BYLAYER
62
7
10
-209.239908208
20
730.442846203
30
0
0
VERTEX
5
300
8
EBENE_1
6
BYLAYER
62
7
10
-211.031408666
20
730.188666904
30
0
0
VERTEX
5
301
8
EBENE_1
6
BYLAYER
62
7
10
-212.646643038
20
729.783058629
30
0
0
VERTEX
5
302
8
EBENE_1
6
BYLAYER
62
7
10
-214.095242657
20
729.236426603
30
0
0
VERTEX
5
303
8
EBENE_1
6
BYLAYER
62
7
10
-215.386838856
20
728.559176052
30
0
0
VERTEX
5
304
8
EBENE_1
6
BYLAYER
62
7
10
-216.531062967
20
727.761712201
30
0
0
VERTEX
5
305
8
EBENE_1
6
BYLAYER
62
7
10
-217.537546323
20
726.854440274
30
0
0
VERTEX
5
306
8
EBENE_1
6
BYLAYER
62
7
10
-218.415920256
20
725.847765496
30
0
0
VERTEX
5
307
8
EBENE_1
6
BYLAYER
62
7
10
-219.175816099
20
724.752093092
30
0
0
VERTEX
5
308
8
EBENE_1
6
BYLAYER
62
7
10
-219.826865184
20
723.577828288
30
0
0
VERTEX
5
309
8
EBENE_1
6
BYLAYER
62
7
10
-220.378698843
20
722.335376307
30
0
0
VERTEX
5
30A
8
EBENE_1
6
BYLAYER
62
7
10
-220.84094841
20
721.035142376
30
0
0
VERTEX
5
30B
8
EBENE_1
6
BYLAYER
62
7
10
-221.223245216
20
719.687531718
30
0
0
VERTEX
5
30C
8
EBENE_1
6
BYLAYER
62
7
10
-221.535220594
20
718.30294956
30
0
0
VERTEX
5
30D
8
EBENE_1
6
BYLAYER
62
7
10
-221.786505876
20
716.891801125
30
0
0
VERTEX
5
30E
8
EBENE_1
6
BYLAYER
62
7
10
-221.986732396
20
715.464491639
30
0
0
VERTEX
5
30F
8
EBENE_1
6
BYLAYER
62
7
10
-222.145531485
20
714.031426326
30
0
0
VERTEX
5
310
8
EBENE_1
6
BYLAYER
62
7
10
-222.272534476
20
712.603010412
30
0
0
VERTEX
5
311
8
EBENE_1
6
BYLAYER
62
7
10
-222.377372702
20
711.189649122
30
0
0
VERTEX
5
312
8
EBENE_1
6
BYLAYER
62
7
10
-222.469677495
20
709.80174768
30
0
0
VERTEX
5
313
8
EBENE_1
6
BYLAYER
62
7
10
-222.559080187
20
708.449711312
30
0
0
VERTEX
5
314
8
EBENE_1
6
BYLAYER
62
7
10
-222.65521211
20
707.143945242
30
0
0
VERTEX
5
315
8
EBENE_1
6
BYLAYER
62
7
10
-222.767704599
20
705.894854695
30
0
0
VERTEX
5
316
8
EBENE_1
6
BYLAYER
62
7
10
-222.906188984
20
704.712844897
30
0
0
VERTEX
5
317
8
EBENE_1
6
BYLAYER
62
7
10
-223.080296599
20
703.608321071
30
0
0
VERTEX
5
318
8
EBENE_1
6
BYLAYER
62
7
10
-223.299658775
20
702.591688444
30
0
0
VERTEX
5
319
8
EBENE_1
6
BYLAYER
62
7
10
-223.573906846
20
701.67335224
30
0
0
VERTEX
5
31A
8
EBENE_1
6
BYLAYER
62
7
10
-223.912672143
20
700.863717683
30
0
0
VERTEX
5
31B
8
EBENE_1
6
BYLAYER
62
7
10
-224.325586
20
700.17319
30
0
0
SEQEND
5
31C
8
EBENE_1
6
BYLAYER
62
7
0
POLYLINE
5
31D
8
EBENE_1
6
BYLAYER
62
7
66
1
10
0
20
0
30
0
70
0
0
VERTEX
5
31E
8
EBENE_1
6
BYLAYER
62
7
10
-228.978619
20
693.688964
30
0
0
VERTEX
5
31F
8
EBENE_1
6
BYLAYER
62
7
10
-229.459112497
20
693.078643975
30
0
0
VERTEX
5
320
8
EBENE_1
6
BYLAYER
62
7
10
-229.992043246
20
692.50827615
30
0
0
VERTEX
5
321
8
EBENE_1
6
BYLAYER
62
7
10
-230.574182664
20
691.9775159
30
0
0
VERTEX
5
322
8
EBENE_1
6
BYLAYER
62
7
10
-231.202302169
20
691.486018603
30
0
0
VERTEX
5
323
8
EBENE_1
6
BYLAYER
62
7
10
-231.87317318
20
691.033439633
30
0
0
VERTEX
5
324
8
EBENE_1
6
BYLAYER
62
7
10
-232.583567114
20
690.619434368
30
0
0
VERTEX
5
325
8
EBENE_1
6
BYLAYER
62
7
10
-233.330255389
20
690.243658181
30
0
0
VERTEX
5
326
8
EBENE_1
6
BYLAYER
62
7
10
-234.110009423
20
689.905766451
30
0
0
VERTEX
5
327
8
EBENE_1
6
BYLAYER
62
7
10
-234.919600634
20
689.605414552
30
0
0
VERTEX
5
328
8
EBENE_1
6
BYLAYER
62
7
10
-235.75580044
20
689.34225786
30
0
0
VERTEX
5
329
8
EBENE_1
6
BYLAYER
62
7
10
-236.61538026
20
689.115951752
30
0
0
VERTEX
5
32A
8
EBENE_1
6
BYLAYER
62
7
10
-237.49511151
20
688.926151603
30
0
0
VERTEX
5
32B
8
EBENE_1
6
BYLAYER
62
7
10
-238.391765609
20
688.772512789
30
0
0
VERTEX
5
32C
8
EBENE_1
6
BYLAYER
62
7
10
-239.302113974
20
688.654690686
30
0
0
VERTEX
5
32D
8
EBENE_1
6
BYLAYER
62
7
10
-240.222928025
20
688.57234067
30
0
0
VERTEX
5
32E
8
EBENE_1
6
BYLAYER
62
7
10
-241.150979178
20
688.525118117
30
0
0
VERTEX
5
32F
8
EBENE_1
6
BYLAYER
62
7
10
-242.083038852
20
688.512678403
30
0
0
VERTEX
5
330
8
EBENE_1
6
BYLAYER
62
7
10
-243.015878464
20
688.534676904
30
0
0
VERTEX
5
331
8
EBENE_1
6
BYLAYER
62
7
10
-243.946269433
20
688.590768996
30
0
0
VERTEX
5
332
8
EBENE_1
6
BYLAYER
62
7
10
-244.870983176
20
688.680610054
30
0
0
VERTEX
5
333
8
EBENE_1
6
BYLAYER
62
7
10
-245.786791112
20
688.803855454
30
0
0
VERTEX
5
334
8
EBENE_1
6
BYLAYER
62
7
10
-246.690464658
20
688.960160573
30
0
0
VERTEX
5
335
8
EBENE_1
6
BYLAYER
62
7
10
-247.578775233
20
689.149180786
30
0
0
VERTEX
5
336
8
EBENE_1
6
BYLAYER
62
7
10
-248.448494253
20
689.37057147
30
0
0
VERTEX
5
337
8
EBENE_1
6
BYLAYER
62
7
10
-249.296393138
20
689.623988
30
0
0
VERTEX
5
338
8
EBENE_1
6
BYLAYER
62
7
10
-250.119243305
20
689.909085752
30
0
0
VERTEX
5
339
8
EBENE_1
6
BYLAYER
62
7
10
-250.913816172
20
690.225520102
30
0
0
VERTEX
5
33A
8
EBENE_1
6
BYLAYER
62
7
10
-251.676883157
20
690.572946425
30
0
0
VERTEX
5
33B
8
EBENE_1
6
BYLAYER
62
7
10
-252.405215678
20
690.951020099
30
0
0
VERTEX
5
33C
8
EBENE_1
6
BYLAYER
62
7
10
-253.095585153
20
691.359396499
30
0
0
VERTEX
5
33D
8
EBENE_1
6
BYLAYER
62
7
10
-253.744763
20
691.797731
30
0
0
SEQEND
5
33E
8
EBENE_1
6
BYLAYER
62
7
0
POLYLINE
5
33F
8
EBENE_1
6
BYLAYER
62
7
66
1
10
0
20
0
30
0
70
0
0
VERTEX
5
340
8
EBENE_1
6
BYLAYER
62
7
10
-253.744763
20
691.797731
30
0
0
VERTEX
5
341
8
EBENE_1
6
BYLAYER
62
7
10
-254.991946014
20
692.715256954
30
0
0
VERTEX
5
342
8
EBENE_1
6
BYLAYER
62
7
10
-256.2185846
20
693.655884814
30
0
0
VERTEX
5
343
8
EBENE_1
6
BYLAYER
62
7
10
-257.426063301
20
694.612165865
30
0
0
VERTEX
5
344
8
EBENE_1
6
BYLAYER
62
7
10
-258.615766658
20
695.576651392
30
0
0
VERTEX
5
345
8
EBENE_1
6
BYLAYER
62
7
10
-259.789079213
20
696.54189268
30
0
0
VERTEX
5
346
8
EBENE_1
6
BYLAYER
62
7
10
-260.947385508
20
697.500441014
30
0
0
VERTEX
5
347
8
EBENE_1
6
BYLAYER
62
7
10
-262.092070086
20
698.444847681
30
0
0
VERTEX
5
348
8
EBENE_1
6
BYLAYER
62
7
10
-263.224517489
20
699.367663965
30
0
0
VERTEX
5
349
8
EBENE_1
6
BYLAYER
62
7
10
-264.346112258
20
700.261441151
30
0
0
VERTEX
5
34A
8
EBENE_1
6
BYLAYER
62
7
10
-265.458238935
20
701.118730525
30
0
0
VERTEX
5
34B
8
EBENE_1
6
BYLAYER
62
7
10
-266.562282064
20
701.932083372
30
0
0
VERTEX
5
34C
8
EBENE_1
6
BYLAYER
62
7
10
-267.659626184
20
702.694050978
30
0
0
VERTEX
5
34D
8
EBENE_1
6
BYLAYER
62
7
10
-268.75165584
20
703.397184627
30
0
0
VERTEX
5
34E
8
EBENE_1
6
BYLAYER
62
7
10
-269.839755572
20
704.034035605
30
0
0
VERTEX
5
34F
8
EBENE_1
6
BYLAYER
62
7
10
-270.925309923
20
704.597155197
30
0
0
VERTEX
5
350
8
EBENE_1
6
BYLAYER
62
7
10
-272.009703435
20
705.079094689
30
0
0
VERTEX
5
351
8
EBENE_1
6
BYLAYER
62
7
10
-273.09432065
20
705.472405365
30
0
0
VERTEX
5
352
8
EBENE_1
6
BYLAYER
62
7
10
-274.180546109
20
705.769638512
30
0
0
VERTEX
5
353
8
EBENE_1
6
BYLAYER
62
7
10
-275.269764356
20
705.963345414
30
0
0
VERTEX
5
354
8
EBENE_1
6
BYLAYER
62
7
10
-276.363359931
20
706.046077356
30
0
0
VERTEX
5
355
8
EBENE_1
6
BYLAYER
62
7
10
-277.462717378
20
706.010385625
30
0
0
VERTEX
5
356
8
EBENE_1
6
BYLAYER
62
7
10
-278.569221238
20
705.848821505
30
0
0
VERTEX
5
357
8
EBENE_1
6
BYLAYER
62
7
10
-279.684256052
20
705.553936281
30
0
0
VERTEX
5
358
8
EBENE_1
6
BYLAYER
62
7
10
-280.809206364
20
705.118281239
30
0
0
VERTEX
5
359
8
EBENE_1
6
BYLAYER
62
7
10
-281.945456715
20
704.534407664
30
0
0
VERTEX
5
35A
8
EBENE_1
6
BYLAYER
62
7
10
-283.094391648
20
703.794866842
30
0
0
VERTEX
5
35B
8
EBENE_1
6
BYLAYER
62
7
10
-284.257395703
20
702.892210057
30
0
0
VERTEX
5
35C
8
EBENE_1
6
BYLAYER
62
7
10
-285.435853424
20
701.818988595
30
0
0
VERTEX
5
35D
8
EBENE_1
6
BYLAYER
62
7
10
-286.631149353
20
700.567753741
30
0
0
VERTEX
5
35E
8
EBENE_1
6
BYLAYER
62
7
10
-287.844668031
20
699.131056781
30
0
0
VERTEX
5
35F
8
EBENE_1
6
BYLAYER
62
7
10
-289.077794
20
697.501449
30
0
0
SEQEND
5
360
8
EBENE_1
6
BYLAYER
62
7
0
POLYLINE
5
361
8
EBENE_1
6
BYLAYER
62
7
66
1
10
0
20
0
30
0
70
0
0
VERTEX
5
362
8
EBENE_1
6
BYLAYER
62
7
10
-289.077794
20
697.501449
30
0
0
VERTEX
5
363
8
EBENE_1
6
BYLAYER
62
7
10
-290.028731445
20
696.032731174
30
0
0
VERTEX
5
364
8
EBENE_1
6
BYLAYER
62
7
10
-290.748166235
20
694.604449231
30
0
0
VERTEX
5
365
8
EBENE_1
6
BYLAYER
62
7
10
-291.251999439
20
693.212431406
30
0
0
VERTEX
5
366
8
EBENE_1
6
BYLAYER
62
7
10
-291.55613213
20
691.852505935
30
0
0
VERTEX
5
367
8
EBENE_1
6
BYLAYER
62
7
10
-291.676465376
20
690.520501056
30
0
0
VERTEX
5
368
8
EBENE_1
6
BYLAYER
62
7
10
-291.628900248
20
689.212245003
30
0
0
VERTEX
5
369
8
EBENE_1
6
BYLAYER
62
7
10
-291.429337817
20
687.923566012
30
0
0
VERTEX
5
36A
8
EBENE_1
6
BYLAYER
62
7
10
-291.093679152
20
686.650292321
30
0
0
VERTEX
5
36B
8
EBENE_1
6
BYLAYER
62
7
10
-290.637825323
20
685.388252165
30
0
0
VERTEX
5
36C
8
EBENE_1
6
BYLAYER
62
7
10
-290.077677402
20
684.13327378
30
0
0
VERTEX
5
36D
8
EBENE_1
6
BYLAYER
62
7
10
-289.429136458
20
682.881185403
30
0
0
VERTEX
5
36E
8
EBENE_1
6
BYLAYER
62
7
10
-288.708103562
20
681.627815269
30
0
0
VERTEX
5
36F
8
EBENE_1
6
BYLAYER
62
7
10
-287.930479783
20
680.368991614
30
0
0
VERTEX
5
370
8
EBENE_1
6
BYLAYER
62
7
10
-287.112166192
20
679.100542675
30
0
0
VERTEX
5
371
8
EBENE_1
6
BYLAYER
62
7
10
-286.26906386
20
677.818296688
30
0
0
VERTEX
5
372
8
EBENE_1
6
BYLAYER
62
7
10
-285.417073856
20
676.518081889
30
0
0
VERTEX
5
373
8
EBENE_1
6
BYLAYER
62
7
10
-284.572097251
20
675.195726513
30
0
0
VERTEX
5
374
8
EBENE_1
6
BYLAYER
62
7
10
-283.750035115
20
673.847058798
30
0
0
VERTEX
5
375
8
EBENE_1
6
BYLAYER
62
7
10
-282.966788519
20
672.467906979
30
0
0
VERTEX
5
376
8
EBENE_1
6
BYLAYER
62
7
10
-282.238258532
20
671.054099292
30
0
0
VERTEX
5
377
8
EBENE_1
6
BYLAYER
62
7
10
-281.580346224
20
669.601463974
30
0
0
VERTEX
5
378
8
EBENE_1
6
BYLAYER
62
7
10
-281.008952667
20
668.10582926
30
0
0
VERTEX
5
379
8
EBENE_1
6
BYLAYER
62
7
10
-280.539978931
20
666.563023387
30
0
0
VERTEX
5
37A
8
EBENE_1
6
BYLAYER
62
7
10
-280.189326084
20
664.968874591
30
0
0
VERTEX
5
37B
8
EBENE_1
6
BYLAYER
62
7
10
-279.972895199
20
663.319211108
30
0
0
VERTEX
5
37C
8
EBENE_1
6
BYLAYER
62
7
10
-279.906587345
20
661.609861173
30
0
0
VERTEX
5
37D
8
EBENE_1
6
BYLAYER
62
7
10
-280.006303592
20
659.836653024
30
0
0
VERTEX
5
37E
8
EBENE_1
6
BYLAYER
62
7
10
-280.287945011
20
657.995414896
30
0
0
VERTEX
5
37F
8
EBENE_1
6
BYLAYER
62
7
10
-280.767412672
20
656.081975025
30
0
0
VERTEX
5
380
8
EBENE_1
6
BYLAYER
62
7
10
-281.460607645
20
654.092161648
30
0
0
VERTEX
5
381
8
EBENE_1
6
BYLAYER
62
7
10
-282.383431
20
652.021803
30
0
0
SEQEND
5
382
8
EBENE_1
6
BYLAYER
62
7
0
POLYLINE
5
383
8
EBENE_1
6
BYLAYER
62
7
66
1
10
0
20
0
30
0
70
0
0
VERTEX
5
384
8
EBENE_1
6
BYLAYER
62
7
10
-282.383431
20
652.021803
30
0
0
VERTEX
5
385
8
EBENE_1
6
BYLAYER
62
7
10
-283.509853571
20
649.967690027
30
0
0
VERTEX
5
386
8
EBENE_1
6
BYLAYER
62
7
10
-284.690170489
20
648.169941008
30
0
0
VERTEX
5
387
8
EBENE_1
6
BYLAYER
62
7
10
-285.920361141
20
646.612775793
30
0
0
VERTEX
5
388
8
EBENE_1
6
BYLAYER
62
7
10
-287.196404914
20
645.280414232
30
0
0
VERTEX
5
389
8
EBENE_1
6
BYLAYER
62
7
10
-288.514281197
20
644.157076175
30
0
0
VERTEX
5
38A
8
EBENE_1
6
BYLAYER
62
7
10
-289.869969375
20
643.226981471
30
0
0
VERTEX
5
38B
8
EBENE_1
6
BYLAYER
62
7
10
-291.259448836
20
642.474349972
30
0
0
VERTEX
5
38C
8
EBENE_1
6
BYLAYER
62
7
10
-292.678698969
20
641.883401526
30
0
0
VERTEX
5
38D
8
EBENE_1
6
BYLAYER
62
7
10
-294.123699159
20
641.438355984
30
0
0
VERTEX
5
38E
8
EBENE_1
6
BYLAYER
62
7
10
-295.590428795
20
641.123433195
30
0
0
VERTEX
5
38F
8
EBENE_1
6
BYLAYER
62
7
10
-297.074867264
20
640.92285301
30
0
0
VERTEX
5
390
8
EBENE_1
6
BYLAYER
62
7
10
-298.572993952
20
640.820835279
30
0
0
VERTEX
5
391
8
EBENE_1
6
BYLAYER
62
7
10
-300.080788248
20
640.801599851
30
0
0
VERTEX
5
392
8
EBENE_1
6
BYLAYER
62
7
10
-301.594229539
20
640.849366577
30
0
0
VERTEX
5
393
8
EBENE_1
6
BYLAYER
62
7
10
-303.109297212
20
640.948355306
30
0
0
VERTEX
5
394
8
EBENE_1
6
BYLAYER
62
7
10
-304.621970654
20
641.082785889
30
0
0
VERTEX
5
395
8
EBENE_1
6
BYLAYER
62
7
10
-306.128229253
20
641.236878174
30
0
0
VERTEX
5
396
8
EBENE_1
6
BYLAYER
62
7
10
-307.624052396
20
641.394852013
30
0
0
VERTEX
5
397
8
EBENE_1
6
BYLAYER
62
7
10
-309.10541947
20
641.540927256
30
0
0
VERTEX
5
398
8
EBENE_1
6
BYLAYER
62
7
10
-310.568309863
20
641.659323751
30
0
0
VERTEX
5
399
8
EBENE_1
6
BYLAYER
62
7
10
-312.008702963
20
641.73426135
30
0
0
VERTEX
5
39A
8
EBENE_1
6
BYLAYER
62
7
10
-313.422578155
20
641.749959902
30
0
0
VERTEX
5
39B
8
EBENE_1
6
BYLAYER
62
7
10
-314.805914828
20
641.690639257
30
0
0
VERTEX
5
39C
8
EBENE_1
6
BYLAYER
62
7
10
-316.15469237
20
641.540519264
30
0
0
VERTEX
5
39D
8
EBENE_1
6
BYLAYER
62
7
10
-317.464890166
20
641.283819775
30
0
0
VERTEX
5
39E
8
EBENE_1
6
BYLAYER
62
7
10
-318.732487606
20
640.904760639
30
0
0
VERTEX
5
39F
8
EBENE_1
6
BYLAYER
62
7
10
-319.953464075
20
640.387561706
30
0
0
VERTEX
5
3A0
8
EBENE_1
6
BYLAYER
62
7
10
-321.123798962
20
639.716442825
30
0
0
VERTEX
5
3A1
8
EBENE_1
6
BYLAYER
62
7
10
-322.239471654
20
638.875623847
30
0
0
VERTEX
5
3A2
8
EBENE_1
6
BYLAYER
62
7
10
-323.296461537
20
637.849324622
30
0
0
VERTEX
5
3A3
8
EBENE_1
6
BYLAYER
62
7
10
-324.290748
20
636.621765
30
0
0
SEQEND
5
3A4
8
EBENE_1
6
BYLAYER
62
7
0
POLYLINE
5
3A5
8
EBENE_1
6
BYLAYER
62
7
66
1
10
0
20
0
30
0
70
1
0
VERTEX
5
3A6
8
EBENE_1
6
BYLAYER
62
7
10
-224.325586
20
700.17319
30
0
0
VERTEX
5
3A7
8
EBENE_1
6
BYLAYER
62
7
10
-228.978619
20
693.688964
30
0
0
SEQEND
5
3A8
8
EBENE_1
6
BYLAYER
62
7
0
POLYLINE
5
3A9
8
EBENE_1
6
BYLAYER
62
7
66
1
10
0
20
0
30
0
70
1
0
VERTEX
5
3AA
8
EBENE_1
6
BYLAYER
62
7
10
-324.290748
20
636.621765
30
0
0
VERTEX
5
3AB
8
EBENE_1
6
BYLAYER
62
7
10
-324.290748
20
636.621765
30
0
0
SEQEND
5
3AC
8
EBENE_1
6
BYLAYER
62
7
0
ENDSEC
0
EOF
