  0
SECTION
  2
HEADER
  9
$ACADVER
  1
AC1009
  9
$EXTMIN
 10
0.0
 20
0.0
 30
0.0
  9
$EXTMAX
 10
1000.0
 20
1000.0
 30
0.0
  9
$FILLMODE
 70
 0
  9
$SPLFRAME
 70
 1
  0
ENDSEC
  0
SECTION
  2
TABLES
  0
TABLE
  2
LAYER
 70
1
  0
LAYER
  2
0
 70
     0
 62
     7
  6
CONTINUOUS
  0
ENDTAB
  0
ENDSEC
  0
SECTION
  2
ENTITIES
  0
POLYLINE
  8
0
 62
     0
 66
     1
 10
0
 20
0
 30
0.0
 70
     1
 40
0
 41
0
  0
VERTEX
  8
0
 10
2.81972
 20
16.4474
 30
0.0
 40
0
 41
0
  0
VERTEX
  8
0
 10
3.20383
 20
16.4474
 30
0.0
 40
0
 41
0
  0
VERTEX
  8
0
 10
3.20383
 20
16.3783
 30
0.0
 40
0
 41
0
  0
VERTEX
  8
0
 10
2.90196
 20
16.3783
 30
0.0
 40
0
 41
0
  0
VERTEX
  8
0
 10
2.90196
 20
16.1985
 30
0.0
 40
0
 41
0
  0
VERTEX
  8
0
 10
3.19125
 20
16.1985
 30
0.0
 40
0
 41
0
  0
VERTEX
  8
0
 10
3.19125
 20
16.1292
 30
0.0
 40
0
 41
0
  0
VERTEX
  8
0
 10
2.90196
 20
16.1292
 30
0.0
 40
0
 41
0
  0
VERTEX
  8
0
 10
2.90196
 20
15.9092
 30
0.0
 40
0
 41
0
  0
VERTEX
  8
0
 10
3.21121
 20
15.9092
 30
0.0
 40
0
 41
0
  0
VERTEX
  8
0
 10
3.21121
 20
15.84
 30
0.0
 40
0
 41
0
  0
VERTEX
  8
0
 10
2.81972
 20
15.84
 30
0.0
 40
0
 41
0
  0
VERTEX
  8
0
 10
2.81972
 20
16.4474
 30
0.0
 40
0
 41
0
  0
SEQEND
 8
0
  0
POLYLINE
  8
0
 62
     0
 66
     1
 10
0
 20
0
 30
0.0
 70
     1
 40
0
 41
0
  0
VERTEX
  8
0
 10
4.56435
 20
16.4276
 30
0.0
 40
0
 41
0
  0
VERTEX
  8
0
 10
4.56435
 20
16.3474
 30
0.0
 40
0
 41
0
  0
VERTEX
  8
0
 10
4.47601
 20
16.3807
 30
0.0
 40
0
 41
0
  0
VERTEX
  8
0
 10
4.39594
 20
16.3918
 30
0.0
 40
0
 41
0
  0
VERTEX
  8
0
 10
4.33632
 20
16.3853
 30
0.0
 40
0
 41
0
  0
VERTEX
  8
0
 10
4.29221
 20
16.3657
 30
0.0
 40
0
 41
0
  0
VERTEX
  8
0
 10
4.26497
 20
16.3342
 30
0.0
 40
0
 41
0
  0
VERTEX
  8
0
 10
4.25597
 20
16.2915
 30
0.0
 40
0
 41
0
  0
VERTEX
  8
0
 10
4.26199
 20
16.2562
 30
0.0
 40
0
 41
0
  0
VERTEX
  8
0
 10
4.28006
 20
16.2308
 30
0.0
 40
0
 41
0
  0
VERTEX
  8
0
 10
4.31511
 20
16.2122
 30
0.0
 40
0
 41
0
  0
VERTEX
  8
0
 10
4.37185
 20
16.1976
 30
0.0
 40
0
 41
0
  0
VERTEX
  8
0
 10
4.42156
 20
16.1874
 30
0.0
 40
0
 41
0
  0
VERTEX
  8
0
 10
4.50142
 20
16.1633
 30
0.0
 40
0
 41
0
  0
VERTEX
  8
0
 10
4.55718
 20
16.1257
 30
0.0
 40
0
 41
0
  0
VERTEX
  8
0
 10
4.59
 20
16.0742
 30
0.0
 40
0
 41
0
  0
VERTEX
  8
0
 10
4.60101
 20
16.0076
 30
0.0
 40
0
 41
0
  0
VERTEX
  8
0
 10
4.58621
 20
15.93
 30
0.0
 40
0
 41
0
  0
VERTEX
  8
0
 10
4.54178
 20
15.8738
 30
0.0
 40
0
 41
0
  0
VERTEX
  8
0
 10
4.46869
 20
15.8396
 30
0.0
 40
0
 41
0
  0
VERTEX
  8
0
 10
4.36817
 20
15.8282
 30
0.0
 40
0
 41
0
  0
VERTEX
  8
0
 10
4.27636
 20
15.8379
 30
0.0
 40
0
 41
0
  0
VERTEX
  8
0
 10
4.17567
 20
15.8668
 30
0.0
 40
0
 41
0
  0
VERTEX
  8
0
 10
4.17567
 20
15.9515
 30
0.0
 40
0
 41
0
  0
VERTEX
  8
0
 10
4.27376
 20
15.909
 30
0.0
 40
0
 41
0
  0
VERTEX
  8
0
 10
4.36817
 20
15.8949
 30
0.0
 40
0
 41
0
  0
VERTEX
  8
0
 10
4.43056
 20
15.9018
 30
0.0
 40
0
 41
0
  0
VERTEX
  8
0
 10
4.47689
 20
15.9224
 30
0.0
 40
0
 41
0
  0
VERTEX
  8
0
 10
4.50549
 20
15.9561
 30
0.0
 40
0
 41
0
  0
VERTEX
  8
0
 10
4.51508
 20
16.0014
 30
0.0
 40
0
 41
0
  0
VERTEX
  8
0
 10
4.50814
 20
16.0414
 30
0.0
 40
0
 41
0
  0
VERTEX
  8
0
 10
4.48753
 20
16.0715
 30
0.0
 40
0
 41
0
  0
VERTEX
  8
0
 10
4.45128
 20
16.0935
 30
0.0
 40
0
 41
0
  0
VERTEX
  8
0
 10
4.39746
 20
16.1093
 30
0.0
 40
0
 41
0
  0
VERTEX
  8
0
 10
4.34754
 20
16.119
 30
0.0
 40
0
 41
0
  0
VERTEX
  8
0
 10
4.26818
 20
16.1426
 30
0.0
 40
0
 41
0
  0
VERTEX
  8
0
 10
4.21431
 20
16.1765
 30
0.0
 40
0
 41
0
  0
VERTEX
  8
0
 10
4.18354
 20
16.2232
 30
0.0
 40
0
 41
0
  0
VERTEX
  8
0
 10
4.17329
 20
16.285
 30
0.0
 40
0
 41
0
  0
VERTEX
  8
0
 10
4.18744
 20
16.3571
 30
0.0
 40
0
 41
0
  0
VERTEX
  8
0
 10
4.22993
 20
16.4119
 30
0.0
 40
0
 41
0
  0
VERTEX
  8
0
 10
4.29747
 20
16.4468
 30
0.0
 40
0
 41
0
  0
VERTEX
  8
0
 10
4.38661
 20
16.4585
 30
0.0
 40
0
 41
0
  0
VERTEX
  8
0
 10
4.47364
 20
16.4507
 30
0.0
 40
0
 41
0
  0
VERTEX
  8
0
 10
4.56435
 20
16.4276
 30
0.0
 40
0
 41
0
  0
SEQEND
 8
0
  0
POLYLINE
  8
0
 62
     0
 66
     1
 10
0
 20
0
 30
0.0
 70
     1
 40
0
 41
0
  0
VERTEX
  8
0
 10
2.79275
 20
15.0665
 30
0.0
 40
0
 41
0
  0
VERTEX
  8
0
 10
3.26997
 20
15.0665
 30
0.0
 40
0
 41
0
  0
VERTEX
  8
0
 10
3.26997
 20
15.004
 30
0.0
 40
0
 41
0
  0
VERTEX
  8
0
 10
2.88585
 20
14.5283
 30
0.0
 40
0
 41
0
  0
VERTEX
  8
0
 10
3.27929
 20
14.5283
 30
0.0
 40
0
 41
0
  0
VERTEX
  8
0
 10
3.27929
 20
14.459
 30
0.0
 40
0
 41
0
  0
VERTEX
  8
0
 10
2.78342
 20
14.459
 30
0.0
 40
0
 41
0
  0
VERTEX
  8
0
 10
2.78342
 20
14.5218
 30
0.0
 40
0
 41
0
  0
VERTEX
  8
0
 10
3.16754
 20
14.9975
 30
0.0
 40
0
 41
0
  0
VERTEX
  8
0
 10
2.79275
 20
14.9975
 30
0.0
 40
0
 41
0
  0
VERTEX
  8
0
 10
2.79275
 20
15.0665
 30
0.0
 40
0
 41
0
  0
SEQEND
 8
0
  0
POLYLINE
  8
0
 62
     0
 66
     1
 10
0
 20
0
 30
0.0
 70
     1
 40
0
 41
0
  0
VERTEX
  8
0
 10
4.20057
 20
15.0665
 30
0.0
 40
0
 41
0
  0
VERTEX
  8
0
 10
4.58469
 20
15.0665
 30
0.0
 40
0
 41
0
  0
VERTEX
  8
0
 10
4.58469
 20
14.9975
 30
0.0
 40
0
 41
0
  0
VERTEX
  8
0
 10
4.28282
 20
14.9975
 30
0.0
 40
0
 41
0
  0
VERTEX
  8
0
 10
4.28282
 20
14.8176
 30
0.0
 40
0
 41
0
  0
VERTEX
  8
0
 10
4.5721
 20
14.8176
 30
0.0
 40
0
 41
0
  0
VERTEX
  8
0
 10
4.5721
 20
14.7483
 30
0.0
 40
0
 41
0
  0
VERTEX
  8
0
 10
4.28282
 20
14.7483
 30
0.0
 40
0
 41
0
  0
VERTEX
  8
0
 10
4.28282
 20
14.5283
 30
0.0
 40
0
 41
0
  0
VERTEX
  8
0
 10
4.59207
 20
14.5283
 30
0.0
 40
0
 41
0
  0
VERTEX
  8
0
 10
4.59207
 20
14.459
 30
0.0
 40
0
 41
0
  0
VERTEX
  8
0
 10
4.20057
 20
14.459
 30
0.0
 40
0
 41
0
  0
VERTEX
  8
0
 10
4.20057
 20
15.0665
 30
0.0
 40
0
 41
0
  0
SEQEND
 8
0
  0
POLYLINE
  8
0
 62
     0
 66
     1
 10
0
 20
0
 30
0.0
 70
     1
 40
0
 41
0
  0
VERTEX
  8
0
 10
5.56635
 20
16.4474
 30
0.0
 40
0
 41
0
  0
VERTEX
  8
0
 10
5.6486
 20
16.4474
 30
0.0
 40
0
 41
0
  0
VERTEX
  8
0
 10
5.6486
 20
16.1907
 30
0.0
 40
0
 41
0
  0
VERTEX
  8
0
 10
5.92117
 20
16.4474
 30
0.0
 40
0
 41
0
  0
VERTEX
  8
0
 10
6.02686
 20
16.4474
 30
0.0
 40
0
 41
0
  0
VERTEX
  8
0
 10
5.72542
 20
16.1642
 30
0.0
 40
0
 41
0
  0
VERTEX
  8
0
 10
6.04856
 20
15.84
 30
0.0
 40
0
 41
0
  0
VERTEX
  8
0
 10
5.94026
 20
15.84
 30
0.0
 40
0
 41
0
  0
VERTEX
  8
0
 10
5.6486
 20
16.1325
 30
0.0
 40
0
 41
0
  0
VERTEX
  8
0
 10
5.6486
 20
15.84
 30
0.0
 40
0
 41
0
  0
VERTEX
  8
0
 10
5.56635
 20
15.84
 30
0.0
 40
0
 41
0
  0
VERTEX
  8
0
 10
5.56635
 20
16.4474
 30
0.0
 40
0
 41
0
  0
SEQEND
 8
0
  0
POLYLINE
  8
0
 62
     0
 66
     1
 10
0
 20
0
 30
0.0
 70
     1
 40
0
 41
0
  0
VERTEX
  8
0
 10
7.08664
 20
16.4474
 30
0.0
 40
0
 41
0
  0
VERTEX
  8
0
 10
7.16889
 20
16.4474
 30
0.0
 40
0
 41
0
  0
VERTEX
  8
0
 10
7.16889
 20
15.84
 30
0.0
 40
0
 41
0
  0
VERTEX
  8
0
 10
7.08664
 20
15.84
 30
0.0
 40
0
 41
0
  0
VERTEX
  8
0
 10
7.08664
 20
16.4474
 30
0.0
 40
0
 41
0
  0
SEQEND
 8
0
  0
POLYLINE
  8
0
 62
     0
 66
     1
 10
0
 20
0
 30
0.0
 70
     1
 40
0
 41
0
  0
VERTEX
  8
0
 10
8.70692
 20
16.4276
 30
0.0
 40
0
 41
0
  0
VERTEX
  8
0
 10
8.70692
 20
16.3474
 30
0.0
 40
0
 41
0
  0
VERTEX
  8
0
 10
8.6186
 20
16.3807
 30
0.0
 40
0
 41
0
  0
VERTEX
  8
0
 10
8.53851
 20
16.3918
 30
0.0
 40
0
 41
0
  0
VERTEX
  8
0
 10
8.47889
 20
16.3853
 30
0.0
 40
0
 41
0
  0
VERTEX
  8
0
 10
8.43479
 20
16.3657
 30
0.0
 40
0
 41
0
  0
VERTEX
  8
0
 10
8.40756
 20
16.3342
 30
0.0
 40
0
 41
0
  0
VERTEX
  8
0
 10
8.39854
 20
16.2915
 30
0.0
 40
0
 41
0
  0
VERTEX
  8
0
 10
8.40457
 20
16.2562
 30
0.0
 40
0
 41
0
  0
VERTEX
  8
0
 10
8.42264
 20
16.2308
 30
0.0
 40
0
 41
0
  0
VERTEX
  8
0
 10
8.45768
 20
16.2122
 30
0.0
 40
0
 41
0
  0
VERTEX
  8
0
 10
8.51443
 20
16.1976
 30
0.0
 40
0
 41
0
  0
VERTEX
  8
0
 10
8.56413
 20
16.1874
 30
0.0
 40
0
 41
0
  0
VERTEX
  8
0
 10
8.64399
 20
16.1633
 30
0.0
 40
0
 41
0
  0
VERTEX
  8
0
 10
8.69976
 20
16.1257
 30
0.0
 40
0
 41
0
  0
VERTEX
  8
0
 10
8.73258
 20
16.0742
 30
0.0
 40
0
 41
0
  0
VERTEX
  8
0
 10
8.7436
 20
16.0076
 30
0.0
 40
0
 41
0
  0
VERTEX
  8
0
 10
8.72879
 20
15.93
 30
0.0
 40
0
 41
0
  0
VERTEX
  8
0
 10
8.68435
 20
15.8738
 30
0.0
 40
0
 41
0
  0
VERTEX
  8
0
 10
8.61128
 20
15.8396
 30
0.0
 40
0
 41
0
  0
VERTEX
  8
0
 10
8.51074
 20
15.8282
 30
0.0
 40
0
 41
0
  0
VERTEX
  8
0
 10
8.41894
 20
15.8379
 30
0.0
 40
0
 41
0
  0
VERTEX
  8
0
 10
8.31825
 20
15.8668
 30
0.0
 40
0
 41
0
  0
VERTEX
  8
0
 10
8.31825
 20
15.9515
 30
0.0
 40
0
 41
0
  0
VERTEX
  8
0
 10
8.41635
 20
15.909
 30
0.0
 40
0
 41
0
  0
VERTEX
  8
0
 10
8.51074
 20
15.8949
 30
0.0
 40
0
 41
0
  0
VERTEX
  8
0
 10
8.57314
 20
15.9018
 30
0.0
 40
0
 41
0
  0
VERTEX
  8
0
 10
8.61947
 20
15.9224
 30
0.0
 40
0
 41
0
  0
VERTEX
  8
0
 10
8.64806
 20
15.9561
 30
0.0
 40
0
 41
0
  0
VERTEX
  8
0
 10
8.65767
 20
16.0014
 30
0.0
 40
0
 41
0
  0
VERTEX
  8
0
 10
8.65072
 20
16.0414
 30
0.0
 40
0
 41
0
  0
VERTEX
  8
0
 10
8.6301
 20
16.0715
 30
0.0
 40
0
 41
0
  0
VERTEX
  8
0
 10
8.59386
 20
16.0935
 30
0.0
 40
0
 41
0
  0
VERTEX
  8
0
 10
8.54004
 20
16.1093
 30
0.0
 40
0
 41
0
  0
VERTEX
  8
0
 10
8.49013
 20
16.119
 30
0.0
 40
0
 41
0
  0
VERTEX
  8
0
 10
8.41075
 20
16.1426
 30
0.0
 40
0
 41
0
  0
VERTEX
  8
0
 10
8.35688
 20
16.1765
 30
0.0
 40
0
 41
0
  0
VERTEX
  8
0
 10
8.32611
 20
16.2232
 30
0.0
 40
0
 41
0
  0
VERTEX
  8
0
 10
8.31586
 20
16.285
 30
0.0
 40
0
 41
0
  0
VERTEX
  8
0
 10
8.33003
 20
16.3571
 30
0.0
 40
0
 41
0
  0
VERTEX
  8
0
 10
8.3725
 20
16.4119
 30
0.0
 40
0
 41
0
  0
VERTEX
  8
0
 10
8.44006
 20
16.4468
 30
0.0
 40
0
 41
0
  0
VERTEX
  8
0
 10
8.52919
 20
16.4585
 30
0.0
 40
0
 41
0
  0
VERTEX
  8
0
 10
8.61621
 20
16.4507
 30
0.0
 40
0
 41
0
  0
VERTEX
  8
0
 10
8.70692
 20
16.4276
 30
0.0
 40
0
 41
0
  0
SEQEND
 8
0
  0
POLYLINE
  8
0
 62
     0
 66
     1
 10
0
 20
0
 30
0.0
 70
     1
 40
0
 41
0
  0
VERTEX
  8
0
 10
9.64643
 20
16.4474
 30
0.0
 40
0
 41
0
  0
VERTEX
  8
0
 10
10.1603
 20
16.4474
 30
0.0
 40
0
 41
0
  0
VERTEX
  8
0
 10
10.1603
 20
16.3783
 30
0.0
 40
0
 41
0
  0
VERTEX
  8
0
 10
9.94461
 20
16.3783
 30
0.0
 40
0
 41
0
  0
VERTEX
  8
0
 10
9.94461
 20
15.84
 30
0.0
 40
0
 41
0
  0
VERTEX
  8
0
 10
9.86214
 20
15.84
 30
0.0
 40
0
 41
0
  0
VERTEX
  8
0
 10
9.86214
 20
16.3783
 30
0.0
 40
0
 41
0
  0
VERTEX
  8
0
 10
9.64643
 20
16.3783
 30
0.0
 40
0
 41
0
  0
VERTEX
  8
0
 10
9.64643
 20
16.4474
 30
0.0
 40
0
 41
0
  0
SEQEND
 8
0
  0
POLYLINE
  8
0
 62
     0
 66
     1
 10
0
 20
0
 30
0.0
 70
     1
 40
0
 41
0
  0
VERTEX
  8
0
 10
11.008
 20
16.4474
 30
0.0
 40
0
 41
0
  0
VERTEX
  8
0
 10
11.0963
 20
16.4474
 30
0.0
 40
0
 41
0
  0
VERTEX
  8
0
 10
11.2649
 20
16.1976
 30
0.0
 40
0
 41
0
  0
VERTEX
  8
0
 10
11.432
 20
16.4474
 30
0.0
 40
0
 41
0
  0
VERTEX
  8
0
 10
11.5203
 20
16.4474
 30
0.0
 40
0
 41
0
  0
VERTEX
  8
0
 10
11.3055
 20
16.1292
 30
0.0
 40
0
 41
0
  0
VERTEX
  8
0
 10
11.3055
 20
15.84
 30
0.0
 40
0
 41
0
  0
VERTEX
  8
0
 10
11.223
 20
15.84
 30
0.0
 40
0
 41
0
  0
VERTEX
  8
0
 10
11.223
 20
16.1292
 30
0.0
 40
0
 41
0
  0
VERTEX
  8
0
 10
11.008
 20
16.4474
 30
0.0
 40
0
 41
0
  0
SEQEND
 8
0
  0
POLYLINE
  8
0
 62
     0
 66
     1
 10
0
 20
0
 30
0.0
 70
     1
 40
0
 41
0
  0
VERTEX
  8
0
 10
12.4999
 20
16.4474
 30
0.0
 40
0
 41
0
  0
VERTEX
  8
0
 10
12.8491
 20
16.4474
 30
0.0
 40
0
 41
0
  0
VERTEX
  8
0
 10
12.8491
 20
16.3783
 30
0.0
 40
0
 41
0
  0
VERTEX
  8
0
 10
12.5821
 20
16.3783
 30
0.0
 40
0
 41
0
  0
VERTEX
  8
0
 10
12.5821
 20
16.1993
 30
0.0
 40
0
 41
0
  0
VERTEX
  8
0
 10
12.823
 20
16.1993
 30
0.0
 40
0
 41
0
  0
VERTEX
  8
0
 10
12.823
 20
16.1301
 30
0.0
 40
0
 41
0
  0
VERTEX
  8
0
 10
12.5821
 20
16.1301
 30
0.0
 40
0
 41
0
  0
VERTEX
  8
0
 10
12.5821
 20
15.84
 30
0.0
 40
0
 41
0
  0
VERTEX
  8
0
 10
12.4999
 20
15.84
 30
0.0
 40
0
 41
0
  0
VERTEX
  8
0
 10
12.4999
 20
16.4474
 30
0.0
 40
0
 41
0
  0
SEQEND
 8
0
  0
POLYLINE
  8
0
 62
     0
 66
     1
 10
0
 20
0
 30
0.0
 70
     1
 40
0
 41
0
  0
VERTEX
  8
0
 10
13.849
 20
16.4089
 30
0.0
 40
0
 41
0
  0
VERTEX
  8
0
 10
13.9315
 20
16.4089
 30
0.0
 40
0
 41
0
  0
VERTEX
  8
0
 10
13.9315
 20
16.04
 30
0.0
 40
0
 41
0
  0
VERTEX
  8
0
 10
13.9403
 20
15.956
 30
0.0
 40
0
 41
0
  0
VERTEX
  8
0
 10
13.9668
 20
15.8993
 30
0.0
 40
0
 41
0
  0
VERTEX
  8
0
 10
14.0133
 20
15.8671
 30
0.0
 40
0
 41
0
  0
VERTEX
  8
0
 10
14.0817
 20
15.8564
 30
0.0
 40
0
 41
0
  0
VERTEX
  8
0
 10
14.1497
 20
15.8671
 30
0.0
 40
0
 41
0
  0
VERTEX
  8
0
 10
14.196
 20
15.8993
 30
0.0
 40
0
 41
0
  0
VERTEX
  8
0
 10
14.2225
 20
15.956
 30
0.0
 40
0
 41
0
  0
VERTEX
  8
0
 10
14.2314
 20
16.04
 30
0.0
 40
0
 41
0
  0
VERTEX
  8
0
 10
14.2314
 20
16.4089
 30
0.0
 40
0
 41
0
  0
VERTEX
  8
0
 10
14.314
 20
16.4089
 30
0.0
 40
0
 41
0
  0
VERTEX
  8
0
 10
14.314
 20
16.0297
 30
0.0
 40
0
 41
0
  0
VERTEX
  8
0
 10
14.3104
 20
15.9739
 30
0.0
 40
0
 41
0
  0
VERTEX
  8
0
 10
14.2993
 20
15.9254
 30
0.0
 40
0
 41
0
  0
VERTEX
  8
0
 10
14.281
 20
15.8842
 30
0.0
 40
0
 41
0
  0
VERTEX
  8
0
 10
14.2553
 20
15.8503
 30
0.0
 40
0
 41
0
  0
VERTEX
  8
0
 10
14.2224
 20
15.8238
 30
0.0
 40
0
 41
0
  0
VERTEX
  8
0
 10
14.1824
 20
15.8049
 30
0.0
 40
0
 41
0
  0
VERTEX
  8
0
 10
14.1356
 20
15.7935
 30
0.0
 40
0
 41
0
  0
VERTEX
  8
0
 10
14.0817
 20
15.7897
 30
0.0
 40
0
 41
0
  0
VERTEX
  8
0
 10
14.0276
 20
15.7935
 30
0.0
 40
0
 41
0
  0
VERTEX
  8
0
 10
13.9807
 20
15.8049
 30
0.0
 40
0
 41
0
  0
VERTEX
  8
0
 10
13.9407
 20
15.8238
 30
0.0
 40
0
 41
0
  0
VERTEX
  8
0
 10
13.9078
 20
15.8503
 30
0.0
 40
0
 41
0
  0
VERTEX
  8
0
 10
13.8821
 20
15.8842
 30
0.0
 40
0
 41
0
  0
VERTEX
  8
0
 10
13.8637
 20
15.9254
 30
0.0
 40
0
 41
0
  0
VERTEX
  8
0
 10
13.8527
 20
15.9739
 30
0.0
 40
0
 41
0
  0
VERTEX
  8
0
 10
13.849
 20
16.0297
 30
0.0
 40
0
 41
0
  0
VERTEX
  8
0
 10
13.849
 20
16.4089
 30
0.0
 40
0
 41
0
  0
SEQEND
 8
0
  0
POLYLINE
  8
0
 62
     0
 66
     1
 10
0
 20
0
 30
0.0
 70
     1
 40
0
 41
0
  0
VERTEX
  8
0
 10
14.1203
 20
16.5633
 30
0.0
 40
0
 41
0
  0
VERTEX
  8
0
 10
14.2029
 20
16.5633
 30
0.0
 40
0
 41
0
  0
VERTEX
  8
0
 10
14.2029
 20
16.4807
 30
0.0
 40
0
 41
0
  0
VERTEX
  8
0
 10
14.1203
 20
16.4807
 30
0.0
 40
0
 41
0
  0
VERTEX
  8
0
 10
14.1203
 20
16.5633
 30
0.0
 40
0
 41
0
  0
SEQEND
 8
0
  0
POLYLINE
  8
0
 62
     0
 66
     1
 10
0
 20
0
 30
0.0
 70
     1
 40
0
 41
0
  0
VERTEX
  8
0
 10
13.9613
 20
16.5633
 30
0.0
 40
0
 41
0
  0
VERTEX
  8
0
 10
14.0439
 20
16.5633
 30
0.0
 40
0
 41
0
  0
VERTEX
  8
0
 10
14.0439
 20
16.4807
 30
0.0
 40
0
 41
0
  0
VERTEX
  8
0
 10
13.9613
 20
16.4807
 30
0.0
 40
0
 41
0
  0
VERTEX
  8
0
 10
13.9613
 20
16.5633
 30
0.0
 40
0
 41
0
  0
SEQEND
 8
0
  0
POLYLINE
  8
0
 62
     0
 66
     1
 10
0
 20
0
 30
0.0
 70
     1
 40
0
 41
0
  0
VERTEX
  8
0
 10
15.2397
 20
16.4474
 30
0.0
 40
0
 41
0
  0
VERTEX
  8
0
 10
15.3504
 20
16.4474
 30
0.0
 40
0
 41
0
  0
VERTEX
  8
0
 10
15.6197
 20
15.9393
 30
0.0
 40
0
 41
0
  0
VERTEX
  8
0
 10
15.6197
 20
16.4474
 30
0.0
 40
0
 41
0
  0
VERTEX
  8
0
 10
15.6996
 20
16.4474
 30
0.0
 40
0
 41
0
  0
VERTEX
  8
0
 10
15.6996
 20
15.84
 30
0.0
 40
0
 41
0
  0
VERTEX
  8
0
 10
15.5889
 20
15.84
 30
0.0
 40
0
 41
0
  0
VERTEX
  8
0
 10
15.3193
 20
16.3482
 30
0.0
 40
0
 41
0
  0
VERTEX
  8
0
 10
15.3193
 20
15.84
 30
0.0
 40
0
 41
0
  0
VERTEX
  8
0
 10
15.2397
 20
15.84
 30
0.0
 40
0
 41
0
  0
VERTEX
  8
0
 10
15.2397
 20
16.4474
 30
0.0
 40
0
 41
0
  0
SEQEND
 8
0
  0
POLYLINE
  8
0
 62
     0
 66
     1
 10
0
 20
0
 30
0.0
 70
     1
 40
0
 41
0
  0
VERTEX
  8
0
 10
16.6425
 20
16.4474
 30
0.0
 40
0
 41
0
  0
VERTEX
  8
0
 10
16.9917
 20
16.4474
 30
0.0
 40
0
 41
0
  0
VERTEX
  8
0
 10
16.9917
 20
16.3783
 30
0.0
 40
0
 41
0
  0
VERTEX
  8
0
 10
16.7247
 20
16.3783
 30
0.0
 40
0
 41
0
  0
VERTEX
  8
0
 10
16.7247
 20
16.1993
 30
0.0
 40
0
 41
0
  0
VERTEX
  8
0
 10
16.9657
 20
16.1993
 30
0.0
 40
0
 41
0
  0
VERTEX
  8
0
 10
16.9657
 20
16.1301
 30
0.0
 40
0
 41
0
  0
VERTEX
  8
0
 10
16.7247
 20
16.1301
 30
0.0
 40
0
 41
0
  0
VERTEX
  8
0
 10
16.7247
 20
15.84
 30
0.0
 40
0
 41
0
  0
VERTEX
  8
0
 10
16.6425
 20
15.84
 30
0.0
 40
0
 41
0
  0
VERTEX
  8
0
 10
16.6425
 20
16.4474
 30
0.0
 40
0
 41
0
  0
SEQEND
 8
0
  0
POLYLINE
  8
0
 62
     0
 66
     1
 10
0
 20
0
 30
0.0
 70
     1
 40
0
 41
0
  0
VERTEX
  8
0
 10
5.57319
 20
15.0665
 30
0.0
 40
0
 41
0
  0
VERTEX
  8
0
 10
5.65543
 20
15.0665
 30
0.0
 40
0
 41
0
  0
VERTEX
  8
0
 10
5.65543
 20
14.8176
 30
0.0
 40
0
 41
0
  0
VERTEX
  8
0
 10
5.95404
 20
14.8176
 30
0.0
 40
0
 41
0
  0
VERTEX
  8
0
 10
5.95404
 20
15.0665
 30
0.0
 40
0
 41
0
  0
VERTEX
  8
0
 10
6.03629
 20
15.0665
 30
0.0
 40
0
 41
0
  0
VERTEX
  8
0
 10
6.03629
 20
14.459
 30
0.0
 40
0
 41
0
  0
VERTEX
  8
0
 10
5.95404
 20
14.459
 30
0.0
 40
0
 41
0
  0
VERTEX
  8
0
 10
5.95404
 20
14.7483
 30
0.0
 40
0
 41
0
  0
VERTEX
  8
0
 10
5.65543
 20
14.7483
 30
0.0
 40
0
 41
0
  0
VERTEX
  8
0
 10
5.65543
 20
14.459
 30
0.0
 40
0
 41
0
  0
VERTEX
  8
0
 10
5.57319
 20
14.459
 30
0.0
 40
0
 41
0
  0
VERTEX
  8
0
 10
5.57319
 20
15.0665
 30
0.0
 40
0
 41
0
  0
SEQEND
 8
0
  0
POLYLINE
  8
0
 62
     0
 66
     1
 10
0
 20
0
 30
0.0
 70
     1
 40
0
 41
0
  0
VERTEX
  8
0
 10
6.95449
 20
15.0665
 30
0.0
 40
0
 41
0
  0
VERTEX
  8
0
 10
7.06515
 20
15.0665
 30
0.0
 40
0
 41
0
  0
VERTEX
  8
0
 10
7.33447
 20
14.5585
 30
0.0
 40
0
 41
0
  0
VERTEX
  8
0
 10
7.33447
 20
15.0665
 30
0.0
 40
0
 41
0
  0
VERTEX
  8
0
 10
7.41433
 20
15.0665
 30
0.0
 40
0
 41
0
  0
VERTEX
  8
0
 10
7.41433
 20
14.459
 30
0.0
 40
0
 41
0
  0
VERTEX
  8
0
 10
7.30365
 20
14.459
 30
0.0
 40
0
 41
0
  0
VERTEX
  8
0
 10
7.03413
 20
14.9674
 30
0.0
 40
0
 41
0
  0
VERTEX
  8
0
 10
7.03413
 20
14.459
 30
0.0
 40
0
 41
0
  0
VERTEX
  8
0
 10
6.95449
 20
14.459
 30
0.0
 40
0
 41
0
  0
VERTEX
  8
0
 10
6.95449
 20
15.0665
 30
0.0
 40
0
 41
0
  0
SEQEND
 8
0
  0
POLYLINE
  8
0
 62
     0
 66
     1
 10
0
 20
0
 30
0.0
 70
     1
 40
0
 41
0
  0
VERTEX
  8
0
 10
8.31625
 20
15.0665
 30
0.0
 40
0
 41
0
  0
VERTEX
  8
0
 10
8.79346
 20
15.0665
 30
0.0
 40
0
 41
0
  0
VERTEX
  8
0
 10
8.79346
 20
15.004
 30
0.0
 40
0
 41
0
  0
VERTEX
  8
0
 10
8.40935
 20
14.5283
 30
0.0
 40
0
 41
0
  0
VERTEX
  8
0
 10
8.80279
 20
14.5283
 30
0.0
 40
0
 41
0
  0
VERTEX
  8
0
 10
8.80279
 20
14.459
 30
0.0
 40
0
 41
0
  0
VERTEX
  8
0
 10
8.30692
 20
14.459
 30
0.0
 40
0
 41
0
  0
VERTEX
  8
0
 10
8.30692
 20
14.5218
 30
0.0
 40
0
 41
0
  0
VERTEX
  8
0
 10
8.69103
 20
14.9975
 30
0.0
 40
0
 41
0
  0
VERTEX
  8
0
 10
8.31625
 20
14.9975
 30
0.0
 40
0
 41
0
  0
VERTEX
  8
0
 10
8.31625
 20
15.0665
 30
0.0
 40
0
 41
0
  0
SEQEND
 8
0
  0
POLYLINE
  8
0
 62
     0
 66
     1
 10
0
 20
0
 30
0.0
 70
     1
 40
0
 41
0
  0
VERTEX
  8
0
 10
9.57667
 20
15.0665
 30
0.0
 40
0
 41
0
  0
VERTEX
  8
0
 10
9.65956
 20
15.0665
 30
0.0
 40
0
 41
0
  0
VERTEX
  8
0
 10
9.78737
 20
14.5531
 30
0.0
 40
0
 41
0
  0
VERTEX
  8
0
 10
9.91476
 20
15.0665
 30
0.0
 40
0
 41
0
  0
VERTEX
  8
0
 10
10.007
 20
15.0665
 30
0.0
 40
0
 41
0
  0
VERTEX
  8
0
 10
10.1348
 20
14.5531
 30
0.0
 40
0
 41
0
  0
VERTEX
  8
0
 10
10.2622
 20
15.0665
 30
0.0
 40
0
 41
0
  0
VERTEX
  8
0
 10
10.3455
 20
15.0665
 30
0.0
 40
0
 41
0
  0
VERTEX
  8
0
 10
10.193
 20
14.459
 30
0.0
 40
0
 41
0
  0
VERTEX
  8
0
 10
10.0897
 20
14.459
 30
0.0
 40
0
 41
0
  0
VERTEX
  8
0
 10
9.96143
 20
14.9864
 30
0.0
 40
0
 41
0
  0
VERTEX
  8
0
 10
9.83208
 20
14.459
 30
0.0
 40
0
 41
0
  0
VERTEX
  8
0
 10
9.72879
 20
14.459
 30
0.0
 40
0
 41
0
  0
VERTEX
  8
0
 10
9.57667
 20
15.0665
 30
0.0
 40
0
 41
0
  0
SEQEND
 8
0
  0
POLYLINE
  8
0
 62
     0
 66
     1
 10
0
 20
0
 30
0.0
 70
     1
 40
0
 41
0
  0
VERTEX
  8
0
 10
11.2924
 20
14.9856
 30
0.0
 40
0
 41
0
  0
VERTEX
  8
0
 10
11.1808
 20
14.6833
 30
0.0
 40
0
 41
0
  0
VERTEX
  8
0
 10
11.4041
 20
14.6833
 30
0.0
 40
0
 41
0
  0
VERTEX
  8
0
 10
11.2924
 20
14.9856
 30
0.0
 40
0
 41
0
  0
SEQEND
 8
0
  0
POLYLINE
  8
0
 62
     0
 66
     1
 10
0
 20
0
 30
0.0
 70
     1
 40
0
 41
0
  0
VERTEX
  8
0
 10
11.2459
 20
15.0665
 30
0.0
 40
0
 41
0
  0
VERTEX
  8
0
 10
11.339
 20
15.0665
 30
0.0
 40
0
 41
0
  0
VERTEX
  8
0
 10
11.5706
 20
14.459
 30
0.0
 40
0
 41
0
  0
VERTEX
  8
0
 10
11.4851
 20
14.459
 30
0.0
 40
0
 41
0
  0
VERTEX
  8
0
 10
11.4297
 20
14.6149
 30
0.0
 40
0
 41
0
  0
VERTEX
  8
0
 10
11.1559
 20
14.6149
 30
0.0
 40
0
 41
0
  0
VERTEX
  8
0
 10
11.1005
 20
14.459
 30
0.0
 40
0
 41
0
  0
VERTEX
  8
0
 10
11.0139
 20
14.459
 30
0.0
 40
0
 41
0
  0
VERTEX
  8
0
 10
11.2459
 20
15.0665
 30
0.0
 40
0
 41
0
  0
SEQEND
 8
0
  0
POLYLINE
  8
0
 62
     0
 66
     1
 10
0
 20
0
 30
0.0
 70
     1
 40
0
 41
0
  0
VERTEX
  8
0
 10
12.4779
 20
15.0665
 30
0.0
 40
0
 41
0
  0
VERTEX
  8
0
 10
12.5886
 20
15.0665
 30
0.0
 40
0
 41
0
  0
VERTEX
  8
0
 10
12.8579
 20
14.5585
 30
0.0
 40
0
 41
0
  0
VERTEX
  8
0
 10
12.8579
 20
15.0665
 30
0.0
 40
0
 41
0
  0
VERTEX
  8
0
 10
12.9378
 20
15.0665
 30
0.0
 40
0
 41
0
  0
VERTEX
  8
0
 10
12.9378
 20
14.459
 30
0.0
 40
0
 41
0
  0
VERTEX
  8
0
 10
12.8271
 20
14.459
 30
0.0
 40
0
 41
0
  0
VERTEX
  8
0
 10
12.5576
 20
14.9674
 30
0.0
 40
0
 41
0
  0
VERTEX
  8
0
 10
12.5576
 20
14.459
 30
0.0
 40
0
 41
0
  0
VERTEX
  8
0
 10
12.4779
 20
14.459
 30
0.0
 40
0
 41
0
  0
VERTEX
  8
0
 10
12.4779
 20
15.0665
 30
0.0
 40
0
 41
0
  0
SEQEND
 8
0
  0
POLYLINE
  8
0
 62
     0
 66
     1
 10
0
 20
0
 30
0.0
 70
     1
 40
0
 41
0
  0
VERTEX
  8
0
 10
13.8397
 20
15.0665
 30
0.0
 40
0
 41
0
  0
VERTEX
  8
0
 10
14.3169
 20
15.0665
 30
0.0
 40
0
 41
0
  0
VERTEX
  8
0
 10
14.3169
 20
15.004
 30
0.0
 40
0
 41
0
  0
VERTEX
  8
0
 10
13.9328
 20
14.5283
 30
0.0
 40
0
 41
0
  0
VERTEX
  8
0
 10
14.3262
 20
14.5283
 30
0.0
 40
0
 41
0
  0
VERTEX
  8
0
 10
14.3262
 20
14.459
 30
0.0
 40
0
 41
0
  0
VERTEX
  8
0
 10
13.8303
 20
14.459
 30
0.0
 40
0
 41
0
  0
VERTEX
  8
0
 10
13.8303
 20
14.5218
 30
0.0
 40
0
 41
0
  0
VERTEX
  8
0
 10
14.2144
 20
14.9975
 30
0.0
 40
0
 41
0
  0
VERTEX
  8
0
 10
13.8397
 20
14.9975
 30
0.0
 40
0
 41
0
  0
VERTEX
  8
0
 10
13.8397
 20
15.0665
 30
0.0
 40
0
 41
0
  0
SEQEND
 8
0
  0
POLYLINE
  8
0
 62
     0
 66
     1
 10
0
 20
0
 30
0.0
 70
     1
 40
0
 41
0
  0
VERTEX
  8
0
 10
15.3718
 20
15.0665
 30
0.0
 40
0
 41
0
  0
VERTEX
  8
0
 10
15.4542
 20
15.0665
 30
0.0
 40
0
 41
0
  0
VERTEX
  8
0
 10
15.4542
 20
14.459
 30
0.0
 40
0
 41
0
  0
VERTEX
  8
0
 10
15.3718
 20
14.459
 30
0.0
 40
0
 41
0
  0
VERTEX
  8
0
 10
15.3718
 20
15.0665
 30
0.0
 40
0
 41
0
  0
SEQEND
 8
0
  0
POLYLINE
  8
0
 62
     0
 66
     1
 10
0
 20
0
 30
0.0
 70
     1
 40
0
 41
0
  0
VERTEX
  8
0
 10
17.0129
 20
14.5457
 30
0.0
 40
0
 41
0
  0
VERTEX
  8
0
 10
17.0129
 20
14.7089
 30
0.0
 40
0
 41
0
  0
VERTEX
  8
0
 10
16.8785
 20
14.7089
 30
0.0
 40
0
 41
0
  0
VERTEX
  8
0
 10
16.8785
 20
14.7765
 30
0.0
 40
0
 41
0
  0
VERTEX
  8
0
 10
17.0943
 20
14.7765
 30
0.0
 40
0
 41
0
  0
VERTEX
  8
0
 10
17.0943
 20
14.5157
 30
0.0
 40
0
 41
0
  0
VERTEX
  8
0
 10
16.9892
 20
14.4646
 30
0.0
 40
0
 41
0
  0
VERTEX
  8
0
 10
16.8668
 20
14.4474
 30
0.0
 40
0
 41
0
  0
VERTEX
  8
0
 10
16.7397
 20
14.4682
 30
0.0
 40
0
 41
0
  0
VERTEX
  8
0
 10
16.6439
 20
14.5306
 30
0.0
 40
0
 41
0
  0
VERTEX
  8
0
 10
16.5836
 20
14.6301
 30
0.0
 40
0
 41
0
  0
VERTEX
  8
0
 10
16.5636
 20
14.7622
 30
0.0
 40
0
 41
0
  0
VERTEX
  8
0
 10
16.5836
 20
14.8947
 30
0.0
 40
0
 41
0
  0
VERTEX
  8
0
 10
16.6439
 20
14.9942
 30
0.0
 40
0
 41
0
  0
VERTEX
  8
0
 10
16.7397
 20
15.0567
 30
0.0
 40
0
 41
0
  0
VERTEX
  8
0
 10
16.8668
 20
15.0775
 30
0.0
 40
0
 41
0
  0
VERTEX
  8
0
 10
16.9794
 20
15.0628
 30
0.0
 40
0
 41
0
  0
VERTEX
  8
0
 10
17.0783
 20
15.0199
 30
0.0
 40
0
 41
0
  0
VERTEX
  8
0
 10
17.0783
 20
14.9324
 30
0.0
 40
0
 41
0
  0
VERTEX
  8
0
 10
16.9814
 20
14.9906
 30
0.0
 40
0
 41
0
  0
VERTEX
  8
0
 10
16.8735
 20
15.0101
 30
0.0
 40
0
 41
0
  0
VERTEX
  8
0
 10
16.8213
 20
15.0062
 30
0.0
 40
0
 41
0
  0
VERTEX
  8
0
 10
16.7761
 20
14.9946
 30
0.0
 40
0
 41
0
  0
VERTEX
  8
0
 10
16.7376
 20
14.9751
 30
0.0
 40
0
 41
0
  0
VERTEX
  8
0
 10
16.7062
 20
14.9478
 30
0.0
 40
0
 41
0
  0
VERTEX
  8
0
 10
16.6817
 20
14.9129
 30
0.0
 40
0
 41
0
  0
VERTEX
  8
0
 10
16.6642
 20
14.8703
 30
0.0
 40
0
 41
0
  0
VERTEX
  8
0
 10
16.6537
 20
14.8201
 30
0.0
 40
0
 41
0
  0
VERTEX
  8
0
 10
16.6503
 20
14.7622
 30
0.0
 40
0
 41
0
  0
VERTEX
  8
0
 10
16.6537
 20
14.7046
 30
0.0
 40
0
 41
0
  0
VERTEX
  8
0
 10
16.6642
 20
14.6546
 30
0.0
 40
0
 41
0
  0
VERTEX
  8
0
 10
16.6817
 20
14.6121
 30
0.0
 40
0
 41
0
  0
VERTEX
  8
0
 10
16.7062
 20
14.5771
 30
0.0
 40
0
 41
0
  0
VERTEX
  8
0
 10
16.7376
 20
14.5499
 30
0.0
 40
0
 41
0
  0
VERTEX
  8
0
 10
16.7761
 20
14.5304
 30
0.0
 40
0
 41
0
  0
VERTEX
  8
0
 10
16.8213
 20
14.5187
 30
0.0
 40
0
 41
0
  0
VERTEX
  8
0
 10
16.8735
 20
14.5149
 30
0.0
 40
0
 41
0
  0
VERTEX
  8
0
 10
16.9512
 20
14.5222
 30
0.0
 40
0
 41
0
  0
VERTEX
  8
0
 10
17.0129
 20
14.5457
 30
0.0
 40
0
 41
0
  0
SEQEND
 8
0
  0
POLYLINE
  8
0
 62
     0
 66
     1
 10
0
 20
0
 30
0.0
 70
     1
 40
0
 41
0
  0
VERTEX
  8
0
 10
2.88569
 20
13.6182
 30
0.0
 40
0
 41
0
  0
VERTEX
  8
0
 10
2.88569
 20
13.1457
 30
0.0
 40
0
 41
0
  0
VERTEX
  8
0
 10
2.98486
 20
13.1457
 30
0.0
 40
0
 41
0
  0
VERTEX
  8
0
 10
3.04351
 20
13.1493
 30
0.0
 40
0
 41
0
  0
VERTEX
  8
0
 10
3.09381
 20
13.1599
 30
0.0
 40
0
 41
0
  0
VERTEX
  8
0
 10
3.13564
 20
13.1777
 30
0.0
 40
0
 41
0
  0
VERTEX
  8
0
 10
3.16911
 20
13.2025
 30
0.0
 40
0
 41
0
  0
VERTEX
  8
0
 10
3.19461
 20
13.2352
 30
0.0
 40
0
 41
0
  0
VERTEX
  8
0
 10
3.21283
 20
13.2762
 30
0.0
 40
0
 41
0
  0
VERTEX
  8
0
 10
3.22379
 20
13.3253
 30
0.0
 40
0
 41
0
  0
VERTEX
  8
0
 10
3.22749
 20
13.3827
 30
0.0
 40
0
 41
0
  0
VERTEX
  8
0
 10
3.22379
 20
13.4396
 30
0.0
 40
0
 41
0
  0
VERTEX
  8
0
 10
3.21283
 20
13.4883
 30
0.0
 40
0
 41
0
  0
VERTEX
  8
0
 10
3.19461
 20
13.5289
 30
0.0
 40
0
 41
0
  0
VERTEX
  8
0
 10
3.16911
 20
13.5613
 30
0.0
 40
0
 41
0
  0
VERTEX
  8
0
 10
3.13564
 20
13.5862
 30
0.0
 40
0
 41
0
  0
VERTEX
  8
0
 10
3.09381
 20
13.6039
 30
0.0
 40
0
 41
0
  0
VERTEX
  8
0
 10
3.04351
 20
13.6146
 30
0.0
 40
0
 41
0
  0
VERTEX
  8
0
 10
2.98486
 20
13.6182
 30
0.0
 40
0
 41
0
  0
VERTEX
  8
0
 10
2.88569
 20
13.6182
 30
0.0
 40
0
 41
0
  0
SEQEND
 8
0
  0
POLYLINE
  8
0
 62
     0
 66
     1
 10
0
 20
0
 30
0.0
 70
     1
 40
0
 41
0
  0
VERTEX
  8
0
 10
2.80344
 20
13.6857
 30
0.0
 40
0
 41
0
  0
VERTEX
  8
0
 10
2.97228
 20
13.6857
 30
0.0
 40
0
 41
0
  0
VERTEX
  8
0
 10
3.12532
 20
13.6673
 30
0.0
 40
0
 41
0
  0
VERTEX
  8
0
 10
3.23139
 20
13.6122
 30
0.0
 40
0
 41
0
  0
VERTEX
  8
0
 10
3.2934
 20
13.5182
 30
0.0
 40
0
 41
0
  0
VERTEX
  8
0
 10
3.31407
 20
13.3827
 30
0.0
 40
0
 41
0
  0
VERTEX
  8
0
 10
3.29324
 20
13.2464
 30
0.0
 40
0
 41
0
  0
VERTEX
  8
0
 10
3.23096
 20
13.1518
 30
0.0
 40
0
 41
0
  0
VERTEX
  8
0
 10
3.12478
 20
13.0966
 30
0.0
 40
0
 41
0
  0
VERTEX
  8
0
 10
2.97228
 20
13.0782
 30
0.0
 40
0
 41
0
  0
VERTEX
  8
0
 10
2.80344
 20
13.0782
 30
0.0
 40
0
 41
0
  0
VERTEX
  8
0
 10
2.80344
 20
13.6857
 30
0.0
 40
0
 41
0
  0
SEQEND
 8
0
  0
POLYLINE
  8
0
 62
     0
 66
     1
 10
0
 20
0
 30
0.0
 70
     1
 40
0
 41
0
  0
VERTEX
  8
0
 10
4.46044
 20
13.3632
 30
0.0
 40
0
 41
0
  0
VERTEX
  8
0
 10
4.51188
 20
13.3248
 30
0.0
 40
0
 41
0
  0
VERTEX
  8
0
 10
4.56222
 20
13.2442
 30
0.0
 40
0
 41
0
  0
VERTEX
  8
0
 10
4.64578
 20
13.0782
 30
0.0
 40
0
 41
0
  0
VERTEX
  8
0
 10
4.55746
 20
13.0782
 30
0.0
 40
0
 41
0
  0
VERTEX
  8
0
 10
4.47976
 20
13.2341
 30
0.0
 40
0
 41
0
  0
VERTEX
  8
0
 10
4.44997
 20
13.2848
 30
0.0
 40
0
 41
0
  0
VERTEX
  8
0
 10
4.42117
 20
13.315
 30
0.0
 40
0
 41
0
  0
VERTEX
  8
0
 10
4.38775
 20
13.33
 30
0.0
 40
0
 41
0
  0
VERTEX
  8
0
 10
4.34413
 20
13.335
 30
0.0
 40
0
 41
0
  0
VERTEX
  8
0
 10
4.25472
 20
13.335
 30
0.0
 40
0
 41
0
  0
VERTEX
  8
0
 10
4.25472
 20
13.0782
 30
0.0
 40
0
 41
0
  0
VERTEX
  8
0
 10
4.17247
 20
13.0782
 30
0.0
 40
0
 41
0
  0
VERTEX
  8
0
 10
4.17247
 20
13.6857
 30
0.0
 40
0
 41
0
  0
VERTEX
  8
0
 10
4.35801
 20
13.6857
 30
0.0
 40
0
 41
0
  0
VERTEX
  8
0
 10
4.44889
 20
13.6747
 30
0.0
 40
0
 41
0
  0
VERTEX
  8
0
 10
4.5134
 20
13.642
 30
0.0
 40
0
 41
0
  0
VERTEX
  8
0
 10
4.55176
 20
13.5875
 30
0.0
 40
0
 41
0
  0
VERTEX
  8
0
 10
4.56461
 20
13.5107
 30
0.0
 40
0
 41
0
  0
VERTEX
  8
0
 10
4.55794
 20
13.4583
 30
0.0
 40
0
 41
0
  0
VERTEX
  8
0
 10
4.53792
 20
13.4155
 30
0.0
 40
0
 41
0
  0
VERTEX
  8
0
 10
4.50526
 20
13.3835
 30
0.0
 40
0
 41
0
  0
VERTEX
  8
0
 10
4.46044
 20
13.3632
 30
0.0
 40
0
 41
0
  0
SEQEND
 8
0
  0
POLYLINE
  8
0
 62
     0
 66
     1
 10
0
 20
0
 30
0.0
 70
     1
 40
0
 41
0
  0
VERTEX
  8
0
 10
4.25472
 20
13.6182
 30
0.0
 40
0
 41
0
  0
VERTEX
  8
0
 10
4.25472
 20
13.4025
 30
0.0
 40
0
 41
0
  0
VERTEX
  8
0
 10
4.35801
 20
13.4025
 30
0.0
 40
0
 41
0
  0
VERTEX
  8
0
 10
4.4101
 20
13.4093
 30
0.0
 40
0
 41
0
  0
VERTEX
  8
0
 10
4.44764
 20
13.43
 30
0.0
 40
0
 41
0
  0
VERTEX
  8
0
 10
4.47038
 20
13.464
 30
0.0
 40
0
 41
0
  0
VERTEX
  8
0
 10
4.47803
 20
13.5107
 30
0.0
 40
0
 41
0
  0
VERTEX
  8
0
 10
4.47038
 20
13.5575
 30
0.0
 40
0
 41
0
  0
VERTEX
  8
0
 10
4.44764
 20
13.591
 30
0.0
 40
0
 41
0
  0
VERTEX
  8
0
 10
4.4101
 20
13.6114
 30
0.0
 40
0
 41
0
  0
VERTEX
  8
0
 10
4.35801
 20
13.6182
 30
0.0
 40
0
 41
0
  0
VERTEX
  8
0
 10
4.25472
 20
13.6182
 30
0.0
 40
0
 41
0
  0
SEQEND
 8
0
  0
POLYLINE
  8
0
 62
     0
 66
     1
 10
0
 20
0
 30
0.0
 70
     1
 40
0
 41
0
  0
VERTEX
  8
0
 10
5.58143
 20
13.6857
 30
0.0
 40
0
 41
0
  0
VERTEX
  8
0
 10
5.96556
 20
13.6857
 30
0.0
 40
0
 41
0
  0
VERTEX
  8
0
 10
5.96556
 20
13.6166
 30
0.0
 40
0
 41
0
  0
VERTEX
  8
0
 10
5.66368
 20
13.6166
 30
0.0
 40
0
 41
0
  0
VERTEX
  8
0
 10
5.66368
 20
13.4367
 30
0.0
 40
0
 41
0
  0
VERTEX
  8
0
 10
5.95296
 20
13.4367
 30
0.0
 40
0
 41
0
  0
VERTEX
  8
0
 10
5.95296
 20
13.3675
 30
0.0
 40
0
 41
0
  0
VERTEX
  8
0
 10
5.66368
 20
13.3675
 30
0.0
 40
0
 41
0
  0
VERTEX
  8
0
 10
5.66368
 20
13.1475
 30
0.0
 40
0
 41
0
  0
VERTEX
  8
0
 10
5.97293
 20
13.1475
 30
0.0
 40
0
 41
0
  0
VERTEX
  8
0
 10
5.97293
 20
13.0782
 30
0.0
 40
0
 41
0
  0
VERTEX
  8
0
 10
5.58143
 20
13.0782
 30
0.0
 40
0
 41
0
  0
VERTEX
  8
0
 10
5.58143
 20
13.6857
 30
0.0
 40
0
 41
0
  0
SEQEND
 8
0
  0
POLYLINE
  8
0
 62
     0
 66
     1
 10
0
 20
0
 30
0.0
 70
     1
 40
0
 41
0
  0
VERTEX
  8
0
 10
7.08664
 20
13.6857
 30
0.0
 40
0
 41
0
  0
VERTEX
  8
0
 10
7.16889
 20
13.6857
 30
0.0
 40
0
 41
0
  0
VERTEX
  8
0
 10
7.16889
 20
13.0782
 30
0.0
 40
0
 41
0
  0
VERTEX
  8
0
 10
7.08664
 20
13.0782
 30
0.0
 40
0
 41
0
  0
VERTEX
  8
0
 10
7.08664
 20
13.6857
 30
0.0
 40
0
 41
0
  0
SEQEND
 8
0
  0
POLYLINE
  8
0
 62
     0
 66
     1
 10
0
 20
0
 30
0.0
 70
     1
 40
0
 41
0
  0
VERTEX
  8
0
 10
9.84836
 20
13.6857
 30
0.0
 40
0
 41
0
  0
VERTEX
  8
0
 10
9.93061
 20
13.6857
 30
0.0
 40
0
 41
0
  0
VERTEX
  8
0
 10
9.93061
 20
13.0782
 30
0.0
 40
0
 41
0
  0
VERTEX
  8
0
 10
9.84836
 20
13.0782
 30
0.0
 40
0
 41
0
  0
VERTEX
  8
0
 10
9.84836
 20
13.6857
 30
0.0
 40
0
 41
0
  0
SEQEND
 8
0
  0
POLYLINE
  8
0
 62
     0
 66
     1
 10
0
 20
0
 30
0.0
 70
     1
 40
0
 41
0
  0
VERTEX
  8
0
 10
11.1049
 20
13.6857
 30
0.0
 40
0
 41
0
  0
VERTEX
  8
0
 10
11.489
 20
13.6857
 30
0.0
 40
0
 41
0
  0
VERTEX
  8
0
 10
11.489
 20
13.6166
 30
0.0
 40
0
 41
0
  0
VERTEX
  8
0
 10
11.1872
 20
13.6166
 30
0.0
 40
0
 41
0
  0
VERTEX
  8
0
 10
11.1872
 20
13.4367
 30
0.0
 40
0
 41
0
  0
VERTEX
  8
0
 10
11.4765
 20
13.4367
 30
0.0
 40
0
 41
0
  0
VERTEX
  8
0
 10
11.4765
 20
13.3675
 30
0.0
 40
0
 41
0
  0
VERTEX
  8
0
 10
11.1872
 20
13.3675
 30
0.0
 40
0
 41
0
  0
VERTEX
  8
0
 10
11.1872
 20
13.1475
 30
0.0
 40
0
 41
0
  0
VERTEX
  8
0
 10
11.4964
 20
13.1475
 30
0.0
 40
0
 41
0
  0
VERTEX
  8
0
 10
11.4964
 20
13.0782
 30
0.0
 40
0
 41
0
  0
VERTEX
  8
0
 10
11.1049
 20
13.0782
 30
0.0
 40
0
 41
0
  0
VERTEX
  8
0
 10
11.1049
 20
13.6857
 30
0.0
 40
0
 41
0
  0
SEQEND
 8
0
  0
POLYLINE
  8
0
 62
     0
 66
     1
 10
0
 20
0
 30
0.0
 70
     1
 40
0
 41
0
  0
VERTEX
  8
0
 10
12.7457
 20
13.3632
 30
0.0
 40
0
 41
0
  0
VERTEX
  8
0
 10
12.7971
 20
13.3248
 30
0.0
 40
0
 41
0
  0
VERTEX
  8
0
 10
12.8474
 20
13.2442
 30
0.0
 40
0
 41
0
  0
VERTEX
  8
0
 10
12.931
 20
13.0782
 30
0.0
 40
0
 41
0
  0
VERTEX
  8
0
 10
12.8427
 20
13.0782
 30
0.0
 40
0
 41
0
  0
VERTEX
  8
0
 10
12.765
 20
13.2341
 30
0.0
 40
0
 41
0
  0
VERTEX
  8
0
 10
12.7352
 20
13.2848
 30
0.0
 40
0
 41
0
  0
VERTEX
  8
0
 10
12.7064
 20
13.315
 30
0.0
 40
0
 41
0
  0
VERTEX
  8
0
 10
12.673
 20
13.33
 30
0.0
 40
0
 41
0
  0
VERTEX
  8
0
 10
12.6293
 20
13.335
 30
0.0
 40
0
 41
0
  0
VERTEX
  8
0
 10
12.5399
 20
13.335
 30
0.0
 40
0
 41
0
  0
VERTEX
  8
0
 10
12.5399
 20
13.0782
 30
0.0
 40
0
 41
0
  0
VERTEX
  8
0
 10
12.4577
 20
13.0782
 30
0.0
 40
0
 41
0
  0
VERTEX
  8
0
 10
12.4577
 20
13.6857
 30
0.0
 40
0
 41
0
  0
VERTEX
  8
0
 10
12.6432
 20
13.6857
 30
0.0
 40
0
 41
0
  0
VERTEX
  8
0
 10
12.7341
 20
13.6747
 30
0.0
 40
0
 41
0
  0
VERTEX
  8
0
 10
12.7986
 20
13.642
 30
0.0
 40
0
 41
0
  0
VERTEX
  8
0
 10
12.837
 20
13.5875
 30
0.0
 40
0
 41
0
  0
VERTEX
  8
0
 10
12.8498
 20
13.5107
 30
0.0
 40
0
 41
0
  0
VERTEX
  8
0
 10
12.8432
 20
13.4583
 30
0.0
 40
0
 41
0
  0
VERTEX
  8
0
 10
12.8231
 20
13.4155
 30
0.0
 40
0
 41
0
  0
VERTEX
  8
0
 10
12.7905
 20
13.3835
 30
0.0
 40
0
 41
0
  0
VERTEX
  8
0
 10
12.7457
 20
13.3632
 30
0.0
 40
0
 41
0
  0
SEQEND
 8
0
  0
POLYLINE
  8
0
 62
     0
 66
     1
 10
0
 20
0
 30
0.0
 70
     1
 40
0
 41
0
  0
VERTEX
  8
0
 10
12.5399
 20
13.6182
 30
0.0
 40
0
 41
0
  0
VERTEX
  8
0
 10
12.5399
 20
13.4025
 30
0.0
 40
0
 41
0
  0
VERTEX
  8
0
 10
12.6432
 20
13.4025
 30
0.0
 40
0
 41
0
  0
VERTEX
  8
0
 10
12.6953
 20
13.4093
 30
0.0
 40
0
 41
0
  0
VERTEX
  8
0
 10
12.7329
 20
13.43
 30
0.0
 40
0
 41
0
  0
VERTEX
  8
0
 10
12.7556
 20
13.464
 30
0.0
 40
0
 41
0
  0
VERTEX
  8
0
 10
12.7632
 20
13.5107
 30
0.0
 40
0
 41
0
  0
VERTEX
  8
0
 10
12.7556
 20
13.5575
 30
0.0
 40
0
 41
0
  0
VERTEX
  8
0
 10
12.7329
 20
13.591
 30
0.0
 40
0
 41
0
  0
VERTEX
  8
0
 10
12.6953
 20
13.6114
 30
0.0
 40
0
 41
0
  0
VERTEX
  8
0
 10
12.6432
 20
13.6182
 30
0.0
 40
0
 41
0
  0
VERTEX
  8
0
 10
12.5399
 20
13.6182
 30
0.0
 40
0
 41
0
  0
SEQEND
 8
0
  0
POLYLINE
  8
0
 62
     0
 66
     1
 10
0
 20
0
 30
0.0
 70
     1
 40
0
 41
0
  0
VERTEX
  8
0
 10
13.789
 20
13.6857
 30
0.0
 40
0
 41
0
  0
VERTEX
  8
0
 10
14.3029
 20
13.6857
 30
0.0
 40
0
 41
0
  0
VERTEX
  8
0
 10
14.3029
 20
13.6166
 30
0.0
 40
0
 41
0
  0
VERTEX
  8
0
 10
14.0872
 20
13.6166
 30
0.0
 40
0
 41
0
  0
VERTEX
  8
0
 10
14.0872
 20
13.0782
 30
0.0
 40
0
 41
0
  0
VERTEX
  8
0
 10
14.0047
 20
13.0782
 30
0.0
 40
0
 41
0
  0
VERTEX
  8
0
 10
14.0047
 20
13.6166
 30
0.0
 40
0
 41
0
  0
VERTEX
  8
0
 10
13.789
 20
13.6166
 30
0.0
 40
0
 41
0
  0
VERTEX
  8
0
 10
13.789
 20
13.6857
 30
0.0
 40
0
 41
0
  0
SEQEND
 8
0
  0
POLYLINE
  8
0
 62
     0
 66
     1
 10
0
 20
0
 30
0.0
 70
     1
 40
0
 41
0
  0
VERTEX
  8
0
 10
15.2475
 20
13.6857
 30
0.0
 40
0
 41
0
  0
VERTEX
  8
0
 10
15.6317
 20
13.6857
 30
0.0
 40
0
 41
0
  0
VERTEX
  8
0
 10
15.6317
 20
13.6166
 30
0.0
 40
0
 41
0
  0
VERTEX
  8
0
 10
15.3297
 20
13.6166
 30
0.0
 40
0
 41
0
  0
VERTEX
  8
0
 10
15.3297
 20
13.4367
 30
0.0
 40
0
 41
0
  0
VERTEX
  8
0
 10
15.619
 20
13.4367
 30
0.0
 40
0
 41
0
  0
VERTEX
  8
0
 10
15.619
 20
13.3675
 30
0.0
 40
0
 41
0
  0
VERTEX
  8
0
 10
15.3297
 20
13.3675
 30
0.0
 40
0
 41
0
  0
VERTEX
  8
0
 10
15.3297
 20
13.1475
 30
0.0
 40
0
 41
0
  0
VERTEX
  8
0
 10
15.639
 20
13.1475
 30
0.0
 40
0
 41
0
  0
VERTEX
  8
0
 10
15.639
 20
13.0782
 30
0.0
 40
0
 41
0
  0
VERTEX
  8
0
 10
15.2475
 20
13.0782
 30
0.0
 40
0
 41
0
  0
VERTEX
  8
0
 10
15.2475
 20
13.6857
 30
0.0
 40
0
 41
0
  0
SEQEND
 8
0
  0
POLYLINE
  8
0
 62
     0
 66
     1
 10
0
 20
0
 30
0.0
 70
     1
 40
0
 41
0
  0
VERTEX
  8
0
 10
16.6556
 20
13.6857
 30
0.0
 40
0
 41
0
  0
VERTEX
  8
0
 10
16.7378
 20
13.6857
 30
0.0
 40
0
 41
0
  0
VERTEX
  8
0
 10
16.7378
 20
13.1475
 30
0.0
 40
0
 41
0
  0
VERTEX
  8
0
 10
17.0335
 20
13.1475
 30
0.0
 40
0
 41
0
  0
VERTEX
  8
0
 10
17.0335
 20
13.0782
 30
0.0
 40
0
 41
0
  0
VERTEX
  8
0
 10
16.6556
 20
13.0782
 30
0.0
 40
0
 41
0
  0
VERTEX
  8
0
 10
16.6556
 20
13.6857
 30
0.0
 40
0
 41
0
  0
SEQEND
 8
0
  0
POLYLINE
  8
0
 62
     0
 66
     1
 10
0
 20
0
 30
0.0
 70
     1
 40
0
 41
0
  0
VERTEX
  8
0
 10
8.48649
 20
13.0782
 30
0.0
 40
0
 41
0
  0
VERTEX
  8
0
 10
8.2545
 20
13.6857
 30
0.0
 40
0
 41
0
  0
VERTEX
  8
0
 10
8.34044
 20
13.6857
 30
0.0
 40
0
 41
0
  0
VERTEX
  8
0
 10
8.53293
 20
13.1744
 30
0.0
 40
0
 41
0
  0
VERTEX
  8
0
 10
8.72564
 20
13.6857
 30
0.0
 40
0
 41
0
  0
VERTEX
  8
0
 10
8.81114
 20
13.6857
 30
0.0
 40
0
 41
0
  0
VERTEX
  8
0
 10
8.57958
 20
13.0782
 30
0.0
 40
0
 41
0
  0
VERTEX
  8
0
 10
8.48649
 20
13.0782
 30
0.0
 40
0
 41
0
  0
SEQEND
 8
0
  0
POLYLINE
  8
0
 62
     0
 66
     1
 10
0
 20
0
 30
0.0
 70
     1
 40
0
 41
0
  0
VERTEX
  8
0
 10
2.963
 20
11.6973
 30
0.0
 40
0
 41
0
  0
VERTEX
  8
0
 10
2.73101
 20
12.3047
 30
0.0
 40
0
 41
0
  0
VERTEX
  8
0
 10
2.81694
 20
12.3047
 30
0.0
 40
0
 41
0
  0
VERTEX
  8
0
 10
3.00944
 20
11.7935
 30
0.0
 40
0
 41
0
  0
VERTEX
  8
0
 10
3.20215
 20
12.3047
 30
0.0
 40
0
 41
0
  0
VERTEX
  8
0
 10
3.28765
 20
12.3047
 30
0.0
 40
0
 41
0
  0
VERTEX
  8
0
 10
3.0561
 20
11.6973
 30
0.0
 40
0
 41
0
  0
VERTEX
  8
0
 10
2.963
 20
11.6973
 30
0.0
 40
0
 41
0
  0
SEQEND
 8
0
  0
POLYLINE
  8
0
 62
     0
 66
     1
 10
0
 20
0
 30
0.0
 70
     1
 40
0
 41
0
  0
VERTEX
  8
0
 10
4.41217
 20
12.2491
 30
0.0
 40
0
 41
0
  0
VERTEX
  8
0
 10
4.33187
 20
12.2324
 30
0.0
 40
0
 41
0
  0
VERTEX
  8
0
 10
4.27001
 20
12.1822
 30
0.0
 40
0
 41
0
  0
VERTEX
  8
0
 10
4.23047
 20
12.1035
 30
0.0
 40
0
 41
0
  0
VERTEX
  8
0
 10
4.21729
 20
12.0004
 30
0.0
 40
0
 41
0
  0
VERTEX
  8
0
 10
4.23047
 20
11.8976
 30
0.0
 40
0
 41
0
  0
VERTEX
  8
0
 10
4.27001
 20
11.8187
 30
0.0
 40
0
 41
0
  0
VERTEX
  8
0
 10
4.33187
 20
11.7688
 30
0.0
 40
0
 41
0
  0
VERTEX
  8
0
 10
4.41217
 20
11.7521
 30
0.0
 40
0
 41
0
  0
VERTEX
  8
0
 10
4.4924
 20
11.7688
 30
0.0
 40
0
 41
0
  0
VERTEX
  8
0
 10
4.5541
 20
11.8187
 30
0.0
 40
0
 41
0
  0
VERTEX
  8
0
 10
4.59326
 20
11.8976
 30
0.0
 40
0
 41
0
  0
VERTEX
  8
0
 10
4.60639
 20
12.0004
 30
0.0
 40
0
 41
0
  0
VERTEX
  8
0
 10
4.59326
 20
12.1035
 30
0.0
 40
0
 41
0
  0
VERTEX
  8
0
 10
4.5541
 20
12.1822
 30
0.0
 40
0
 41
0
  0
VERTEX
  8
0
 10
4.4924
 20
12.2324
 30
0.0
 40
0
 41
0
  0
VERTEX
  8
0
 10
4.41217
 20
12.2491
 30
0.0
 40
0
 41
0
  0
SEQEND
 8
0
  0
POLYLINE
  8
0
 62
     0
 66
     1
 10
0
 20
0
 30
0.0
 70
     1
 40
0
 41
0
  0
VERTEX
  8
0
 10
4.41217
 20
12.3157
 30
0.0
 40
0
 41
0
  0
VERTEX
  8
0
 10
4.47282
 20
12.3104
 30
0.0
 40
0
 41
0
  0
VERTEX
  8
0
 10
4.52707
 20
12.2943
 30
0.0
 40
0
 41
0
  0
VERTEX
  8
0
 10
4.57493
 20
12.2675
 30
0.0
 40
0
 41
0
  0
VERTEX
  8
0
 10
4.61638
 20
12.23
 30
0.0
 40
0
 41
0
  0
VERTEX
  8
0
 10
4.67378
 20
12.1298
 30
0.0
 40
0
 41
0
  0
VERTEX
  8
0
 10
4.69299
 20
12.0004
 30
0.0
 40
0
 41
0
  0
VERTEX
  8
0
 10
4.67378
 20
11.8712
 30
0.0
 40
0
 41
0
  0
VERTEX
  8
0
 10
4.61638
 20
11.771
 30
0.0
 40
0
 41
0
  0
VERTEX
  8
0
 10
4.57493
 20
11.7336
 30
0.0
 40
0
 41
0
  0
VERTEX
  8
0
 10
4.52707
 20
11.7069
 30
0.0
 40
0
 41
0
  0
VERTEX
  8
0
 10
4.47282
 20
11.6909
 30
0.0
 40
0
 41
0
  0
VERTEX
  8
0
 10
4.41217
 20
11.6855
 30
0.0
 40
0
 41
0
  0
VERTEX
  8
0
 10
4.35129
 20
11.6909
 30
0.0
 40
0
 41
0
  0
VERTEX
  8
0
 10
4.29688
 20
11.7068
 30
0.0
 40
0
 41
0
  0
VERTEX
  8
0
 10
4.24886
 20
11.7335
 30
0.0
 40
0
 41
0
  0
VERTEX
  8
0
 10
4.20731
 20
11.7708
 30
0.0
 40
0
 41
0
  0
VERTEX
  8
0
 10
4.14979
 20
11.8709
 30
0.0
 40
0
 41
0
  0
VERTEX
  8
0
 10
4.13069
 20
12.0004
 30
0.0
 40
0
 41
0
  0
VERTEX
  8
0
 10
4.14979
 20
12.1298
 30
0.0
 40
0
 41
0
  0
VERTEX
  8
0
 10
4.20731
 20
12.23
 30
0.0
 40
0
 41
0
  0
VERTEX
  8
0
 10
4.24886
 20
12.2675
 30
0.0
 40
0
 41
0
  0
VERTEX
  8
0
 10
4.29688
 20
12.2943
 30
0.0
 40
0
 41
0
  0
VERTEX
  8
0
 10
4.35129
 20
12.3104
 30
0.0
 40
0
 41
0
  0
VERTEX
  8
0
 10
4.41217
 20
12.3157
 30
0.0
 40
0
 41
0
  0
SEQEND
 8
0
  0
POLYLINE
  8
0
 62
     0
 66
     1
 10
0
 20
0
 30
0.0
 70
     1
 40
0
 41
0
  0
VERTEX
  8
0
 10
5.84131
 20
11.9823
 30
0.0
 40
0
 41
0
  0
VERTEX
  8
0
 10
5.89274
 20
11.9438
 30
0.0
 40
0
 41
0
  0
VERTEX
  8
0
 10
5.94308
 20
11.8633
 30
0.0
 40
0
 41
0
  0
VERTEX
  8
0
 10
6.02664
 20
11.6973
 30
0.0
 40
0
 41
0
  0
VERTEX
  8
0
 10
5.93832
 20
11.6973
 30
0.0
 40
0
 41
0
  0
VERTEX
  8
0
 10
5.86062
 20
11.8531
 30
0.0
 40
0
 41
0
  0
VERTEX
  8
0
 10
5.83083
 20
11.9039
 30
0.0
 40
0
 41
0
  0
VERTEX
  8
0
 10
5.80203
 20
11.9341
 30
0.0
 40
0
 41
0
  0
VERTEX
  8
0
 10
5.76861
 20
11.9491
 30
0.0
 40
0
 41
0
  0
VERTEX
  8
0
 10
5.72499
 20
11.954
 30
0.0
 40
0
 41
0
  0
VERTEX
  8
0
 10
5.63558
 20
11.954
 30
0.0
 40
0
 41
0
  0
VERTEX
  8
0
 10
5.63558
 20
11.6973
 30
0.0
 40
0
 41
0
  0
VERTEX
  8
0
 10
5.55333
 20
11.6973
 30
0.0
 40
0
 41
0
  0
VERTEX
  8
0
 10
5.55333
 20
12.3047
 30
0.0
 40
0
 41
0
  0
VERTEX
  8
0
 10
5.73888
 20
12.3047
 30
0.0
 40
0
 41
0
  0
VERTEX
  8
0
 10
5.82975
 20
12.2938
 30
0.0
 40
0
 41
0
  0
VERTEX
  8
0
 10
5.89426
 20
12.2611
 30
0.0
 40
0
 41
0
  0
VERTEX
  8
0
 10
5.93261
 20
12.2066
 30
0.0
 40
0
 41
0
  0
VERTEX
  8
0
 10
5.94547
 20
12.1298
 30
0.0
 40
0
 41
0
  0
VERTEX
  8
0
 10
5.93881
 20
12.0774
 30
0.0
 40
0
 41
0
  0
VERTEX
  8
0
 10
5.91878
 20
12.0346
 30
0.0
 40
0
 41
0
  0
VERTEX
  8
0
 10
5.88612
 20
12.0026
 30
0.0
 40
0
 41
0
  0
VERTEX
  8
0
 10
5.84131
 20
11.9823
 30
0.0
 40
0
 41
0
  0
SEQEND
 8
0
  0
POLYLINE
  8
0
 62
     0
 66
     1
 10
0
 20
0
 30
0.0
 70
     1
 40
0
 41
0
  0
VERTEX
  8
0
 10
5.63558
 20
12.2372
 30
0.0
 40
0
 41
0
  0
VERTEX
  8
0
 10
5.63558
 20
12.0215
 30
0.0
 40
0
 41
0
  0
VERTEX
  8
0
 10
5.73888
 20
12.0215
 30
0.0
 40
0
 41
0
  0
VERTEX
  8
0
 10
5.79096
 20
12.0284
 30
0.0
 40
0
 41
0
  0
VERTEX
  8
0
 10
5.8285
 20
12.0491
 30
0.0
 40
0
 41
0
  0
VERTEX
  8
0
 10
5.85124
 20
12.0831
 30
0.0
 40
0
 41
0
  0
VERTEX
  8
0
 10
5.85889
 20
12.1298
 30
0.0
 40
0
 41
0
  0
VERTEX
  8
0
 10
5.85124
 20
12.1766
 30
0.0
 40
0
 41
0
  0
VERTEX
  8
0
 10
5.8285
 20
12.2101
 30
0.0
 40
0
 41
0
  0
VERTEX
  8
0
 10
5.79096
 20
12.2305
 30
0.0
 40
0
 41
0
  0
VERTEX
  8
0
 10
5.73888
 20
12.2372
 30
0.0
 40
0
 41
0
  0
VERTEX
  8
0
 10
5.63558
 20
12.2372
 30
0.0
 40
0
 41
0
  0
SEQEND
 8
0
  0
POLYLINE
  8
0
 62
     0
 66
     1
 10
0
 20
0
 30
0.0
 70
     1
 40
0
 41
0
  0
VERTEX
  8
0
 10
6.97646
 20
12.3047
 30
0.0
 40
0
 41
0
  0
VERTEX
  8
0
 10
7.32563
 20
12.3047
 30
0.0
 40
0
 41
0
  0
VERTEX
  8
0
 10
7.32563
 20
12.2357
 30
0.0
 40
0
 41
0
  0
VERTEX
  8
0
 10
7.05871
 20
12.2357
 30
0.0
 40
0
 41
0
  0
VERTEX
  8
0
 10
7.05871
 20
12.0567
 30
0.0
 40
0
 41
0
  0
VERTEX
  8
0
 10
7.29958
 20
12.0567
 30
0.0
 40
0
 41
0
  0
VERTEX
  8
0
 10
7.29958
 20
11.9875
 30
0.0
 40
0
 41
0
  0
VERTEX
  8
0
 10
7.05871
 20
11.9875
 30
0.0
 40
0
 41
0
  0
VERTEX
  8
0
 10
7.05871
 20
11.6973
 30
0.0
 40
0
 41
0
  0
VERTEX
  8
0
 10
6.97646
 20
11.6973
 30
0.0
 40
0
 41
0
  0
VERTEX
  8
0
 10
6.97646
 20
12.3047
 30
0.0
 40
0
 41
0
  0
SEQEND
 8
0
  0
POLYLINE
  8
0
 62
     0
 66
     1
 10
0
 20
0
 30
0.0
 70
     1
 40
0
 41
0
  0
VERTEX
  8
0
 10
8.32557
 20
12.3083
 30
0.0
 40
0
 41
0
  0
VERTEX
  8
0
 10
8.40804
 20
12.3083
 30
0.0
 40
0
 41
0
  0
VERTEX
  8
0
 10
8.40804
 20
11.9394
 30
0.0
 40
0
 41
0
  0
VERTEX
  8
0
 10
8.41683
 20
11.8554
 30
0.0
 40
0
 41
0
  0
VERTEX
  8
0
 10
8.44342
 20
11.7988
 30
0.0
 40
0
 41
0
  0
VERTEX
  8
0
 10
8.48986
 20
11.7665
 30
0.0
 40
0
 41
0
  0
VERTEX
  8
0
 10
8.55821
 20
11.7558
 30
0.0
 40
0
 41
0
  0
VERTEX
  8
0
 10
8.62625
 20
11.7665
 30
0.0
 40
0
 41
0
  0
VERTEX
  8
0
 10
8.67258
 20
11.7988
 30
0.0
 40
0
 41
0
  0
VERTEX
  8
0
 10
8.69906
 20
11.8554
 30
0.0
 40
0
 41
0
  0
VERTEX
  8
0
 10
8.70796
 20
11.9394
 30
0.0
 40
0
 41
0
  0
VERTEX
  8
0
 10
8.70796
 20
12.3083
 30
0.0
 40
0
 41
0
  0
VERTEX
  8
0
 10
8.79064
 20
12.3083
 30
0.0
 40
0
 41
0
  0
VERTEX
  8
0
 10
8.79064
 20
11.9292
 30
0.0
 40
0
 41
0
  0
VERTEX
  8
0
 10
8.78694
 20
11.8734
 30
0.0
 40
0
 41
0
  0
VERTEX
  8
0
 10
8.77587
 20
11.8249
 30
0.0
 40
0
 41
0
  0
VERTEX
  8
0
 10
8.75749
 20
11.7837
 30
0.0
 40
0
 41
0
  0
VERTEX
  8
0
 10
8.73182
 20
11.7497
 30
0.0
 40
0
 41
0
  0
VERTEX
  8
0
 10
8.69889
 20
11.7232
 30
0.0
 40
0
 41
0
  0
VERTEX
  8
0
 10
8.65896
 20
11.7043
 30
0.0
 40
0
 41
0
  0
VERTEX
  8
0
 10
8.61208
 20
11.693
 30
0.0
 40
0
 41
0
  0
VERTEX
  8
0
 10
8.55821
 20
11.6892
 30
0.0
 40
0
 41
0
  0
VERTEX
  8
0
 10
8.50418
 20
11.693
 30
0.0
 40
0
 41
0
  0
VERTEX
  8
0
 10
8.45719
 20
11.7043
 30
0.0
 40
0
 41
0
  0
VERTEX
  8
0
 10
8.41726
 20
11.7232
 30
0.0
 40
0
 41
0
  0
VERTEX
  8
0
 10
8.38439
 20
11.7497
 30
0.0
 40
0
 41
0
  0
VERTEX
  8
0
 10
8.35861
 20
11.7837
 30
0.0
 40
0
 41
0
  0
VERTEX
  8
0
 10
8.34022
 20
11.8249
 30
0.0
 40
0
 41
0
  0
VERTEX
  8
0
 10
8.32921
 20
11.8734
 30
0.0
 40
0
 41
0
  0
VERTEX
  8
0
 10
8.32557
 20
11.9292
 30
0.0
 40
0
 41
0
  0
VERTEX
  8
0
 10
8.32557
 20
12.3083
 30
0.0
 40
0
 41
0
  0
SEQEND
 8
0
  0
POLYLINE
  8
0
 62
     0
 66
     1
 10
0
 20
0
 30
0.0
 70
     1
 40
0
 41
0
  0
VERTEX
  8
0
 10
9.71619
 20
12.3047
 30
0.0
 40
0
 41
0
  0
VERTEX
  8
0
 10
9.82687
 20
12.3047
 30
0.0
 40
0
 41
0
  0
VERTEX
  8
0
 10
10.0962
 20
11.7967
 30
0.0
 40
0
 41
0
  0
VERTEX
  8
0
 10
10.0962
 20
12.3047
 30
0.0
 40
0
 41
0
  0
VERTEX
  8
0
 10
10.1761
 20
12.3047
 30
0.0
 40
0
 41
0
  0
VERTEX
  8
0
 10
10.1761
 20
11.6973
 30
0.0
 40
0
 41
0
  0
VERTEX
  8
0
 10
10.0654
 20
11.6973
 30
0.0
 40
0
 41
0
  0
VERTEX
  8
0
 10
9.79585
 20
12.2056
 30
0.0
 40
0
 41
0
  0
VERTEX
  8
0
 10
9.79585
 20
11.6973
 30
0.0
 40
0
 41
0
  0
VERTEX
  8
0
 10
9.71619
 20
11.6973
 30
0.0
 40
0
 41
0
  0
VERTEX
  8
0
 10
9.71619
 20
12.3047
 30
0.0
 40
0
 41
0
  0
SEQEND
 8
0
  0
POLYLINE
  8
0
 62
     0
 66
     1
 10
0
 20
0
 30
0.0
 70
     1
 40
0
 41
0
  0
VERTEX
  8
0
 10
11.0898
 20
12.3047
 30
0.0
 40
0
 41
0
  0
VERTEX
  8
0
 10
11.1721
 20
12.3047
 30
0.0
 40
0
 41
0
  0
VERTEX
  8
0
 10
11.1721
 20
12.048
 30
0.0
 40
0
 41
0
  0
VERTEX
  8
0
 10
11.4447
 20
12.3047
 30
0.0
 40
0
 41
0
  0
VERTEX
  8
0
 10
11.5503
 20
12.3047
 30
0.0
 40
0
 41
0
  0
VERTEX
  8
0
 10
11.2489
 20
12.0215
 30
0.0
 40
0
 41
0
  0
VERTEX
  8
0
 10
11.5721
 20
11.6973
 30
0.0
 40
0
 41
0
  0
VERTEX
  8
0
 10
11.4638
 20
11.6973
 30
0.0
 40
0
 41
0
  0
VERTEX
  8
0
 10
11.1721
 20
11.9899
 30
0.0
 40
0
 41
0
  0
VERTEX
  8
0
 10
11.1721
 20
11.6973
 30
0.0
 40
0
 41
0
  0
VERTEX
  8
0
 10
11.0898
 20
11.6973
 30
0.0
 40
0
 41
0
  0
VERTEX
  8
0
 10
11.0898
 20
12.3047
 30
0.0
 40
0
 41
0
  0
SEQEND
 8
0
  0
POLYLINE
  8
0
 62
     0
 66
     1
 10
0
 20
0
 30
0.0
 70
     1
 40
0
 41
0
  0
VERTEX
  8
0
 10
12.4779
 20
12.3047
 30
0.0
 40
0
 41
0
  0
VERTEX
  8
0
 10
12.5886
 20
12.3047
 30
0.0
 40
0
 41
0
  0
VERTEX
  8
0
 10
12.8579
 20
11.7967
 30
0.0
 40
0
 41
0
  0
VERTEX
  8
0
 10
12.8579
 20
12.3047
 30
0.0
 40
0
 41
0
  0
VERTEX
  8
0
 10
12.9378
 20
12.3047
 30
0.0
 40
0
 41
0
  0
VERTEX
  8
0
 10
12.9378
 20
11.6973
 30
0.0
 40
0
 41
0
  0
VERTEX
  8
0
 10
12.8271
 20
11.6973
 30
0.0
 40
0
 41
0
  0
VERTEX
  8
0
 10
12.5576
 20
12.2056
 30
0.0
 40
0
 41
0
  0
VERTEX
  8
0
 10
12.5576
 20
11.6973
 30
0.0
 40
0
 41
0
  0
VERTEX
  8
0
 10
12.4779
 20
11.6973
 30
0.0
 40
0
 41
0
  0
VERTEX
  8
0
 10
12.4779
 20
12.3047
 30
0.0
 40
0
 41
0
  0
SEQEND
 8
0
  0
POLYLINE
  8
0
 62
     0
 66
     1
 10
0
 20
0
 30
0.0
 70
     1
 40
0
 41
0
  0
VERTEX
  8
0
 10
14.054
 20
12.2238
 30
0.0
 40
0
 41
0
  0
VERTEX
  8
0
 10
13.9425
 20
11.9215
 30
0.0
 40
0
 41
0
  0
VERTEX
  8
0
 10
14.1658
 20
11.9215
 30
0.0
 40
0
 41
0
  0
VERTEX
  8
0
 10
14.054
 20
12.2238
 30
0.0
 40
0
 41
0
  0
SEQEND
 8
0
  0
POLYLINE
  8
0
 62
     0
 66
     1
 10
0
 20
0
 30
0.0
 70
     1
 40
0
 41
0
  0
VERTEX
  8
0
 10
14.0076
 20
12.3047
 30
0.0
 40
0
 41
0
  0
VERTEX
  8
0
 10
14.1007
 20
12.3047
 30
0.0
 40
0
 41
0
  0
VERTEX
  8
0
 10
14.3324
 20
11.6973
 30
0.0
 40
0
 41
0
  0
VERTEX
  8
0
 10
14.2468
 20
11.6973
 30
0.0
 40
0
 41
0
  0
VERTEX
  8
0
 10
14.1915
 20
11.8531
 30
0.0
 40
0
 41
0
  0
VERTEX
  8
0
 10
13.9176
 20
11.8531
 30
0.0
 40
0
 41
0
  0
VERTEX
  8
0
 10
13.8622
 20
11.6973
 30
0.0
 40
0
 41
0
  0
VERTEX
  8
0
 10
13.7757
 20
11.6973
 30
0.0
 40
0
 41
0
  0
VERTEX
  8
0
 10
14.0076
 20
12.3047
 30
0.0
 40
0
 41
0
  0
SEQEND
 8
0
  0
POLYLINE
  8
0
 62
     0
 66
     1
 10
0
 20
0
 30
0.0
 70
     1
 40
0
 41
0
  0
VERTEX
  8
0
 10
15.6821
 20
12.2581
 30
0.0
 40
0
 41
0
  0
VERTEX
  8
0
 10
15.6821
 20
12.1713
 30
0.0
 40
0
 41
0
  0
VERTEX
  8
0
 10
15.5936
 20
12.2292
 30
0.0
 40
0
 41
0
  0
VERTEX
  8
0
 10
15.4938
 20
12.2483
 30
0.0
 40
0
 41
0
  0
VERTEX
  8
0
 10
15.4447
 20
12.2444
 30
0.0
 40
0
 41
0
  0
VERTEX
  8
0
 10
15.4018
 20
12.2324
 30
0.0
 40
0
 41
0
  0
VERTEX
  8
0
 10
15.365
 20
12.2125
 30
0.0
 40
0
 41
0
  0
VERTEX
  8
0
 10
15.3343
 20
12.1845
 30
0.0
 40
0
 41
0
  0
VERTEX
  8
0
 10
15.31
 20
12.1492
 30
0.0
 40
0
 41
0
  0
VERTEX
  8
0
 10
15.2928
 20
12.1067
 30
0.0
 40
0
 41
0
  0
VERTEX
  8
0
 10
15.2824
 20
12.0572
 30
0.0
 40
0
 41
0
  0
VERTEX
  8
0
 10
15.2789
 20
12.0005
 30
0.0
 40
0
 41
0
  0
VERTEX
  8
0
 10
15.2824
 20
11.944
 30
0.0
 40
0
 41
0
  0
VERTEX
  8
0
 10
15.2928
 20
11.8945
 30
0.0
 40
0
 41
0
  0
VERTEX
  8
0
 10
15.31
 20
11.8521
 30
0.0
 40
0
 41
0
  0
VERTEX
  8
0
 10
15.3343
 20
11.8167
 30
0.0
 40
0
 41
0
  0
VERTEX
  8
0
 10
15.365
 20
11.7888
 30
0.0
 40
0
 41
0
  0
VERTEX
  8
0
 10
15.4018
 20
11.769
 30
0.0
 40
0
 41
0
  0
VERTEX
  8
0
 10
15.4447
 20
11.7571
 30
0.0
 40
0
 41
0
  0
VERTEX
  8
0
 10
15.4938
 20
11.7531
 30
0.0
 40
0
 41
0
  0
VERTEX
  8
0
 10
15.5936
 20
11.7722
 30
0.0
 40
0
 41
0
  0
VERTEX
  8
0
 10
15.6821
 20
11.8299
 30
0.0
 40
0
 41
0
  0
VERTEX
  8
0
 10
15.6821
 20
11.7442
 30
0.0
 40
0
 41
0
  0
VERTEX
  8
0
 10
15.5908
 20
11.7001
 30
0.0
 40
0
 41
0
  0
VERTEX
  8
0
 10
15.489
 20
11.6856
 30
0.0
 40
0
 41
0
  0
VERTEX
  8
0
 10
15.4236
 20
11.6909
 30
0.0
 40
0
 41
0
  0
VERTEX
  8
0
 10
15.3656
 20
11.7067
 30
0.0
 40
0
 41
0
  0
VERTEX
  8
0
 10
15.3149
 20
11.7331
 30
0.0
 40
0
 41
0
  0
VERTEX
  8
0
 10
15.2715
 20
11.77
 30
0.0
 40
0
 41
0
  0
VERTEX
  8
0
 10
15.2121
 20
11.8698
 30
0.0
 40
0
 41
0
  0
VERTEX
  8
0
 10
15.1924
 20
12.0005
 30
0.0
 40
0
 41
0
  0
VERTEX
  8
0
 10
15.2121
 20
12.1315
 30
0.0
 40
0
 41
0
  0
VERTEX
  8
0
 10
15.2715
 20
12.2314
 30
0.0
 40
0
 41
0
  0
VERTEX
  8
0
 10
15.3149
 20
12.2683
 30
0.0
 40
0
 41
0
  0
VERTEX
  8
0
 10
15.3656
 20
12.2947
 30
0.0
 40
0
 41
0
  0
VERTEX
  8
0
 10
15.4236
 20
12.3105
 30
0.0
 40
0
 41
0
  0
VERTEX
  8
0
 10
15.489
 20
12.3158
 30
0.0
 40
0
 41
0
  0
VERTEX
  8
0
 10
15.5917
 20
12.3013
 30
0.0
 40
0
 41
0
  0
VERTEX
  8
0
 10
15.6821
 20
12.2581
 30
0.0
 40
0
 41
0
  0
SEQEND
 8
0
  0
POLYLINE
  8
0
 62
     0
 66
     1
 10
0
 20
0
 30
0.0
 70
     1
 40
0
 41
0
  0
VERTEX
  8
0
 10
16.6201
 20
12.3047
 30
0.0
 40
0
 41
0
  0
VERTEX
  8
0
 10
16.7024
 20
12.3047
 30
0.0
 40
0
 41
0
  0
VERTEX
  8
0
 10
16.7024
 20
12.0558
 30
0.0
 40
0
 41
0
  0
VERTEX
  8
0
 10
17.001
 20
12.0558
 30
0.0
 40
0
 41
0
  0
VERTEX
  8
0
 10
17.001
 20
12.3047
 30
0.0
 40
0
 41
0
  0
VERTEX
  8
0
 10
17.0832
 20
12.3047
 30
0.0
 40
0
 41
0
  0
VERTEX
  8
0
 10
17.0832
 20
11.6973
 30
0.0
 40
0
 41
0
  0
VERTEX
  8
0
 10
17.001
 20
11.6973
 30
0.0
 40
0
 41
0
  0
VERTEX
  8
0
 10
17.001
 20
11.9866
 30
0.0
 40
0
 41
0
  0
VERTEX
  8
0
 10
16.7024
 20
11.9866
 30
0.0
 40
0
 41
0
  0
VERTEX
  8
0
 10
16.7024
 20
11.6973
 30
0.0
 40
0
 41
0
  0
VERTEX
  8
0
 10
16.6201
 20
11.6973
 30
0.0
 40
0
 41
0
  0
VERTEX
  8
0
 10
16.6201
 20
12.3047
 30
0.0
 40
0
 41
0
  0
SEQEND
 8
0
  0
POLYLINE
  8
0
 62
     0
 66
     1
 10
0
 20
0
 30
0.0
 70
     1
 40
0
 41
0
  0
VERTEX
  8
0
 10
2.81147
 20
10.9239
 30
0.0
 40
0
 41
0
  0
VERTEX
  8
0
 10
2.89372
 20
10.9239
 30
0.0
 40
0
 41
0
  0
VERTEX
  8
0
 10
2.89372
 20
10.675
 30
0.0
 40
0
 41
0
  0
VERTEX
  8
0
 10
3.19233
 20
10.675
 30
0.0
 40
0
 41
0
  0
VERTEX
  8
0
 10
3.19233
 20
10.9239
 30
0.0
 40
0
 41
0
  0
VERTEX
  8
0
 10
3.27458
 20
10.9239
 30
0.0
 40
0
 41
0
  0
VERTEX
  8
0
 10
3.27458
 20
10.3165
 30
0.0
 40
0
 41
0
  0
VERTEX
  8
0
 10
3.19233
 20
10.3165
 30
0.0
 40
0
 41
0
  0
VERTEX
  8
0
 10
3.19233
 20
10.6057
 30
0.0
 40
0
 41
0
  0
VERTEX
  8
0
 10
2.89372
 20
10.6057
 30
0.0
 40
0
 41
0
  0
VERTEX
  8
0
 10
2.89372
 20
10.3165
 30
0.0
 40
0
 41
0
  0
VERTEX
  8
0
 10
2.81147
 20
10.3165
 30
0.0
 40
0
 41
0
  0
VERTEX
  8
0
 10
2.81147
 20
10.9239
 30
0.0
 40
0
 41
0
  0
SEQEND
 8
0
  0
POLYLINE
  8
0
 62
     0
 66
     1
 10
0
 20
0
 30
0.0
 70
     1
 40
0
 41
0
  0
VERTEX
  8
0
 10
4.38803
 20
10.8429
 30
0.0
 40
0
 41
0
  0
VERTEX
  8
0
 10
4.27647
 20
10.5406
 30
0.0
 40
0
 41
0
  0
VERTEX
  8
0
 10
4.49978
 20
10.5406
 30
0.0
 40
0
 41
0
  0
VERTEX
  8
0
 10
4.38803
 20
10.8429
 30
0.0
 40
0
 41
0
  0
SEQEND
 8
0
  0
POLYLINE
  8
0
 62
     0
 66
     1
 10
0
 20
0
 30
0.0
 70
     1
 40
0
 41
0
  0
VERTEX
  8
0
 10
4.34158
 20
10.9239
 30
0.0
 40
0
 41
0
  0
VERTEX
  8
0
 10
4.43468
 20
10.9239
 30
0.0
 40
0
 41
0
  0
VERTEX
  8
0
 10
4.66624
 20
10.3165
 30
0.0
 40
0
 41
0
  0
VERTEX
  8
0
 10
4.58074
 20
10.3165
 30
0.0
 40
0
 41
0
  0
VERTEX
  8
0
 10
4.52539
 20
10.4723
 30
0.0
 40
0
 41
0
  0
VERTEX
  8
0
 10
4.25151
 20
10.4723
 30
0.0
 40
0
 41
0
  0
VERTEX
  8
0
 10
4.19618
 20
10.3165
 30
0.0
 40
0
 41
0
  0
VERTEX
  8
0
 10
4.1096
 20
10.3165
 30
0.0
 40
0
 41
0
  0
VERTEX
  8
0
 10
4.34158
 20
10.9239
 30
0.0
 40
0
 41
0
  0
SEQEND
 8
0
  0
POLYLINE
  8
0
 62
     0
 66
     1
 10
0
 20
0
 30
0.0
 70
     1
 40
0
 41
0
  0
VERTEX
  8
0
 10
5.60861
 20
10.9239
 30
0.0
 40
0
 41
0
  0
VERTEX
  8
0
 10
5.69086
 20
10.9239
 30
0.0
 40
0
 41
0
  0
VERTEX
  8
0
 10
5.69086
 20
10.3857
 30
0.0
 40
0
 41
0
  0
VERTEX
  8
0
 10
5.98665
 20
10.3857
 30
0.0
 40
0
 41
0
  0
VERTEX
  8
0
 10
5.98665
 20
10.3165
 30
0.0
 40
0
 41
0
  0
VERTEX
  8
0
 10
5.60861
 20
10.3165
 30
0.0
 40
0
 41
0
  0
VERTEX
  8
0
 10
5.60861
 20
10.9239
 30
0.0
 40
0
 41
0
  0
SEQEND
 8
0
  0
POLYLINE
  8
0
 62
     0
 66
     1
 10
0
 20
0
 30
0.0
 70
     1
 40
0
 41
0
  0
VERTEX
  8
0
 10
7.04443
 20
10.6066
 30
0.0
 40
0
 41
0
  0
VERTEX
  8
0
 10
7.04443
 20
10.384
 30
0.0
 40
0
 41
0
  0
VERTEX
  8
0
 10
7.17617
 20
10.384
 30
0.0
 40
0
 41
0
  0
VERTEX
  8
0
 10
7.23394
 20
10.3908
 30
0.0
 40
0
 41
0
  0
VERTEX
  8
0
 10
7.27447
 20
10.4113
 30
0.0
 40
0
 41
0
  0
VERTEX
  8
0
 10
7.29839
 20
10.4461
 30
0.0
 40
0
 41
0
  0
VERTEX
  8
0
 10
7.30638
 20
10.4955
 30
0.0
 40
0
 41
0
  0
VERTEX
  8
0
 10
7.29839
 20
10.545
 30
0.0
 40
0
 41
0
  0
VERTEX
  8
0
 10
7.27447
 20
10.5795
 30
0.0
 40
0
 41
0
  0
VERTEX
  8
0
 10
7.23394
 20
10.5998
 30
0.0
 40
0
 41
0
  0
VERTEX
  8
0
 10
7.17617
 20
10.6066
 30
0.0
 40
0
 41
0
  0
VERTEX
  8
0
 10
7.04443
 20
10.6066
 30
0.0
 40
0
 41
0
  0
SEQEND
 8
0
  0
POLYLINE
  8
0
 62
     0
 66
     1
 10
0
 20
0
 30
0.0
 70
     1
 40
0
 41
0
  0
VERTEX
  8
0
 10
7.04443
 20
10.8564
 30
0.0
 40
0
 41
0
  0
VERTEX
  8
0
 10
7.04443
 20
10.6732
 30
0.0
 40
0
 41
0
  0
VERTEX
  8
0
 10
7.16596
 20
10.6732
 30
0.0
 40
0
 41
0
  0
VERTEX
  8
0
 10
7.21853
 20
10.6789
 30
0.0
 40
0
 41
0
  0
VERTEX
  8
0
 10
7.25581
 20
10.6958
 30
0.0
 40
0
 41
0
  0
VERTEX
  8
0
 10
7.27789
 20
10.7244
 30
0.0
 40
0
 41
0
  0
VERTEX
  8
0
 10
7.28532
 20
10.7648
 30
0.0
 40
0
 41
0
  0
VERTEX
  8
0
 10
7.27789
 20
10.805
 30
0.0
 40
0
 41
0
  0
VERTEX
  8
0
 10
7.25581
 20
10.8336
 30
0.0
 40
0
 41
0
  0
VERTEX
  8
0
 10
7.21853
 20
10.8507
 30
0.0
 40
0
 41
0
  0
VERTEX
  8
0
 10
7.16596
 20
10.8564
 30
0.0
 40
0
 41
0
  0
VERTEX
  8
0
 10
7.04443
 20
10.8564
 30
0.0
 40
0
 41
0
  0
SEQEND
 8
0
  0
POLYLINE
  8
0
 62
     0
 66
     1
 10
0
 20
0
 30
0.0
 70
     1
 40
0
 41
0
  0
VERTEX
  8
0
 10
6.96218
 20
10.9239
 30
0.0
 40
0
 41
0
  0
VERTEX
  8
0
 10
7.17204
 20
10.9239
 30
0.0
 40
0
 41
0
  0
VERTEX
  8
0
 10
7.25532
 20
10.9141
 30
0.0
 40
0
 41
0
  0
VERTEX
  8
0
 10
7.317
 20
10.8848
 30
0.0
 40
0
 41
0
  0
VERTEX
  8
0
 10
7.35508
 20
10.8376
 30
0.0
 40
0
 41
0
  0
VERTEX
  8
0
 10
7.36778
 20
10.7739
 30
0.0
 40
0
 41
0
  0
VERTEX
  8
0
 10
7.36128
 20
10.7238
 30
0.0
 40
0
 41
0
  0
VERTEX
  8
0
 10
7.34174
 20
10.6852
 30
0.0
 40
0
 41
0
  0
VERTEX
  8
0
 10
7.30957
 20
10.6584
 30
0.0
 40
0
 41
0
  0
VERTEX
  8
0
 10
7.26535
 20
10.6439
 30
0.0
 40
0
 41
0
  0
VERTEX
  8
0
 10
7.31912
 20
10.6239
 30
0.0
 40
0
 41
0
  0
VERTEX
  8
0
 10
7.35954
 20
10.5897
 30
0.0
 40
0
 41
0
  0
VERTEX
  8
0
 10
7.38471
 20
10.5433
 30
0.0
 40
0
 41
0
  0
VERTEX
  8
0
 10
7.39318
 20
10.4866
 30
0.0
 40
0
 41
0
  0
VERTEX
  8
0
 10
7.37935
 20
10.4144
 30
0.0
 40
0
 41
0
  0
VERTEX
  8
0
 10
7.33783
 20
10.3607
 30
0.0
 40
0
 41
0
  0
VERTEX
  8
0
 10
7.27078
 20
10.3275
 30
0.0
 40
0
 41
0
  0
VERTEX
  8
0
 10
7.18028
 20
10.3165
 30
0.0
 40
0
 41
0
  0
VERTEX
  8
0
 10
6.96218
 20
10.3165
 30
0.0
 40
0
 41
0
  0
VERTEX
  8
0
 10
6.96218
 20
10.9239
 30
0.0
 40
0
 41
0
  0
SEQEND
 8
0
  0
POLYLINE
  8
0
 62
     0
 66
     1
 10
0
 20
0
 30
0.0
 70
     1
 40
0
 41
0
  0
VERTEX
  8
0
 10
8.30007
 20
10.9239
 30
0.0
 40
0
 41
0
  0
VERTEX
  8
0
 10
8.3884
 20
10.9239
 30
0.0
 40
0
 41
0
  0
VERTEX
  8
0
 10
8.53922
 20
10.6982
 30
0.0
 40
0
 41
0
  0
VERTEX
  8
0
 10
8.69114
 20
10.9239
 30
0.0
 40
0
 41
0
  0
VERTEX
  8
0
 10
8.77946
 20
10.9239
 30
0.0
 40
0
 41
0
  0
VERTEX
  8
0
 10
8.58415
 20
10.6322
 30
0.0
 40
0
 41
0
  0
VERTEX
  8
0
 10
8.79249
 20
10.3165
 30
0.0
 40
0
 41
0
  0
VERTEX
  8
0
 10
8.70415
 20
10.3165
 30
0.0
 40
0
 41
0
  0
VERTEX
  8
0
 10
8.53315
 20
10.5749
 30
0.0
 40
0
 41
0
  0
VERTEX
  8
0
 10
8.36106
 20
10.3165
 30
0.0
 40
0
 41
0
  0
VERTEX
  8
0
 10
8.27229
 20
10.3165
 30
0.0
 40
0
 41
0
  0
VERTEX
  8
0
 10
8.48931
 20
10.6407
 30
0.0
 40
0
 41
0
  0
VERTEX
  8
0
 10
8.30007
 20
10.9239
 30
0.0
 40
0
 41
0
  0
SEQEND
 8
0
  0
POLYLINE
  8
0
 62
     0
 66
     1
 10
0
 20
0
 30
0.0
 70
     1
 40
0
 41
0
  0
VERTEX
  8
0
 10
9.72407
 20
10.9239
 30
0.0
 40
0
 41
0
  0
VERTEX
  8
0
 10
10.1082
 20
10.9239
 30
0.0
 40
0
 41
0
  0
VERTEX
  8
0
 10
10.1082
 20
10.8549
 30
0.0
 40
0
 41
0
  0
VERTEX
  8
0
 10
9.80632
 20
10.8549
 30
0.0
 40
0
 41
0
  0
VERTEX
  8
0
 10
9.80632
 20
10.675
 30
0.0
 40
0
 41
0
  0
VERTEX
  8
0
 10
10.0956
 20
10.675
 30
0.0
 40
0
 41
0
  0
VERTEX
  8
0
 10
10.0956
 20
10.6057
 30
0.0
 40
0
 41
0
  0
VERTEX
  8
0
 10
9.80632
 20
10.6057
 30
0.0
 40
0
 41
0
  0
VERTEX
  8
0
 10
9.80632
 20
10.3857
 30
0.0
 40
0
 41
0
  0
VERTEX
  8
0
 10
10.1156
 20
10.3857
 30
0.0
 40
0
 41
0
  0
VERTEX
  8
0
 10
10.1156
 20
10.3165
 30
0.0
 40
0
 41
0
  0
VERTEX
  8
0
 10
9.72407
 20
10.3165
 30
0.0
 40
0
 41
0
  0
VERTEX
  8
0
 10
9.72407
 20
10.9239
 30
0.0
 40
0
 41
0
  0
SEQEND
 8
0
  0
POLYLINE
  8
0
 62
     0
 66
     1
 10
0
 20
0
 30
0.0
 70
     1
 40
0
 41
0
  0
VERTEX
  8
0
 10
11.1321
 20
10.9239
 30
0.0
 40
0
 41
0
  0
VERTEX
  8
0
 10
11.2143
 20
10.9239
 30
0.0
 40
0
 41
0
  0
VERTEX
  8
0
 10
11.2143
 20
10.3857
 30
0.0
 40
0
 41
0
  0
VERTEX
  8
0
 10
11.5101
 20
10.3857
 30
0.0
 40
0
 41
0
  0
VERTEX
  8
0
 10
11.5101
 20
10.3165
 30
0.0
 40
0
 41
0
  0
VERTEX
  8
0
 10
11.1321
 20
10.3165
 30
0.0
 40
0
 41
0
  0
VERTEX
  8
0
 10
11.1321
 20
10.9239
 30
0.0
 40
0
 41
0
  0
SEQEND
 8
0
  0
POLYLINE
  8
0
 62
     0
 66
     1
 10
0
 20
0
 30
0.0
 70
     1
 40
0
 41
0
  0
VERTEX
  8
0
 10
12.4999
 20
10.9239
 30
0.0
 40
0
 41
0
  0
VERTEX
  8
0
 10
12.8491
 20
10.9239
 30
0.0
 40
0
 41
0
  0
VERTEX
  8
0
 10
12.8491
 20
10.8549
 30
0.0
 40
0
 41
0
  0
VERTEX
  8
0
 10
12.5821
 20
10.8549
 30
0.0
 40
0
 41
0
  0
VERTEX
  8
0
 10
12.5821
 20
10.6758
 30
0.0
 40
0
 41
0
  0
VERTEX
  8
0
 10
12.823
 20
10.6758
 30
0.0
 40
0
 41
0
  0
VERTEX
  8
0
 10
12.823
 20
10.6066
 30
0.0
 40
0
 41
0
  0
VERTEX
  8
0
 10
12.5821
 20
10.6066
 30
0.0
 40
0
 41
0
  0
VERTEX
  8
0
 10
12.5821
 20
10.3165
 30
0.0
 40
0
 41
0
  0
VERTEX
  8
0
 10
12.4999
 20
10.3165
 30
0.0
 40
0
 41
0
  0
VERTEX
  8
0
 10
12.4999
 20
10.9239
 30
0.0
 40
0
 41
0
  0
SEQEND
 8
0
  0
POLYLINE
  8
0
 62
     0
 66
     1
 10
0
 20
0
 30
0.0
 70
     1
 40
0
 41
0
  0
VERTEX
  8
0
 10
13.849
 20
10.8854
 30
0.0
 40
0
 41
0
  0
VERTEX
  8
0
 10
13.9315
 20
10.8854
 30
0.0
 40
0
 41
0
  0
VERTEX
  8
0
 10
13.9315
 20
10.5164
 30
0.0
 40
0
 41
0
  0
VERTEX
  8
0
 10
13.9403
 20
10.4325
 30
0.0
 40
0
 41
0
  0
VERTEX
  8
0
 10
13.9668
 20
10.3758
 30
0.0
 40
0
 41
0
  0
VERTEX
  8
0
 10
14.0133
 20
10.3436
 30
0.0
 40
0
 41
0
  0
VERTEX
  8
0
 10
14.0817
 20
10.3328
 30
0.0
 40
0
 41
0
  0
VERTEX
  8
0
 10
14.1497
 20
10.3436
 30
0.0
 40
0
 41
0
  0
VERTEX
  8
0
 10
14.196
 20
10.3758
 30
0.0
 40
0
 41
0
  0
VERTEX
  8
0
 10
14.2225
 20
10.4325
 30
0.0
 40
0
 41
0
  0
VERTEX
  8
0
 10
14.2314
 20
10.5164
 30
0.0
 40
0
 41
0
  0
VERTEX
  8
0
 10
14.2314
 20
10.8854
 30
0.0
 40
0
 41
0
  0
VERTEX
  8
0
 10
14.314
 20
10.8854
 30
0.0
 40
0
 41
0
  0
VERTEX
  8
0
 10
14.314
 20
10.5062
 30
0.0
 40
0
 41
0
  0
VERTEX
  8
0
 10
14.3104
 20
10.4504
 30
0.0
 40
0
 41
0
  0
VERTEX
  8
0
 10
14.2993
 20
10.4019
 30
0.0
 40
0
 41
0
  0
VERTEX
  8
0
 10
14.281
 20
10.3607
 30
0.0
 40
0
 41
0
  0
VERTEX
  8
0
 10
14.2553
 20
10.3268
 30
0.0
 40
0
 41
0
  0
VERTEX
  8
0
 10
14.2224
 20
10.3003
 30
0.0
 40
0
 41
0
  0
VERTEX
  8
0
 10
14.1824
 20
10.2814
 30
0.0
 40
0
 41
0
  0
VERTEX
  8
0
 10
14.1356
 20
10.27
 30
0.0
 40
0
 41
0
  0
VERTEX
  8
0
 10
14.0817
 20
10.2662
 30
0.0
 40
0
 41
0
  0
VERTEX
  8
0
 10
14.0276
 20
10.27
 30
0.0
 40
0
 41
0
  0
VERTEX
  8
0
 10
13.9807
 20
10.2814
 30
0.0
 40
0
 41
0
  0
VERTEX
  8
0
 10
13.9407
 20
10.3003
 30
0.0
 40
0
 41
0
  0
VERTEX
  8
0
 10
13.9078
 20
10.3268
 30
0.0
 40
0
 41
0
  0
VERTEX
  8
0
 10
13.8821
 20
10.3607
 30
0.0
 40
0
 41
0
  0
VERTEX
  8
0
 10
13.8637
 20
10.4019
 30
0.0
 40
0
 41
0
  0
VERTEX
  8
0
 10
13.8527
 20
10.4504
 30
0.0
 40
0
 41
0
  0
VERTEX
  8
0
 10
13.849
 20
10.5062
 30
0.0
 40
0
 41
0
  0
VERTEX
  8
0
 10
13.849
 20
10.8854
 30
0.0
 40
0
 41
0
  0
SEQEND
 8
0
  0
POLYLINE
  8
0
 62
     0
 66
     1
 10
0
 20
0
 30
0.0
 70
     1
 40
0
 41
0
  0
VERTEX
  8
0
 10
14.1203
 20
11.0399
 30
0.0
 40
0
 41
0
  0
VERTEX
  8
0
 10
14.2029
 20
11.0399
 30
0.0
 40
0
 41
0
  0
VERTEX
  8
0
 10
14.2029
 20
10.9572
 30
0.0
 40
0
 41
0
  0
VERTEX
  8
0
 10
14.1203
 20
10.9572
 30
0.0
 40
0
 41
0
  0
VERTEX
  8
0
 10
14.1203
 20
11.0399
 30
0.0
 40
0
 41
0
  0
SEQEND
 8
0
  0
POLYLINE
  8
0
 62
     0
 66
     1
 10
0
 20
0
 30
0.0
 70
     1
 40
0
 41
0
  0
VERTEX
  8
0
 10
13.9613
 20
11.0399
 30
0.0
 40
0
 41
0
  0
VERTEX
  8
0
 10
14.0439
 20
11.0399
 30
0.0
 40
0
 41
0
  0
VERTEX
  8
0
 10
14.0439
 20
10.9572
 30
0.0
 40
0
 41
0
  0
VERTEX
  8
0
 10
13.9613
 20
10.9572
 30
0.0
 40
0
 41
0
  0
VERTEX
  8
0
 10
13.9613
 20
11.0399
 30
0.0
 40
0
 41
0
  0
SEQEND
 8
0
  0
POLYLINE
  8
0
 62
     0
 66
     1
 10
0
 20
0
 30
0.0
 70
     1
 40
0
 41
0
  0
VERTEX
  8
0
 10
15.2397
 20
10.9239
 30
0.0
 40
0
 41
0
  0
VERTEX
  8
0
 10
15.3504
 20
10.9239
 30
0.0
 40
0
 41
0
  0
VERTEX
  8
0
 10
15.6197
 20
10.4158
 30
0.0
 40
0
 41
0
  0
VERTEX
  8
0
 10
15.6197
 20
10.9239
 30
0.0
 40
0
 41
0
  0
VERTEX
  8
0
 10
15.6996
 20
10.9239
 30
0.0
 40
0
 41
0
  0
VERTEX
  8
0
 10
15.6996
 20
10.3165
 30
0.0
 40
0
 41
0
  0
VERTEX
  8
0
 10
15.5889
 20
10.3165
 30
0.0
 40
0
 41
0
  0
VERTEX
  8
0
 10
15.3193
 20
10.8247
 30
0.0
 40
0
 41
0
  0
VERTEX
  8
0
 10
15.3193
 20
10.3165
 30
0.0
 40
0
 41
0
  0
VERTEX
  8
0
 10
15.2397
 20
10.3165
 30
0.0
 40
0
 41
0
  0
VERTEX
  8
0
 10
15.2397
 20
10.9239
 30
0.0
 40
0
 41
0
  0
SEQEND
 8
0
  0
POLYLINE
  8
0
 62
     0
 66
     1
 10
0
 20
0
 30
0.0
 70
     1
 40
0
 41
0
  0
VERTEX
  8
0
 10
16.6425
 20
10.9239
 30
0.0
 40
0
 41
0
  0
VERTEX
  8
0
 10
16.9917
 20
10.9239
 30
0.0
 40
0
 41
0
  0
VERTEX
  8
0
 10
16.9917
 20
10.8549
 30
0.0
 40
0
 41
0
  0
VERTEX
  8
0
 10
16.7247
 20
10.8549
 30
0.0
 40
0
 41
0
  0
VERTEX
  8
0
 10
16.7247
 20
10.6758
 30
0.0
 40
0
 41
0
  0
VERTEX
  8
0
 10
16.9657
 20
10.6758
 30
0.0
 40
0
 41
0
  0
VERTEX
  8
0
 10
16.9657
 20
10.6066
 30
0.0
 40
0
 41
0
  0
VERTEX
  8
0
 10
16.7247
 20
10.6066
 30
0.0
 40
0
 41
0
  0
VERTEX
  8
0
 10
16.7247
 20
10.3165
 30
0.0
 40
0
 41
0
  0
VERTEX
  8
0
 10
16.6425
 20
10.3165
 30
0.0
 40
0
 41
0
  0
VERTEX
  8
0
 10
16.6425
 20
10.9239
 30
0.0
 40
0
 41
0
  0
SEQEND
 8
0
  0
POLYLINE
  8
0
 62
     0
 66
     1
 10
0
 20
0
 30
0.0
 70
     1
 40
0
 41
0
  0
VERTEX
  8
0
 10
2.81972
 20
9.54303
 30
0.0
 40
0
 41
0
  0
VERTEX
  8
0
 10
3.20383
 20
9.54303
 30
0.0
 40
0
 41
0
  0
VERTEX
  8
0
 10
3.20383
 20
9.47401
 30
0.0
 40
0
 41
0
  0
VERTEX
  8
0
 10
2.90196
 20
9.47401
 30
0.0
 40
0
 41
0
  0
VERTEX
  8
0
 10
2.90196
 20
9.29411
 30
0.0
 40
0
 41
0
  0
VERTEX
  8
0
 10
3.19125
 20
9.29411
 30
0.0
 40
0
 41
0
  0
VERTEX
  8
0
 10
3.19125
 20
9.22487
 30
0.0
 40
0
 41
0
  0
VERTEX
  8
0
 10
2.90196
 20
9.22487
 30
0.0
 40
0
 41
0
  0
VERTEX
  8
0
 10
2.90196
 20
9.00483
 30
0.0
 40
0
 41
0
  0
VERTEX
  8
0
 10
3.21121
 20
9.00483
 30
0.0
 40
0
 41
0
  0
VERTEX
  8
0
 10
3.21121
 20
8.9356
 30
0.0
 40
0
 41
0
  0
VERTEX
  8
0
 10
2.81972
 20
8.9356
 30
0.0
 40
0
 41
0
  0
VERTEX
  8
0
 10
2.81972
 20
9.54303
 30
0.0
 40
0
 41
0
  0
SEQEND
 8
0
  0
POLYLINE
  8
0
 62
     0
 66
     1
 10
0
 20
0
 30
0.0
 70
     1
 40
0
 41
0
  0
VERTEX
  8
0
 10
4.32493
 20
9.54303
 30
0.0
 40
0
 41
0
  0
VERTEX
  8
0
 10
4.40717
 20
9.54303
 30
0.0
 40
0
 41
0
  0
VERTEX
  8
0
 10
4.40717
 20
8.9356
 30
0.0
 40
0
 41
0
  0
VERTEX
  8
0
 10
4.32493
 20
8.9356
 30
0.0
 40
0
 41
0
  0
VERTEX
  8
0
 10
4.32493
 20
9.54303
 30
0.0
 40
0
 41
0
  0
SEQEND
 8
0
  0
POLYLINE
  8
0
 62
     0
 66
     1
 10
0
 20
0
 30
0.0
 70
     1
 40
0
 41
0
  0
VERTEX
  8
0
 10
5.57362
 20
9.54303
 30
0.0
 40
0
 41
0
  0
VERTEX
  8
0
 10
5.68431
 20
9.54303
 30
0.0
 40
0
 41
0
  0
VERTEX
  8
0
 10
5.95361
 20
9.035
 30
0.0
 40
0
 41
0
  0
VERTEX
  8
0
 10
5.95361
 20
9.54303
 30
0.0
 40
0
 41
0
  0
VERTEX
  8
0
 10
6.03347
 20
9.54303
 30
0.0
 40
0
 41
0
  0
VERTEX
  8
0
 10
6.03347
 20
8.9356
 30
0.0
 40
0
 41
0
  0
VERTEX
  8
0
 10
5.92279
 20
8.9356
 30
0.0
 40
0
 41
0
  0
VERTEX
  8
0
 10
5.65326
 20
9.44385
 30
0.0
 40
0
 41
0
  0
VERTEX
  8
0
 10
5.65326
 20
8.9356
 30
0.0
 40
0
 41
0
  0
VERTEX
  8
0
 10
5.57362
 20
8.9356
 30
0.0
 40
0
 41
0
  0
VERTEX
  8
0
 10
5.57362
 20
9.54303
 30
0.0
 40
0
 41
0
  0
SEQEND
 8
0
  0
POLYLINE
  8
0
 62
     0
 66
     1
 10
0
 20
0
 30
0.0
 70
     1
 40
0
 41
0
  0
VERTEX
  8
0
 10
7.32607
 20
9.52328
 30
0.0
 40
0
 41
0
  0
VERTEX
  8
0
 10
7.32607
 20
9.44299
 30
0.0
 40
0
 41
0
  0
VERTEX
  8
0
 10
7.23774
 20
9.4764
 30
0.0
 40
0
 41
0
  0
VERTEX
  8
0
 10
7.15767
 20
9.48747
 30
0.0
 40
0
 41
0
  0
VERTEX
  8
0
 10
7.09804
 20
9.48096
 30
0.0
 40
0
 41
0
  0
VERTEX
  8
0
 10
7.05393
 20
9.46143
 30
0.0
 40
0
 41
0
  0
VERTEX
  8
0
 10
7.02669
 20
9.42985
 30
0.0
 40
0
 41
0
  0
VERTEX
  8
0
 10
7.01768
 20
9.38721
 30
0.0
 40
0
 41
0
  0
VERTEX
  8
0
 10
7.02371
 20
9.35194
 30
0.0
 40
0
 41
0
  0
VERTEX
  8
0
 10
7.04178
 20
9.32644
 30
0.0
 40
0
 41
0
  0
VERTEX
  8
0
 10
7.07682
 20
9.30783
 30
0.0
 40
0
 41
0
  0
VERTEX
  8
0
 10
7.13357
 20
9.29324
 30
0.0
 40
0
 41
0
  0
VERTEX
  8
0
 10
7.18326
 20
9.28304
 30
0.0
 40
0
 41
0
  0
VERTEX
  8
0
 10
7.26313
 20
9.25896
 30
0.0
 40
0
 41
0
  0
VERTEX
  8
0
 10
7.3189
 20
9.2214
 30
0.0
 40
0
 41
0
  0
VERTEX
  8
0
 10
7.35172
 20
9.16986
 30
0.0
 40
0
 41
0
  0
VERTEX
  8
0
 10
7.36274
 20
9.10335
 30
0.0
 40
0
 41
0
  0
VERTEX
  8
0
 10
7.34793
 20
9.02572
 30
0.0
 40
0
 41
0
  0
VERTEX
  8
0
 10
7.3035
 20
8.96946
 30
0.0
 40
0
 41
0
  0
VERTEX
  8
0
 10
7.23042
 20
8.93528
 30
0.0
 40
0
 41
0
  0
VERTEX
  8
0
 10
7.12989
 20
8.92389
 30
0.0
 40
0
 41
0
  0
VERTEX
  8
0
 10
7.03808
 20
8.93365
 30
0.0
 40
0
 41
0
  0
VERTEX
  8
0
 10
6.93739
 20
8.96251
 30
0.0
 40
0
 41
0
  0
VERTEX
  8
0
 10
6.93739
 20
9.04715
 30
0.0
 40
0
 41
0
  0
VERTEX
  8
0
 10
7.03549
 20
9.00461
 30
0.0
 40
0
 41
0
  0
VERTEX
  8
0
 10
7.12989
 20
8.9905
 30
0.0
 40
0
 41
0
  0
VERTEX
  8
0
 10
7.19228
 20
8.9974
 30
0.0
 40
0
 41
0
  0
VERTEX
  8
0
 10
7.23861
 20
9.01807
 30
0.0
 40
0
 41
0
  0
VERTEX
  8
0
 10
7.26719
 20
9.05171
 30
0.0
 40
0
 41
0
  0
VERTEX
  8
0
 10
7.27681
 20
9.09706
 30
0.0
 40
0
 41
0
  0
VERTEX
  8
0
 10
7.26986
 20
9.13704
 30
0.0
 40
0
 41
0
  0
VERTEX
  8
0
 10
7.24924
 20
9.16715
 30
0.0
 40
0
 41
0
  0
VERTEX
  8
0
 10
7.213
 20
9.18918
 30
0.0
 40
0
 41
0
  0
VERTEX
  8
0
 10
7.15918
 20
9.20492
 30
0.0
 40
0
 41
0
  0
VERTEX
  8
0
 10
7.10926
 20
9.21468
 30
0.0
 40
0
 41
0
  0
VERTEX
  8
0
 10
7.02989
 20
9.23828
 30
0.0
 40
0
 41
0
  0
VERTEX
  8
0
 10
6.97601
 20
9.27219
 30
0.0
 40
0
 41
0
  0
VERTEX
  8
0
 10
6.94526
 20
9.31885
 30
0.0
 40
0
 41
0
  0
VERTEX
  8
0
 10
6.935
 20
9.38069
 30
0.0
 40
0
 41
0
  0
VERTEX
  8
0
 10
6.94917
 20
9.45281
 30
0.0
 40
0
 41
0
  0
VERTEX
  8
0
 10
6.99164
 20
9.50765
 30
0.0
 40
0
 41
0
  0
VERTEX
  8
0
 10
7.05919
 20
9.54249
 30
0.0
 40
0
 41
0
  0
VERTEX
  8
0
 10
7.14833
 20
9.5541
 30
0.0
 40
0
 41
0
  0
VERTEX
  8
0
 10
7.23535
 20
9.54628
 30
0.0
 40
0
 41
0
  0
VERTEX
  8
0
 10
7.32607
 20
9.52328
 30
0.0
 40
0
 41
0
  0
SEQEND
 8
0
  0
POLYLINE
  8
0
 62
     0
 66
     1
 10
0
 20
0
 30
0.0
 70
     1
 40
0
 41
0
  0
VERTEX
  8
0
 10
8.24625
 20
9.54303
 30
0.0
 40
0
 41
0
  0
VERTEX
  8
0
 10
8.33458
 20
9.54303
 30
0.0
 40
0
 41
0
  0
VERTEX
  8
0
 10
8.50319
 20
9.29324
 30
0.0
 40
0
 41
0
  0
VERTEX
  8
0
 10
8.67031
 20
9.54303
 30
0.0
 40
0
 41
0
  0
VERTEX
  8
0
 10
8.75862
 20
9.54303
 30
0.0
 40
0
 41
0
  0
VERTEX
  8
0
 10
8.54378
 20
9.22487
 30
0.0
 40
0
 41
0
  0
VERTEX
  8
0
 10
8.54378
 20
8.9356
 30
0.0
 40
0
 41
0
  0
VERTEX
  8
0
 10
8.46132
 20
8.9356
 30
0.0
 40
0
 41
0
  0
VERTEX
  8
0
 10
8.46132
 20
9.22487
 30
0.0
 40
0
 41
0
  0
VERTEX
  8
0
 10
8.24625
 20
9.54303
 30
0.0
 40
0
 41
0
  0
SEQEND
 8
0
  0
POLYLINE
  8
0
 62
     0
 66
     1
 10
0
 20
0
 30
0.0
 70
     1
 40
0
 41
0
  0
VERTEX
  8
0
 10
9.71024
 20
9.54303
 30
0.0
 40
0
 41
0
  0
VERTEX
  8
0
 10
9.83262
 20
9.54303
 30
0.0
 40
0
 41
0
  0
VERTEX
  8
0
 10
9.98779
 20
9.12961
 30
0.0
 40
0
 41
0
  0
VERTEX
  8
0
 10
10.1436
 20
9.54303
 30
0.0
 40
0
 41
0
  0
VERTEX
  8
0
 10
10.266
 20
9.54303
 30
0.0
 40
0
 41
0
  0
VERTEX
  8
0
 10
10.266
 20
8.9356
 30
0.0
 40
0
 41
0
  0
VERTEX
  8
0
 10
10.1859
 20
8.9356
 30
0.0
 40
0
 41
0
  0
VERTEX
  8
0
 10
10.1859
 20
9.46903
 30
0.0
 40
0
 41
0
  0
VERTEX
  8
0
 10
10.0292
 20
9.05236
 30
0.0
 40
0
 41
0
  0
VERTEX
  8
0
 10
9.94656
 20
9.05236
 30
0.0
 40
0
 41
0
  0
VERTEX
  8
0
 10
9.78987
 20
9.46903
 30
0.0
 40
0
 41
0
  0
VERTEX
  8
0
 10
9.78987
 20
8.9356
 30
0.0
 40
0
 41
0
  0
VERTEX
  8
0
 10
9.71024
 20
8.9356
 30
0.0
 40
0
 41
0
  0
VERTEX
  8
0
 10
9.71024
 20
9.54303
 30
0.0
 40
0
 41
0
  0
SEQEND
 8
0
  0
POLYLINE
  8
0
 62
     0
 66
     1
 10
0
 20
0
 30
0.0
 70
     1
 40
0
 41
0
  0
VERTEX
  8
0
 10
11.1607
 20
9.5466
 30
0.0
 40
0
 41
0
  0
VERTEX
  8
0
 10
11.243
 20
9.5466
 30
0.0
 40
0
 41
0
  0
VERTEX
  8
0
 10
11.243
 20
8.9815
 30
0.0
 40
0
 41
0
  0
VERTEX
  8
0
 10
11.2325
 20
8.88678
 30
0.0
 40
0
 41
0
  0
VERTEX
  8
0
 10
11.2011
 20
8.822
 30
0.0
 40
0
 41
0
  0
VERTEX
  8
0
 10
11.1467
 20
8.78478
 30
0.0
 40
0
 41
0
  0
VERTEX
  8
0
 10
11.0672
 20
8.77229
 30
0.0
 40
0
 41
0
  0
VERTEX
  8
0
 10
11.0357
 20
8.77229
 30
0.0
 40
0
 41
0
  0
VERTEX
  8
0
 10
11.0357
 20
8.84153
 30
0.0
 40
0
 41
0
  0
VERTEX
  8
0
 10
11.0614
 20
8.84153
 30
0.0
 40
0
 41
0
  0
VERTEX
  8
0
 10
11.1079
 20
8.84918
 30
0.0
 40
0
 41
0
  0
VERTEX
  8
0
 10
11.1384
 20
8.87213
 30
0.0
 40
0
 41
0
  0
VERTEX
  8
0
 10
11.1551
 20
8.91471
 30
0.0
 40
0
 41
0
  0
VERTEX
  8
0
 10
11.1607
 20
8.9815
 30
0.0
 40
0
 41
0
  0
VERTEX
  8
0
 10
11.1607
 20
9.5466
 30
0.0
 40
0
 41
0
  0
SEQEND
 8
0
  0
POLYLINE
  8
0
 62
     0
 66
     1
 10
0
 20
0
 30
0.0
 70
     1
 40
0
 41
0
  0
VERTEX
  8
0
 10
12.4588
 20
9.54303
 30
0.0
 40
0
 41
0
  0
VERTEX
  8
0
 10
12.936
 20
9.54303
 30
0.0
 40
0
 41
0
  0
VERTEX
  8
0
 10
12.936
 20
9.48053
 30
0.0
 40
0
 41
0
  0
VERTEX
  8
0
 10
12.5519
 20
9.00483
 30
0.0
 40
0
 41
0
  0
VERTEX
  8
0
 10
12.9454
 20
9.00483
 30
0.0
 40
0
 41
0
  0
VERTEX
  8
0
 10
12.9454
 20
8.9356
 30
0.0
 40
0
 41
0
  0
VERTEX
  8
0
 10
12.4495
 20
8.9356
 30
0.0
 40
0
 41
0
  0
VERTEX
  8
0
 10
12.4495
 20
8.99832
 30
0.0
 40
0
 41
0
  0
VERTEX
  8
0
 10
12.8336
 20
9.47401
 30
0.0
 40
0
 41
0
  0
VERTEX
  8
0
 10
12.4588
 20
9.47401
 30
0.0
 40
0
 41
0
  0
VERTEX
  8
0
 10
12.4588
 20
9.54303
 30
0.0
 40
0
 41
0
  0
SEQEND
 8
0
  0
POLYLINE
  8
0
 62
     0
 66
     1
 10
0
 20
0
 30
0.0
 70
     1
 40
0
 41
0
  0
VERTEX
  8
0
 10
13.7193
 20
9.54303
 30
0.0
 40
0
 41
0
  0
VERTEX
  8
0
 10
13.8022
 20
9.54303
 30
0.0
 40
0
 41
0
  0
VERTEX
  8
0
 10
13.93
 20
9.02957
 30
0.0
 40
0
 41
0
  0
VERTEX
  8
0
 10
14.0574
 20
9.54303
 30
0.0
 40
0
 41
0
  0
VERTEX
  8
0
 10
14.1496
 20
9.54303
 30
0.0
 40
0
 41
0
  0
VERTEX
  8
0
 10
14.2775
 20
9.02957
 30
0.0
 40
0
 41
0
  0
VERTEX
  8
0
 10
14.4049
 20
9.54303
 30
0.0
 40
0
 41
0
  0
VERTEX
  8
0
 10
14.4882
 20
9.54303
 30
0.0
 40
0
 41
0
  0
VERTEX
  8
0
 10
14.3356
 20
8.9356
 30
0.0
 40
0
 41
0
  0
VERTEX
  8
0
 10
14.2324
 20
8.9356
 30
0.0
 40
0
 41
0
  0
VERTEX
  8
0
 10
14.104
 20
9.46294
 30
0.0
 40
0
 41
0
  0
VERTEX
  8
0
 10
13.9747
 20
8.9356
 30
0.0
 40
0
 41
0
  0
VERTEX
  8
0
 10
13.8714
 20
8.9356
 30
0.0
 40
0
 41
0
  0
VERTEX
  8
0
 10
13.7193
 20
9.54303
 30
0.0
 40
0
 41
0
  0
SEQEND
 8
0
  0
POLYLINE
  8
0
 62
     0
 66
     1
 10
0
 20
0
 30
0.0
 70
     1
 40
0
 41
0
  0
VERTEX
  8
0
 10
15.2475
 20
9.54303
 30
0.0
 40
0
 41
0
  0
VERTEX
  8
0
 10
15.6317
 20
9.54303
 30
0.0
 40
0
 41
0
  0
VERTEX
  8
0
 10
15.6317
 20
9.47401
 30
0.0
 40
0
 41
0
  0
VERTEX
  8
0
 10
15.3297
 20
9.47401
 30
0.0
 40
0
 41
0
  0
VERTEX
  8
0
 10
15.3297
 20
9.29411
 30
0.0
 40
0
 41
0
  0
VERTEX
  8
0
 10
15.619
 20
9.29411
 30
0.0
 40
0
 41
0
  0
VERTEX
  8
0
 10
15.619
 20
9.22487
 30
0.0
 40
0
 41
0
  0
VERTEX
  8
0
 10
15.3297
 20
9.22487
 30
0.0
 40
0
 41
0
  0
VERTEX
  8
0
 10
15.3297
 20
9.00483
 30
0.0
 40
0
 41
0
  0
VERTEX
  8
0
 10
15.639
 20
9.00483
 30
0.0
 40
0
 41
0
  0
VERTEX
  8
0
 10
15.639
 20
8.9356
 30
0.0
 40
0
 41
0
  0
VERTEX
  8
0
 10
15.2475
 20
8.9356
 30
0.0
 40
0
 41
0
  0
VERTEX
  8
0
 10
15.2475
 20
9.54303
 30
0.0
 40
0
 41
0
  0
SEQEND
 8
0
  0
POLYLINE
  8
0
 62
     0
 66
     1
 10
0
 20
0
 30
0.0
 70
     1
 40
0
 41
0
  0
VERTEX
  8
0
 10
16.7528
 20
9.54303
 30
0.0
 40
0
 41
0
  0
VERTEX
  8
0
 10
16.835
 20
9.54303
 30
0.0
 40
0
 41
0
  0
VERTEX
  8
0
 10
16.835
 20
8.9356
 30
0.0
 40
0
 41
0
  0
VERTEX
  8
0
 10
16.7528
 20
8.9356
 30
0.0
 40
0
 41
0
  0
VERTEX
  8
0
 10
16.7528
 20
9.54303
 30
0.0
 40
0
 41
0
  0
SEQEND
 8
0
  0
POLYLINE
  8
0
 62
     0
 66
     1
 10
0
 20
0
 30
0.0
 70
     1
 40
0
 41
0
  0
VERTEX
  8
0
 10
2.88569
 20
8.09467
 30
0.0
 40
0
 41
0
  0
VERTEX
  8
0
 10
2.88569
 20
7.62224
 30
0.0
 40
0
 41
0
  0
VERTEX
  8
0
 10
2.98486
 20
7.62224
 30
0.0
 40
0
 41
0
  0
VERTEX
  8
0
 10
3.04351
 20
7.62582
 30
0.0
 40
0
 41
0
  0
VERTEX
  8
0
 10
3.09381
 20
7.63644
 30
0.0
 40
0
 41
0
  0
VERTEX
  8
0
 10
3.13564
 20
7.65424
 30
0.0
 40
0
 41
0
  0
VERTEX
  8
0
 10
3.16911
 20
7.6791
 30
0.0
 40
0
 41
0
  0
VERTEX
  8
0
 10
3.19461
 20
7.71175
 30
0.0
 40
0
 41
0
  0
VERTEX
  8
0
 10
3.21283
 20
7.75265
 30
0.0
 40
0
 41
0
  0
VERTEX
  8
0
 10
3.22379
 20
7.80181
 30
0.0
 40
0
 41
0
  0
VERTEX
  8
0
 10
3.22749
 20
7.85921
 30
0.0
 40
0
 41
0
  0
VERTEX
  8
0
 10
3.22379
 20
7.91613
 30
0.0
 40
0
 41
0
  0
VERTEX
  8
0
 10
3.21283
 20
7.96485
 30
0.0
 40
0
 41
0
  0
VERTEX
  8
0
 10
3.19461
 20
8.00543
 30
0.0
 40
0
 41
0
  0
VERTEX
  8
0
 10
3.16911
 20
8.03782
 30
0.0
 40
0
 41
0
  0
VERTEX
  8
0
 10
3.13564
 20
8.06272
 30
0.0
 40
0
 41
0
  0
VERTEX
  8
0
 10
3.09381
 20
8.08046
 30
0.0
 40
0
 41
0
  0
VERTEX
  8
0
 10
3.04351
 20
8.09115
 30
0.0
 40
0
 41
0
  0
VERTEX
  8
0
 10
2.98486
 20
8.09467
 30
0.0
 40
0
 41
0
  0
VERTEX
  8
0
 10
2.88569
 20
8.09467
 30
0.0
 40
0
 41
0
  0
SEQEND
 8
0
  0
POLYLINE
  8
0
 62
     0
 66
     1
 10
0
 20
0
 30
0.0
 70
     1
 40
0
 41
0
  0
VERTEX
  8
0
 10
2.80344
 20
8.16217
 30
0.0
 40
0
 41
0
  0
VERTEX
  8
0
 10
2.97228
 20
8.16217
 30
0.0
 40
0
 41
0
  0
VERTEX
  8
0
 10
3.12532
 20
8.14382
 30
0.0
 40
0
 41
0
  0
VERTEX
  8
0
 10
3.23139
 20
8.08882
 30
0.0
 40
0
 41
0
  0
VERTEX
  8
0
 10
3.2934
 20
7.99474
 30
0.0
 40
0
 41
0
  0
VERTEX
  8
0
 10
3.31407
 20
7.85921
 30
0.0
 40
0
 41
0
  0
VERTEX
  8
0
 10
3.29324
 20
7.72293
 30
0.0
 40
0
 41
0
  0
VERTEX
  8
0
 10
3.23096
 20
7.62831
 30
0.0
 40
0
 41
0
  0
VERTEX
  8
0
 10
3.12478
 20
7.57314
 30
0.0
 40
0
 41
0
  0
VERTEX
  8
0
 10
2.97228
 20
7.55474
 30
0.0
 40
0
 41
0
  0
VERTEX
  8
0
 10
2.80344
 20
7.55474
 30
0.0
 40
0
 41
0
  0
VERTEX
  8
0
 10
2.80344
 20
8.16217
 30
0.0
 40
0
 41
0
  0
SEQEND
 8
0
  0
POLYLINE
  8
0
 62
     0
 66
     1
 10
0
 20
0
 30
0.0
 70
     1
 40
0
 41
0
  0
VERTEX
  8
0
 10
4.46044
 20
7.83968
 30
0.0
 40
0
 41
0
  0
VERTEX
  8
0
 10
4.51188
 20
7.80126
 30
0.0
 40
0
 41
0
  0
VERTEX
  8
0
 10
4.56222
 20
7.72076
 30
0.0
 40
0
 41
0
  0
VERTEX
  8
0
 10
4.64578
 20
7.55474
 30
0.0
 40
0
 41
0
  0
VERTEX
  8
0
 10
4.55746
 20
7.55474
 30
0.0
 40
0
 41
0
  0
VERTEX
  8
0
 10
4.47976
 20
7.71056
 30
0.0
 40
0
 41
0
  0
VERTEX
  8
0
 10
4.44997
 20
7.76129
 30
0.0
 40
0
 41
0
  0
VERTEX
  8
0
 10
4.42117
 20
7.7915
 30
0.0
 40
0
 41
0
  0
VERTEX
  8
0
 10
4.38775
 20
7.80647
 30
0.0
 40
0
 41
0
  0
VERTEX
  8
0
 10
4.34413
 20
7.81147
 30
0.0
 40
0
 41
0
  0
VERTEX
  8
0
 10
4.25472
 20
7.81147
 30
0.0
 40
0
 41
0
  0
VERTEX
  8
0
 10
4.25472
 20
7.55474
 30
0.0
 40
0
 41
0
  0
VERTEX
  8
0
 10
4.17247
 20
7.55474
 30
0.0
 40
0
 41
0
  0
VERTEX
  8
0
 10
4.17247
 20
8.16217
 30
0.0
 40
0
 41
0
  0
VERTEX
  8
0
 10
4.35801
 20
8.16217
 30
0.0
 40
0
 41
0
  0
VERTEX
  8
0
 10
4.44889
 20
8.15126
 30
0.0
 40
0
 41
0
  0
VERTEX
  8
0
 10
4.5134
 20
8.11854
 30
0.0
 40
0
 41
0
  0
VERTEX
  8
0
 10
4.55176
 20
8.06401
 30
0.0
 40
0
 41
0
  0
VERTEX
  8
0
 10
4.56461
 20
7.98725
 30
0.0
 40
0
 41
0
  0
VERTEX
  8
0
 10
4.55794
 20
7.93479
 30
0.0
 40
0
 41
0
  0
VERTEX
  8
0
 10
4.53792
 20
7.89199
 30
0.0
 40
0
 41
0
  0
VERTEX
  8
0
 10
4.50526
 20
7.86003
 30
0.0
 40
0
 41
0
  0
VERTEX
  8
0
 10
4.46044
 20
7.83968
 30
0.0
 40
0
 41
0
  0
SEQEND
 8
0
  0
POLYLINE
  8
0
 62
     0
 66
     1
 10
0
 20
0
 30
0.0
 70
     1
 40
0
 41
0
  0
VERTEX
  8
0
 10
4.25472
 20
8.09467
 30
0.0
 40
0
 41
0
  0
VERTEX
  8
0
 10
4.25472
 20
7.87896
 30
0.0
 40
0
 41
0
  0
VERTEX
  8
0
 10
4.35801
 20
7.87896
 30
0.0
 40
0
 41
0
  0
VERTEX
  8
0
 10
4.4101
 20
7.88585
 30
0.0
 40
0
 41
0
  0
VERTEX
  8
0
 10
4.44764
 20
7.90653
 30
0.0
 40
0
 41
0
  0
VERTEX
  8
0
 10
4.47038
 20
7.94049
 30
0.0
 40
0
 41
0
  0
VERTEX
  8
0
 10
4.47803
 20
7.98725
 30
0.0
 40
0
 41
0
  0
VERTEX
  8
0
 10
4.47038
 20
8.03401
 30
0.0
 40
0
 41
0
  0
VERTEX
  8
0
 10
4.44764
 20
8.06754
 30
0.0
 40
0
 41
0
  0
VERTEX
  8
0
 10
4.4101
 20
8.08789
 30
0.0
 40
0
 41
0
  0
VERTEX
  8
0
 10
4.35801
 20
8.09467
 30
0.0
 40
0
 41
0
  0
VERTEX
  8
0
 10
4.25472
 20
8.09467
 30
0.0
 40
0
 41
0
  0
SEQEND
 8
0
  0
POLYLINE
  8
0
 62
     0
 66
     1
 10
0
 20
0
 30
0.0
 70
     1
 40
0
 41
0
  0
VERTEX
  8
0
 10
5.58143
 20
8.16217
 30
0.0
 40
0
 41
0
  0
VERTEX
  8
0
 10
5.96556
 20
8.16217
 30
0.0
 40
0
 41
0
  0
VERTEX
  8
0
 10
5.96556
 20
8.09315
 30
0.0
 40
0
 41
0
  0
VERTEX
  8
0
 10
5.66368
 20
8.09315
 30
0.0
 40
0
 41
0
  0
VERTEX
  8
0
 10
5.66368
 20
7.91325
 30
0.0
 40
0
 41
0
  0
VERTEX
  8
0
 10
5.95296
 20
7.91325
 30
0.0
 40
0
 41
0
  0
VERTEX
  8
0
 10
5.95296
 20
7.84403
 30
0.0
 40
0
 41
0
  0
VERTEX
  8
0
 10
5.66368
 20
7.84403
 30
0.0
 40
0
 41
0
  0
VERTEX
  8
0
 10
5.66368
 20
7.62397
 30
0.0
 40
0
 41
0
  0
VERTEX
  8
0
 10
5.97293
 20
7.62397
 30
0.0
 40
0
 41
0
  0
VERTEX
  8
0
 10
5.97293
 20
7.55474
 30
0.0
 40
0
 41
0
  0
VERTEX
  8
0
 10
5.58143
 20
7.55474
 30
0.0
 40
0
 41
0
  0
VERTEX
  8
0
 10
5.58143
 20
8.16217
 30
0.0
 40
0
 41
0
  0
SEQEND
 8
0
  0
POLYLINE
  8
0
 62
     0
 66
     1
 10
0
 20
0
 30
0.0
 70
     1
 40
0
 41
0
  0
VERTEX
  8
0
 10
7.08664
 20
8.16217
 30
0.0
 40
0
 41
0
  0
VERTEX
  8
0
 10
7.16889
 20
8.16217
 30
0.0
 40
0
 41
0
  0
VERTEX
  8
0
 10
7.16889
 20
7.55474
 30
0.0
 40
0
 41
0
  0
VERTEX
  8
0
 10
7.08664
 20
7.55474
 30
0.0
 40
0
 41
0
  0
VERTEX
  8
0
 10
7.08664
 20
8.16217
 30
0.0
 40
0
 41
0
  0
SEQEND
 8
0
  0
POLYLINE
  8
0
 62
     0
 66
     1
 10
0
 20
0
 30
0.0
 70
     1
 40
0
 41
0
  0
VERTEX
  8
0
 10
8.41971
 20
8.09467
 30
0.0
 40
0
 41
0
  0
VERTEX
  8
0
 10
8.41971
 20
7.86638
 30
0.0
 40
0
 41
0
  0
VERTEX
  8
0
 10
8.52647
 20
7.86638
 30
0.0
 40
0
 41
0
  0
VERTEX
  8
0
 10
8.57894
 20
7.87381
 30
0.0
 40
0
 41
0
  0
VERTEX
  8
0
 10
8.61806
 20
7.89611
 30
0.0
 40
0
 41
0
  0
VERTEX
  8
0
 10
8.64247
 20
7.93212
 30
0.0
 40
0
 41
0
  0
VERTEX
  8
0
 10
8.65061
 20
7.98074
 30
0.0
 40
0
 41
0
  0
VERTEX
  8
0
 10
8.64247
 20
8.02903
 30
0.0
 40
0
 41
0
  0
VERTEX
  8
0
 10
8.61806
 20
8.06494
 30
0.0
 40
0
 41
0
  0
VERTEX
  8
0
 10
8.57894
 20
8.08724
 30
0.0
 40
0
 41
0
  0
VERTEX
  8
0
 10
8.52647
 20
8.09467
 30
0.0
 40
0
 41
0
  0
VERTEX
  8
0
 10
8.41971
 20
8.09467
 30
0.0
 40
0
 41
0
  0
SEQEND
 8
0
  0
POLYLINE
  8
0
 62
     0
 66
     1
 10
0
 20
0
 30
0.0
 70
     1
 40
0
 41
0
  0
VERTEX
  8
0
 10
8.33464
 20
8.16217
 30
0.0
 40
0
 41
0
  0
VERTEX
  8
0
 10
8.52647
 20
8.16217
 30
0.0
 40
0
 41
0
  0
VERTEX
  8
0
 10
8.61908
 20
8.15061
 30
0.0
 40
0
 41
0
  0
VERTEX
  8
0
 10
8.68599
 20
8.11594
 30
0.0
 40
0
 41
0
  0
VERTEX
  8
0
 10
8.72651
 20
8.05914
 30
0.0
 40
0
 41
0
  0
VERTEX
  8
0
 10
8.74001
 20
7.98074
 30
0.0
 40
0
 41
0
  0
VERTEX
  8
0
 10
8.72651
 20
7.90186
 30
0.0
 40
0
 41
0
  0
VERTEX
  8
0
 10
8.68599
 20
7.84489
 30
0.0
 40
0
 41
0
  0
VERTEX
  8
0
 10
8.61908
 20
7.81039
 30
0.0
 40
0
 41
0
  0
VERTEX
  8
0
 10
8.52647
 20
7.79889
 30
0.0
 40
0
 41
0
  0
VERTEX
  8
0
 10
8.41971
 20
7.79889
 30
0.0
 40
0
 41
0
  0
VERTEX
  8
0
 10
8.41971
 20
7.55474
 30
0.0
 40
0
 41
0
  0
VERTEX
  8
0
 10
8.33464
 20
7.55474
 30
0.0
 40
0
 41
0
  0
VERTEX
  8
0
 10
8.33464
 20
8.16217
 30
0.0
 40
0
 41
0
  0
SEQEND
 8
0
  0
POLYLINE
  8
0
 62
     0
 66
     1
 10
0
 20
0
 30
0.0
 70
     1
 40
0
 41
0
  0
VERTEX
  8
0
 10
9.70893
 20
8.16217
 30
0.0
 40
0
 41
0
  0
VERTEX
  8
0
 10
9.79118
 20
8.16217
 30
0.0
 40
0
 41
0
  0
VERTEX
  8
0
 10
9.79118
 20
7.90543
 30
0.0
 40
0
 41
0
  0
VERTEX
  8
0
 10
10.0638
 20
8.16217
 30
0.0
 40
0
 41
0
  0
VERTEX
  8
0
 10
10.1694
 20
8.16217
 30
0.0
 40
0
 41
0
  0
VERTEX
  8
0
 10
9.868
 20
7.87896
 30
0.0
 40
0
 41
0
  0
VERTEX
  8
0
 10
10.1911
 20
7.55474
 30
0.0
 40
0
 41
0
  0
VERTEX
  8
0
 10
10.0828
 20
7.55474
 30
0.0
 40
0
 41
0
  0
VERTEX
  8
0
 10
9.79118
 20
7.84728
 30
0.0
 40
0
 41
0
  0
VERTEX
  8
0
 10
9.79118
 20
7.55474
 30
0.0
 40
0
 41
0
  0
VERTEX
  8
0
 10
9.70893
 20
7.55474
 30
0.0
 40
0
 41
0
  0
VERTEX
  8
0
 10
9.70893
 20
8.16217
 30
0.0
 40
0
 41
0
  0
SEQEND
 8
0
  0
POLYLINE
  8
0
 62
     0
 66
     1
 10
0
 20
0
 30
0.0
 70
     1
 40
0
 41
0
  0
VERTEX
  8
0
 10
11.0873
 20
8.16575
 30
0.0
 40
0
 41
0
  0
VERTEX
  8
0
 10
11.1698
 20
8.16575
 30
0.0
 40
0
 41
0
  0
VERTEX
  8
0
 10
11.1698
 20
7.79682
 30
0.0
 40
0
 41
0
  0
VERTEX
  8
0
 10
11.1785
 20
7.71283
 30
0.0
 40
0
 41
0
  0
VERTEX
  8
0
 10
11.2051
 20
7.65619
 30
0.0
 40
0
 41
0
  0
VERTEX
  8
0
 10
11.2516
 20
7.62397
 30
0.0
 40
0
 41
0
  0
VERTEX
  8
0
 10
11.3199
 20
7.61322
 30
0.0
 40
0
 41
0
  0
VERTEX
  8
0
 10
11.388
 20
7.62397
 30
0.0
 40
0
 41
0
  0
VERTEX
  8
0
 10
11.4343
 20
7.65619
 30
0.0
 40
0
 41
0
  0
VERTEX
  8
0
 10
11.4608
 20
7.71283
 30
0.0
 40
0
 41
0
  0
VERTEX
  8
0
 10
11.4697
 20
7.79682
 30
0.0
 40
0
 41
0
  0
VERTEX
  8
0
 10
11.4697
 20
8.16575
 30
0.0
 40
0
 41
0
  0
VERTEX
  8
0
 10
11.5524
 20
8.16575
 30
0.0
 40
0
 41
0
  0
VERTEX
  8
0
 10
11.5524
 20
7.78663
 30
0.0
 40
0
 41
0
  0
VERTEX
  8
0
 10
11.5487
 20
7.73079
 30
0.0
 40
0
 41
0
  0
VERTEX
  8
0
 10
11.5376
 20
7.68229
 30
0.0
 40
0
 41
0
  0
VERTEX
  8
0
 10
11.5192
 20
7.64111
 30
0.0
 40
0
 41
0
  0
VERTEX
  8
0
 10
11.4935
 20
7.60715
 30
0.0
 40
0
 41
0
  0
VERTEX
  8
0
 10
11.4606
 20
7.58068
 30
0.0
 40
0
 41
0
  0
VERTEX
  8
0
 10
11.4207
 20
7.56174
 30
0.0
 40
0
 41
0
  0
VERTEX
  8
0
 10
11.3738
 20
7.5504
 30
0.0
 40
0
 41
0
  0
VERTEX
  8
0
 10
11.3199
 20
7.5466
 30
0.0
 40
0
 41
0
  0
VERTEX
  8
0
 10
11.2659
 20
7.5504
 30
0.0
 40
0
 41
0
  0
VERTEX
  8
0
 10
11.2189
 20
7.56174
 30
0.0
 40
0
 41
0
  0
VERTEX
  8
0
 10
11.179
 20
7.58068
 30
0.0
 40
0
 41
0
  0
VERTEX
  8
0
 10
11.1461
 20
7.60715
 30
0.0
 40
0
 41
0
  0
VERTEX
  8
0
 10
11.1203
 20
7.64111
 30
0.0
 40
0
 41
0
  0
VERTEX
  8
0
 10
11.1019
 20
7.68229
 30
0.0
 40
0
 41
0
  0
VERTEX
  8
0
 10
11.0909
 20
7.73079
 30
0.0
 40
0
 41
0
  0
VERTEX
  8
0
 10
11.0873
 20
7.78663
 30
0.0
 40
0
 41
0
  0
VERTEX
  8
0
 10
11.0873
 20
8.16575
 30
0.0
 40
0
 41
0
  0
SEQEND
 8
0
  0
POLYLINE
  8
0
 62
     0
 66
     1
 10
0
 20
0
 30
0.0
 70
     1
 40
0
 41
0
  0
VERTEX
  8
0
 10
12.6291
 20
7.55474
 30
0.0
 40
0
 41
0
  0
VERTEX
  8
0
 10
12.3971
 20
8.16217
 30
0.0
 40
0
 41
0
  0
VERTEX
  8
0
 10
12.483
 20
8.16217
 30
0.0
 40
0
 41
0
  0
VERTEX
  8
0
 10
12.6755
 20
7.65087
 30
0.0
 40
0
 41
0
  0
VERTEX
  8
0
 10
12.8682
 20
8.16217
 30
0.0
 40
0
 41
0
  0
VERTEX
  8
0
 10
12.9537
 20
8.16217
 30
0.0
 40
0
 41
0
  0
VERTEX
  8
0
 10
12.7222
 20
7.55474
 30
0.0
 40
0
 41
0
  0
VERTEX
  8
0
 10
12.6291
 20
7.55474
 30
0.0
 40
0
 41
0
  0
SEQEND
 8
0
  0
POLYLINE
  8
0
 62
     0
 66
     1
 10
0
 20
0
 30
0.0
 70
     1
 40
0
 41
0
  0
VERTEX
  8
0
 10
13.991
 20
8.16217
 30
0.0
 40
0
 41
0
  0
VERTEX
  8
0
 10
14.0732
 20
8.16217
 30
0.0
 40
0
 41
0
  0
VERTEX
  8
0
 10
14.0732
 20
7.55474
 30
0.0
 40
0
 41
0
  0
VERTEX
  8
0
 10
13.991
 20
7.55474
 30
0.0
 40
0
 41
0
  0
VERTEX
  8
0
 10
13.991
 20
8.16217
 30
0.0
 40
0
 41
0
  0
SEQEND
 8
0
  0
POLYLINE
  8
0
 62
     0
 66
     1
 10
0
 20
0
 30
0.0
 70
     1
 40
0
 41
0
  0
VERTEX
  8
0
 10
15.2475
 20
8.16217
 30
0.0
 40
0
 41
0
  0
VERTEX
  8
0
 10
15.6317
 20
8.16217
 30
0.0
 40
0
 41
0
  0
VERTEX
  8
0
 10
15.6317
 20
8.09315
 30
0.0
 40
0
 41
0
  0
VERTEX
  8
0
 10
15.3297
 20
8.09315
 30
0.0
 40
0
 41
0
  0
VERTEX
  8
0
 10
15.3297
 20
7.91325
 30
0.0
 40
0
 41
0
  0
VERTEX
  8
0
 10
15.619
 20
7.91325
 30
0.0
 40
0
 41
0
  0
VERTEX
  8
0
 10
15.619
 20
7.84403
 30
0.0
 40
0
 41
0
  0
VERTEX
  8
0
 10
15.3297
 20
7.84403
 30
0.0
 40
0
 41
0
  0
VERTEX
  8
0
 10
15.3297
 20
7.62397
 30
0.0
 40
0
 41
0
  0
VERTEX
  8
0
 10
15.639
 20
7.62397
 30
0.0
 40
0
 41
0
  0
VERTEX
  8
0
 10
15.639
 20
7.55474
 30
0.0
 40
0
 41
0
  0
VERTEX
  8
0
 10
15.2475
 20
7.55474
 30
0.0
 40
0
 41
0
  0
VERTEX
  8
0
 10
15.2475
 20
8.16217
 30
0.0
 40
0
 41
0
  0
SEQEND
 8
0
  0
POLYLINE
  8
0
 62
     0
 66
     1
 10
0
 20
0
 30
0.0
 70
     1
 40
0
 41
0
  0
VERTEX
  8
0
 10
16.8882
 20
7.83968
 30
0.0
 40
0
 41
0
  0
VERTEX
  8
0
 10
16.9397
 20
7.80126
 30
0.0
 40
0
 41
0
  0
VERTEX
  8
0
 10
16.99
 20
7.72076
 30
0.0
 40
0
 41
0
  0
VERTEX
  8
0
 10
17.0736
 20
7.55474
 30
0.0
 40
0
 41
0
  0
VERTEX
  8
0
 10
16.9853
 20
7.55474
 30
0.0
 40
0
 41
0
  0
VERTEX
  8
0
 10
16.9075
 20
7.71056
 30
0.0
 40
0
 41
0
  0
VERTEX
  8
0
 10
16.8778
 20
7.76129
 30
0.0
 40
0
 41
0
  0
VERTEX
  8
0
 10
16.849
 20
7.7915
 30
0.0
 40
0
 41
0
  0
VERTEX
  8
0
 10
16.8156
 20
7.80647
 30
0.0
 40
0
 41
0
  0
VERTEX
  8
0
 10
16.7719
 20
7.81147
 30
0.0
 40
0
 41
0
  0
VERTEX
  8
0
 10
16.6825
 20
7.81147
 30
0.0
 40
0
 41
0
  0
VERTEX
  8
0
 10
16.6825
 20
7.55474
 30
0.0
 40
0
 41
0
  0
VERTEX
  8
0
 10
16.6003
 20
7.55474
 30
0.0
 40
0
 41
0
  0
VERTEX
  8
0
 10
16.6003
 20
8.16217
 30
0.0
 40
0
 41
0
  0
VERTEX
  8
0
 10
16.7858
 20
8.16217
 30
0.0
 40
0
 41
0
  0
VERTEX
  8
0
 10
16.8767
 20
8.15126
 30
0.0
 40
0
 41
0
  0
VERTEX
  8
0
 10
16.9413
 20
8.11854
 30
0.0
 40
0
 41
0
  0
VERTEX
  8
0
 10
16.9796
 20
8.06401
 30
0.0
 40
0
 41
0
  0
VERTEX
  8
0
 10
16.9924
 20
7.98725
 30
0.0
 40
0
 41
0
  0
VERTEX
  8
0
 10
16.9857
 20
7.93479
 30
0.0
 40
0
 41
0
  0
VERTEX
  8
0
 10
16.9657
 20
7.89199
 30
0.0
 40
0
 41
0
  0
VERTEX
  8
0
 10
16.9331
 20
7.86003
 30
0.0
 40
0
 41
0
  0
VERTEX
  8
0
 10
16.8882
 20
7.83968
 30
0.0
 40
0
 41
0
  0
SEQEND
 8
0
  0
POLYLINE
  8
0
 62
     0
 66
     1
 10
0
 20
0
 30
0.0
 70
     1
 40
0
 41
0
  0
VERTEX
  8
0
 10
16.6825
 20
8.09467
 30
0.0
 40
0
 41
0
  0
VERTEX
  8
0
 10
16.6825
 20
7.87896
 30
0.0
 40
0
 41
0
  0
VERTEX
  8
0
 10
16.7858
 20
7.87896
 30
0.0
 40
0
 41
0
  0
VERTEX
  8
0
 10
16.8379
 20
7.88585
 30
0.0
 40
0
 41
0
  0
VERTEX
  8
0
 10
16.8754
 20
7.90653
 30
0.0
 40
0
 41
0
  0
VERTEX
  8
0
 10
16.8982
 20
7.94049
 30
0.0
 40
0
 41
0
  0
VERTEX
  8
0
 10
16.9058
 20
7.98725
 30
0.0
 40
0
 41
0
  0
VERTEX
  8
0
 10
16.8982
 20
8.03401
 30
0.0
 40
0
 41
0
  0
VERTEX
  8
0
 10
16.8754
 20
8.06754
 30
0.0
 40
0
 41
0
  0
VERTEX
  8
0
 10
16.8379
 20
8.08789
 30
0.0
 40
0
 41
0
  0
VERTEX
  8
0
 10
16.7858
 20
8.09467
 30
0.0
 40
0
 41
0
  0
VERTEX
  8
0
 10
16.6825
 20
8.09467
 30
0.0
 40
0
 41
0
  0
SEQEND
 8
0
  0
POLYLINE
  8
0
 62
     0
 66
     1
 10
0
 20
0
 30
0.0
 70
     1
 40
0
 41
0
  0
VERTEX
  8
0
 10
3.18349
 20
6.76156
 30
0.0
 40
0
 41
0
  0
VERTEX
  8
0
 10
3.18349
 20
6.68126
 30
0.0
 40
0
 41
0
  0
VERTEX
  8
0
 10
3.09517
 20
6.71468
 30
0.0
 40
0
 41
0
  0
VERTEX
  8
0
 10
3.01508
 20
6.72575
 30
0.0
 40
0
 41
0
  0
VERTEX
  8
0
 10
2.95546
 20
6.71924
 30
0.0
 40
0
 41
0
  0
VERTEX
  8
0
 10
2.91135
 20
6.69971
 30
0.0
 40
0
 41
0
  0
VERTEX
  8
0
 10
2.88411
 20
6.66813
 30
0.0
 40
0
 41
0
  0
VERTEX
  8
0
 10
2.87511
 20
6.62549
 30
0.0
 40
0
 41
0
  0
VERTEX
  8
0
 10
2.88112
 20
6.59022
 30
0.0
 40
0
 41
0
  0
VERTEX
  8
0
 10
2.89919
 20
6.56472
 30
0.0
 40
0
 41
0
  0
VERTEX
  8
0
 10
2.93425
 20
6.54611
 30
0.0
 40
0
 41
0
  0
VERTEX
  8
0
 10
2.991
 20
6.53153
 30
0.0
 40
0
 41
0
  0
VERTEX
  8
0
 10
3.04069
 20
6.52132
 30
0.0
 40
0
 41
0
  0
VERTEX
  8
0
 10
3.12056
 20
6.49724
 30
0.0
 40
0
 41
0
  0
VERTEX
  8
0
 10
3.17632
 20
6.45969
 30
0.0
 40
0
 41
0
  0
VERTEX
  8
0
 10
3.20915
 20
6.40815
 30
0.0
 40
0
 41
0
  0
VERTEX
  8
0
 10
3.22017
 20
6.34164
 30
0.0
 40
0
 41
0
  0
VERTEX
  8
0
 10
3.20535
 20
6.264
 30
0.0
 40
0
 41
0
  0
VERTEX
  8
0
 10
3.16092
 20
6.20774
 30
0.0
 40
0
 41
0
  0
VERTEX
  8
0
 10
3.08783
 20
6.17356
 30
0.0
 40
0
 41
0
  0
VERTEX
  8
0
 10
2.98731
 20
6.16217
 30
0.0
 40
0
 41
0
  0
VERTEX
  8
0
 10
2.89551
 20
6.17193
 30
0.0
 40
0
 41
0
  0
VERTEX
  8
0
 10
2.79482
 20
6.20079
 30
0.0
 40
0
 41
0
  0
VERTEX
  8
0
 10
2.79482
 20
6.28543
 30
0.0
 40
0
 41
0
  0
VERTEX
  8
0
 10
2.8929
 20
6.24289
 30
0.0
 40
0
 41
0
  0
VERTEX
  8
0
 10
2.98731
 20
6.22879
 30
0.0
 40
0
 41
0
  0
VERTEX
  8
0
 10
3.04969
 20
6.23568
 30
0.0
 40
0
 41
0
  0
VERTEX
  8
0
 10
3.09603
 20
6.25635
 30
0.0
 40
0
 41
0
  0
VERTEX
  8
0
 10
3.12463
 20
6.28999
 30
0.0
 40
0
 41
0
  0
VERTEX
  8
0
 10
3.13422
 20
6.33535
 30
0.0
 40
0
 41
0
  0
VERTEX
  8
0
 10
3.12728
 20
6.37532
 30
0.0
 40
0
 41
0
  0
VERTEX
  8
0
 10
3.10667
 20
6.40543
 30
0.0
 40
0
 41
0
  0
VERTEX
  8
0
 10
3.07042
 20
6.42746
 30
0.0
 40
0
 41
0
  0
VERTEX
  8
0
 10
3.0166
 20
6.44319
 30
0.0
 40
0
 41
0
  0
VERTEX
  8
0
 10
2.96669
 20
6.45296
 30
0.0
 40
0
 41
0
  0
VERTEX
  8
0
 10
2.88732
 20
6.47657
 30
0.0
 40
0
 41
0
  0
VERTEX
  8
0
 10
2.83344
 20
6.51047
 30
0.0
 40
0
 41
0
  0
VERTEX
  8
0
 10
2.80268
 20
6.55713
 30
0.0
 40
0
 41
0
  0
VERTEX
  8
0
 10
2.79243
 20
6.61897
 30
0.0
 40
0
 41
0
  0
VERTEX
  8
0
 10
2.80658
 20
6.69108
 30
0.0
 40
0
 41
0
  0
VERTEX
  8
0
 10
2.84907
 20
6.74593
 30
0.0
 40
0
 41
0
  0
VERTEX
  8
0
 10
2.91661
 20
6.78076
 30
0.0
 40
0
 41
0
  0
VERTEX
  8
0
 10
3.00575
 20
6.79237
 30
0.0
 40
0
 41
0
  0
VERTEX
  8
0
 10
3.09278
 20
6.78456
 30
0.0
 40
0
 41
0
  0
VERTEX
  8
0
 10
3.18349
 20
6.76156
 30
0.0
 40
0
 41
0
  0
SEQEND
 8
0
  0
POLYLINE
  8
0
 62
     0
 66
     1
 10
0
 20
0
 30
0.0
 70
     1
 40
0
 41
0
  0
VERTEX
  8
0
 10
4.20057
 20
6.78131
 30
0.0
 40
0
 41
0
  0
VERTEX
  8
0
 10
4.58469
 20
6.78131
 30
0.0
 40
0
 41
0
  0
VERTEX
  8
0
 10
4.58469
 20
6.71229
 30
0.0
 40
0
 41
0
  0
VERTEX
  8
0
 10
4.28282
 20
6.71229
 30
0.0
 40
0
 41
0
  0
VERTEX
  8
0
 10
4.28282
 20
6.53239
 30
0.0
 40
0
 41
0
  0
VERTEX
  8
0
 10
4.5721
 20
6.53239
 30
0.0
 40
0
 41
0
  0
VERTEX
  8
0
 10
4.5721
 20
6.46317
 30
0.0
 40
0
 41
0
  0
VERTEX
  8
0
 10
4.28282
 20
6.46317
 30
0.0
 40
0
 41
0
  0
VERTEX
  8
0
 10
4.28282
 20
6.24311
 30
0.0
 40
0
 41
0
  0
VERTEX
  8
0
 10
4.59207
 20
6.24311
 30
0.0
 40
0
 41
0
  0
VERTEX
  8
0
 10
4.59207
 20
6.17389
 30
0.0
 40
0
 41
0
  0
VERTEX
  8
0
 10
4.20057
 20
6.17389
 30
0.0
 40
0
 41
0
  0
VERTEX
  8
0
 10
4.20057
 20
6.78131
 30
0.0
 40
0
 41
0
  0
SEQEND
 8
0
  0
POLYLINE
  8
0
 62
     0
 66
     1
 10
0
 20
0
 30
0.0
 70
     1
 40
0
 41
0
  0
VERTEX
  8
0
 10
6.01606
 20
6.73465
 30
0.0
 40
0
 41
0
  0
VERTEX
  8
0
 10
6.01606
 20
6.64785
 30
0.0
 40
0
 41
0
  0
VERTEX
  8
0
 10
5.92751
 20
6.70578
 30
0.0
 40
0
 41
0
  0
VERTEX
  8
0
 10
5.82769
 20
6.72488
 30
0.0
 40
0
 41
0
  0
VERTEX
  8
0
 10
5.77865
 20
6.72092
 30
0.0
 40
0
 41
0
  0
VERTEX
  8
0
 10
5.73574
 20
6.70893
 30
0.0
 40
0
 41
0
  0
VERTEX
  8
0
 10
5.69889
 20
6.68901
 30
0.0
 40
0
 41
0
  0
VERTEX
  8
0
 10
5.66818
 20
6.66108
 30
0.0
 40
0
 41
0
  0
VERTEX
  8
0
 10
5.64393
 20
6.62576
 30
0.0
 40
0
 41
0
  0
VERTEX
  8
0
 10
5.62668
 20
6.58328
 30
0.0
 40
0
 41
0
  0
VERTEX
  8
0
 10
5.61626
 20
6.53375
 30
0.0
 40
0
 41
0
  0
VERTEX
  8
0
 10
5.61285
 20
6.47706
 30
0.0
 40
0
 41
0
  0
VERTEX
  8
0
 10
5.61626
 20
6.42057
 30
0.0
 40
0
 41
0
  0
VERTEX
  8
0
 10
5.62668
 20
6.3711
 30
0.0
 40
0
 41
0
  0
VERTEX
  8
0
 10
5.64393
 20
6.32867
 30
0.0
 40
0
 41
0
  0
VERTEX
  8
0
 10
5.66818
 20
6.29324
 30
0.0
 40
0
 41
0
  0
VERTEX
  8
0
 10
5.69889
 20
6.2654
 30
0.0
 40
0
 41
0
  0
VERTEX
  8
0
 10
5.73574
 20
6.24556
 30
0.0
 40
0
 41
0
  0
VERTEX
  8
0
 10
5.77865
 20
6.23367
 30
0.0
 40
0
 41
0
  0
VERTEX
  8
0
 10
5.82769
 20
6.22965
 30
0.0
 40
0
 41
0
  0
VERTEX
  8
0
 10
5.92751
 20
6.24875
 30
0.0
 40
0
 41
0
  0
VERTEX
  8
0
 10
6.01606
 20
6.30647
 30
0.0
 40
0
 41
0
  0
VERTEX
  8
0
 10
6.01606
 20
6.22076
 30
0.0
 40
0
 41
0
  0
VERTEX
  8
0
 10
5.92469
 20
6.17671
 30
0.0
 40
0
 41
0
  0
VERTEX
  8
0
 10
5.82292
 20
6.16217
 30
0.0
 40
0
 41
0
  0
VERTEX
  8
0
 10
5.75754
 20
6.16749
 30
0.0
 40
0
 41
0
  0
VERTEX
  8
0
 10
5.69954
 20
6.18326
 30
0.0
 40
0
 41
0
  0
VERTEX
  8
0
 10
5.64882
 20
6.20964
 30
0.0
 40
0
 41
0
  0
VERTEX
  8
0
 10
5.60547
 20
6.24658
 30
0.0
 40
0
 41
0
  0
VERTEX
  8
0
 10
5.54601
 20
6.3464
 30
0.0
 40
0
 41
0
  0
VERTEX
  8
0
 10
5.52626
 20
6.47706
 30
0.0
 40
0
 41
0
  0
VERTEX
  8
0
 10
5.54601
 20
6.60801
 30
0.0
 40
0
 41
0
  0
VERTEX
  8
0
 10
5.60547
 20
6.70796
 30
0.0
 40
0
 41
0
  0
VERTEX
  8
0
 10
5.64882
 20
6.7449
 30
0.0
 40
0
 41
0
  0
VERTEX
  8
0
 10
5.69954
 20
6.77126
 30
0.0
 40
0
 41
0
  0
VERTEX
  8
0
 10
5.75754
 20
6.78711
 30
0.0
 40
0
 41
0
  0
VERTEX
  8
0
 10
5.82292
 20
6.79237
 30
0.0
 40
0
 41
0
  0
VERTEX
  8
0
 10
5.92557
 20
6.77783
 30
0.0
 40
0
 41
0
  0
VERTEX
  8
0
 10
6.01606
 20
6.73465
 30
0.0
 40
0
 41
0
  0
SEQEND
 8
0
  0
POLYLINE
  8
0
 62
     0
 66
     1
 10
0
 20
0
 30
0.0
 70
     1
 40
0
 41
0
  0
VERTEX
  8
0
 10
6.95404
 20
6.78131
 30
0.0
 40
0
 41
0
  0
VERTEX
  8
0
 10
7.03629
 20
6.78131
 30
0.0
 40
0
 41
0
  0
VERTEX
  8
0
 10
7.03629
 20
6.53239
 30
0.0
 40
0
 41
0
  0
VERTEX
  8
0
 10
7.3349
 20
6.53239
 30
0.0
 40
0
 41
0
  0
VERTEX
  8
0
 10
7.3349
 20
6.78131
 30
0.0
 40
0
 41
0
  0
VERTEX
  8
0
 10
7.41715
 20
6.78131
 30
0.0
 40
0
 41
0
  0
VERTEX
  8
0
 10
7.41715
 20
6.17389
 30
0.0
 40
0
 41
0
  0
VERTEX
  8
0
 10
7.3349
 20
6.17389
 30
0.0
 40
0
 41
0
  0
VERTEX
  8
0
 10
7.3349
 20
6.46317
 30
0.0
 40
0
 41
0
  0
VERTEX
  8
0
 10
7.03629
 20
6.46317
 30
0.0
 40
0
 41
0
  0
VERTEX
  8
0
 10
7.03629
 20
6.17389
 30
0.0
 40
0
 41
0
  0
VERTEX
  8
0
 10
6.95404
 20
6.17389
 30
0.0
 40
0
 41
0
  0
VERTEX
  8
0
 10
6.95404
 20
6.78131
 30
0.0
 40
0
 41
0
  0
SEQEND
 8
0
  0
POLYLINE
  8
0
 62
     0
 66
     1
 10
0
 20
0
 30
0.0
 70
     1
 40
0
 41
0
  0
VERTEX
  8
0
 10
8.70692
 20
6.76156
 30
0.0
 40
0
 41
0
  0
VERTEX
  8
0
 10
8.70692
 20
6.68126
 30
0.0
 40
0
 41
0
  0
VERTEX
  8
0
 10
8.6186
 20
6.71468
 30
0.0
 40
0
 41
0
  0
VERTEX
  8
0
 10
8.53851
 20
6.72575
 30
0.0
 40
0
 41
0
  0
VERTEX
  8
0
 10
8.47889
 20
6.71924
 30
0.0
 40
0
 41
0
  0
VERTEX
  8
0
 10
8.43479
 20
6.69971
 30
0.0
 40
0
 41
0
  0
VERTEX
  8
0
 10
8.40756
 20
6.66813
 30
0.0
 40
0
 41
0
  0
VERTEX
  8
0
 10
8.39854
 20
6.62549
 30
0.0
 40
0
 41
0
  0
VERTEX
  8
0
 10
8.40457
 20
6.59022
 30
0.0
 40
0
 41
0
  0
VERTEX
  8
0
 10
8.42264
 20
6.56472
 30
0.0
 40
0
 41
0
  0
VERTEX
  8
0
 10
8.45768
 20
6.54611
 30
0.0
 40
0
 41
0
  0
VERTEX
  8
0
 10
8.51443
 20
6.53153
 30
0.0
 40
0
 41
0
  0
VERTEX
  8
0
 10
8.56413
 20
6.52132
 30
0.0
 40
0
 41
0
  0
VERTEX
  8
0
 10
8.64399
 20
6.49724
 30
0.0
 40
0
 41
0
  0
VERTEX
  8
0
 10
8.69976
 20
6.45969
 30
0.0
 40
0
 41
0
  0
VERTEX
  8
0
 10
8.73258
 20
6.40815
 30
0.0
 40
0
 41
0
  0
VERTEX
  8
0
 10
8.7436
 20
6.34164
 30
0.0
 40
0
 41
0
  0
VERTEX
  8
0
 10
8.72879
 20
6.264
 30
0.0
 40
0
 41
0
  0
VERTEX
  8
0
 10
8.68435
 20
6.20774
 30
0.0
 40
0
 41
0
  0
VERTEX
  8
0
 10
8.61128
 20
6.17356
 30
0.0
 40
0
 41
0
  0
VERTEX
  8
0
 10
8.51074
 20
6.16217
 30
0.0
 40
0
 41
0
  0
VERTEX
  8
0
 10
8.41894
 20
6.17193
 30
0.0
 40
0
 41
0
  0
VERTEX
  8
0
 10
8.31825
 20
6.20079
 30
0.0
 40
0
 41
0
  0
VERTEX
  8
0
 10
8.31825
 20
6.28543
 30
0.0
 40
0
 41
0
  0
VERTEX
  8
0
 10
8.41635
 20
6.24289
 30
0.0
 40
0
 41
0
  0
VERTEX
  8
0
 10
8.51074
 20
6.22879
 30
0.0
 40
0
 41
0
  0
VERTEX
  8
0
 10
8.57314
 20
6.23568
 30
0.0
 40
0
 41
0
  0
VERTEX
  8
0
 10
8.61947
 20
6.25635
 30
0.0
 40
0
 41
0
  0
VERTEX
  8
0
 10
8.64806
 20
6.28999
 30
0.0
 40
0
 41
0
  0
VERTEX
  8
0
 10
8.65767
 20
6.33535
 30
0.0
 40
0
 41
0
  0
VERTEX
  8
0
 10
8.65072
 20
6.37532
 30
0.0
 40
0
 41
0
  0
VERTEX
  8
0
 10
8.6301
 20
6.40543
 30
0.0
 40
0
 41
0
  0
VERTEX
  8
0
 10
8.59386
 20
6.42746
 30
0.0
 40
0
 41
0
  0
VERTEX
  8
0
 10
8.54004
 20
6.44319
 30
0.0
 40
0
 41
0
  0
VERTEX
  8
0
 10
8.49013
 20
6.45296
 30
0.0
 40
0
 41
0
  0
VERTEX
  8
0
 10
8.41075
 20
6.47657
 30
0.0
 40
0
 41
0
  0
VERTEX
  8
0
 10
8.35688
 20
6.51047
 30
0.0
 40
0
 41
0
  0
VERTEX
  8
0
 10
8.32611
 20
6.55713
 30
0.0
 40
0
 41
0
  0
VERTEX
  8
0
 10
8.31586
 20
6.61897
 30
0.0
 40
0
 41
0
  0
VERTEX
  8
0
 10
8.33003
 20
6.69108
 30
0.0
 40
0
 41
0
  0
VERTEX
  8
0
 10
8.3725
 20
6.74593
 30
0.0
 40
0
 41
0
  0
VERTEX
  8
0
 10
8.44006
 20
6.78076
 30
0.0
 40
0
 41
0
  0
VERTEX
  8
0
 10
8.52919
 20
6.79237
 30
0.0
 40
0
 41
0
  0
VERTEX
  8
0
 10
8.61621
 20
6.78456
 30
0.0
 40
0
 41
0
  0
VERTEX
  8
0
 10
8.70692
 20
6.76156
 30
0.0
 40
0
 41
0
  0
SEQEND
 8
0
  0
POLYLINE
  8
0
 62
     0
 66
     1
 10
0
 20
0
 30
0.0
 70
     1
 40
0
 41
0
  0
VERTEX
  8
0
 10
9.68093
 20
6.78131
 30
0.0
 40
0
 41
0
  0
VERTEX
  8
0
 10
9.76926
 20
6.78131
 30
0.0
 40
0
 41
0
  0
VERTEX
  8
0
 10
9.92008
 20
6.55561
 30
0.0
 40
0
 41
0
  0
VERTEX
  8
0
 10
10.072
 20
6.78131
 30
0.0
 40
0
 41
0
  0
VERTEX
  8
0
 10
10.1603
 20
6.78131
 30
0.0
 40
0
 41
0
  0
VERTEX
  8
0
 10
9.965
 20
6.48964
 30
0.0
 40
0
 41
0
  0
VERTEX
  8
0
 10
10.1733
 20
6.17389
 30
0.0
 40
0
 41
0
  0
VERTEX
  8
0
 10
10.085
 20
6.17389
 30
0.0
 40
0
 41
0
  0
VERTEX
  8
0
 10
9.91401
 20
6.43235
 30
0.0
 40
0
 41
0
  0
VERTEX
  8
0
 10
9.74192
 20
6.17389
 30
0.0
 40
0
 41
0
  0
VERTEX
  8
0
 10
9.65315
 20
6.17389
 30
0.0
 40
0
 41
0
  0
VERTEX
  8
0
 10
9.87017
 20
6.4981
 30
0.0
 40
0
 41
0
  0
VERTEX
  8
0
 10
9.68093
 20
6.78131
 30
0.0
 40
0
 41
0
  0
SEQEND
 8
0
  0
POLYLINE
  8
0
 62
     0
 66
     1
 10
0
 20
0
 30
0.0
 70
     1
 40
0
 41
0
  0
VERTEX
  8
0
 10
11.0971
 20
6.78131
 30
0.0
 40
0
 41
0
  0
VERTEX
  8
0
 10
11.2077
 20
6.78131
 30
0.0
 40
0
 41
0
  0
VERTEX
  8
0
 10
11.4771
 20
6.27328
 30
0.0
 40
0
 41
0
  0
VERTEX
  8
0
 10
11.4771
 20
6.78131
 30
0.0
 40
0
 41
0
  0
VERTEX
  8
0
 10
11.5569
 20
6.78131
 30
0.0
 40
0
 41
0
  0
VERTEX
  8
0
 10
11.5569
 20
6.17389
 30
0.0
 40
0
 41
0
  0
VERTEX
  8
0
 10
11.4462
 20
6.17389
 30
0.0
 40
0
 41
0
  0
VERTEX
  8
0
 10
11.1767
 20
6.68213
 30
0.0
 40
0
 41
0
  0
VERTEX
  8
0
 10
11.1767
 20
6.17389
 30
0.0
 40
0
 41
0
  0
VERTEX
  8
0
 10
11.0971
 20
6.17389
 30
0.0
 40
0
 41
0
  0
VERTEX
  8
0
 10
11.0971
 20
6.78131
 30
0.0
 40
0
 41
0
  0
SEQEND
 8
0
  0
POLYLINE
  8
0
 62
     0
 66
     1
 10
0
 20
0
 30
0.0
 70
     1
 40
0
 41
0
  0
VERTEX
  8
0
 10
12.6732
 20
6.70036
 30
0.0
 40
0
 41
0
  0
VERTEX
  8
0
 10
12.5617
 20
6.39806
 30
0.0
 40
0
 41
0
  0
VERTEX
  8
0
 10
12.785
 20
6.39806
 30
0.0
 40
0
 41
0
  0
VERTEX
  8
0
 10
12.6732
 20
6.70036
 30
0.0
 40
0
 41
0
  0
SEQEND
 8
0
  0
POLYLINE
  8
0
 62
     0
 66
     1
 10
0
 20
0
 30
0.0
 70
     1
 40
0
 41
0
  0
VERTEX
  8
0
 10
12.6268
 20
6.78131
 30
0.0
 40
0
 41
0
  0
VERTEX
  8
0
 10
12.7199
 20
6.78131
 30
0.0
 40
0
 41
0
  0
VERTEX
  8
0
 10
12.9514
 20
6.17389
 30
0.0
 40
0
 41
0
  0
VERTEX
  8
0
 10
12.8659
 20
6.17389
 30
0.0
 40
0
 41
0
  0
VERTEX
  8
0
 10
12.8106
 20
6.32969
 30
0.0
 40
0
 41
0
  0
VERTEX
  8
0
 10
12.5367
 20
6.32969
 30
0.0
 40
0
 41
0
  0
VERTEX
  8
0
 10
12.4814
 20
6.17389
 30
0.0
 40
0
 41
0
  0
VERTEX
  8
0
 10
12.3948
 20
6.17389
 30
0.0
 40
0
 41
0
  0
VERTEX
  8
0
 10
12.6268
 20
6.78131
 30
0.0
 40
0
 41
0
  0
SEQEND
 8
0
  0
POLYLINE
  8
0
 62
     0
 66
     1
 10
0
 20
0
 30
0.0
 70
     1
 40
0
 41
0
  0
VERTEX
  8
0
 10
14.3012
 20
6.73465
 30
0.0
 40
0
 41
0
  0
VERTEX
  8
0
 10
14.3012
 20
6.64785
 30
0.0
 40
0
 41
0
  0
VERTEX
  8
0
 10
14.2128
 20
6.70578
 30
0.0
 40
0
 41
0
  0
VERTEX
  8
0
 10
14.1129
 20
6.72488
 30
0.0
 40
0
 41
0
  0
VERTEX
  8
0
 10
14.0639
 20
6.72092
 30
0.0
 40
0
 41
0
  0
VERTEX
  8
0
 10
14.021
 20
6.70893
 30
0.0
 40
0
 41
0
  0
VERTEX
  8
0
 10
13.9842
 20
6.68901
 30
0.0
 40
0
 41
0
  0
VERTEX
  8
0
 10
13.9533
 20
6.66108
 30
0.0
 40
0
 41
0
  0
VERTEX
  8
0
 10
13.9292
 20
6.62576
 30
0.0
 40
0
 41
0
  0
VERTEX
  8
0
 10
13.9119
 20
6.58328
 30
0.0
 40
0
 41
0
  0
VERTEX
  8
0
 10
13.9015
 20
6.53375
 30
0.0
 40
0
 41
0
  0
VERTEX
  8
0
 10
13.8981
 20
6.47706
 30
0.0
 40
0
 41
0
  0
VERTEX
  8
0
 10
13.9015
 20
6.42057
 30
0.0
 40
0
 41
0
  0
VERTEX
  8
0
 10
13.9119
 20
6.3711
 30
0.0
 40
0
 41
0
  0
VERTEX
  8
0
 10
13.9292
 20
6.32867
 30
0.0
 40
0
 41
0
  0
VERTEX
  8
0
 10
13.9533
 20
6.29324
 30
0.0
 40
0
 41
0
  0
VERTEX
  8
0
 10
13.9842
 20
6.2654
 30
0.0
 40
0
 41
0
  0
VERTEX
  8
0
 10
14.021
 20
6.24556
 30
0.0
 40
0
 41
0
  0
VERTEX
  8
0
 10
14.0639
 20
6.23367
 30
0.0
 40
0
 41
0
  0
VERTEX
  8
0
 10
14.1129
 20
6.22965
 30
0.0
 40
0
 41
0
  0
VERTEX
  8
0
 10
14.2128
 20
6.24875
 30
0.0
 40
0
 41
0
  0
VERTEX
  8
0
 10
14.3012
 20
6.30647
 30
0.0
 40
0
 41
0
  0
VERTEX
  8
0
 10
14.3012
 20
6.22076
 30
0.0
 40
0
 41
0
  0
VERTEX
  8
0
 10
14.2099
 20
6.17671
 30
0.0
 40
0
 41
0
  0
VERTEX
  8
0
 10
14.1082
 20
6.16217
 30
0.0
 40
0
 41
0
  0
VERTEX
  8
0
 10
14.0428
 20
6.16749
 30
0.0
 40
0
 41
0
  0
VERTEX
  8
0
 10
13.9847
 20
6.18326
 30
0.0
 40
0
 41
0
  0
VERTEX
  8
0
 10
13.934
 20
6.20964
 30
0.0
 40
0
 41
0
  0
VERTEX
  8
0
 10
13.8907
 20
6.24658
 30
0.0
 40
0
 41
0
  0
VERTEX
  8
0
 10
13.8312
 20
6.3464
 30
0.0
 40
0
 41
0
  0
VERTEX
  8
0
 10
13.8115
 20
6.47706
 30
0.0
 40
0
 41
0
  0
VERTEX
  8
0
 10
13.8312
 20
6.60801
 30
0.0
 40
0
 41
0
  0
VERTEX
  8
0
 10
13.8907
 20
6.70796
 30
0.0
 40
0
 41
0
  0
VERTEX
  8
0
 10
13.934
 20
6.7449
 30
0.0
 40
0
 41
0
  0
VERTEX
  8
0
 10
13.9847
 20
6.77126
 30
0.0
 40
0
 41
0
  0
VERTEX
  8
0
 10
14.0428
 20
6.78711
 30
0.0
 40
0
 41
0
  0
VERTEX
  8
0
 10
14.1082
 20
6.79237
 30
0.0
 40
0
 41
0
  0
VERTEX
  8
0
 10
14.2108
 20
6.77783
 30
0.0
 40
0
 41
0
  0
VERTEX
  8
0
 10
14.3012
 20
6.73465
 30
0.0
 40
0
 41
0
  0
SEQEND
 8
0
  0
POLYLINE
  8
0
 62
     0
 66
     1
 10
0
 20
0
 30
0.0
 70
     1
 40
0
 41
0
  0
VERTEX
  8
0
 10
15.2393
 20
6.78131
 30
0.0
 40
0
 41
0
  0
VERTEX
  8
0
 10
15.3215
 20
6.78131
 30
0.0
 40
0
 41
0
  0
VERTEX
  8
0
 10
15.3215
 20
6.53239
 30
0.0
 40
0
 41
0
  0
VERTEX
  8
0
 10
15.6201
 20
6.53239
 30
0.0
 40
0
 41
0
  0
VERTEX
  8
0
 10
15.6201
 20
6.78131
 30
0.0
 40
0
 41
0
  0
VERTEX
  8
0
 10
15.7024
 20
6.78131
 30
0.0
 40
0
 41
0
  0
VERTEX
  8
0
 10
15.7024
 20
6.17389
 30
0.0
 40
0
 41
0
  0
VERTEX
  8
0
 10
15.6201
 20
6.17389
 30
0.0
 40
0
 41
0
  0
VERTEX
  8
0
 10
15.6201
 20
6.46317
 30
0.0
 40
0
 41
0
  0
VERTEX
  8
0
 10
15.3215
 20
6.46317
 30
0.0
 40
0
 41
0
  0
VERTEX
  8
0
 10
15.3215
 20
6.17389
 30
0.0
 40
0
 41
0
  0
VERTEX
  8
0
 10
15.2393
 20
6.17389
 30
0.0
 40
0
 41
0
  0
VERTEX
  8
0
 10
15.2393
 20
6.78131
 30
0.0
 40
0
 41
0
  0
SEQEND
 8
0
  0
POLYLINE
  8
0
 62
     0
 66
     1
 10
0
 20
0
 30
0.0
 70
     1
 40
0
 41
0
  0
VERTEX
  8
0
 10
16.5508
 20
6.78131
 30
0.0
 40
0
 41
0
  0
VERTEX
  8
0
 10
17.0647
 20
6.78131
 30
0.0
 40
0
 41
0
  0
VERTEX
  8
0
 10
17.0647
 20
6.71229
 30
0.0
 40
0
 41
0
  0
VERTEX
  8
0
 10
16.849
 20
6.71229
 30
0.0
 40
0
 41
0
  0
VERTEX
  8
0
 10
16.849
 20
6.17389
 30
0.0
 40
0
 41
0
  0
VERTEX
  8
0
 10
16.7665
 20
6.17389
 30
0.0
 40
0
 41
0
  0
VERTEX
  8
0
 10
16.7665
 20
6.71229
 30
0.0
 40
0
 41
0
  0
VERTEX
  8
0
 10
16.5508
 20
6.71229
 30
0.0
 40
0
 41
0
  0
VERTEX
  8
0
 10
16.5508
 20
6.78131
 30
0.0
 40
0
 41
0
  0
SEQEND
 8
0
  0
POLYLINE
  8
0
 62
     0
 66
     1
 10
0
 20
0
 30
0.0
 70
     1
 40
0
 41
0
  0
VERTEX
  8
0
 10
3.18349
 20
5.38069
 30
0.0
 40
0
 41
0
  0
VERTEX
  8
0
 10
3.18349
 20
5.30035
 30
0.0
 40
0
 41
0
  0
VERTEX
  8
0
 10
3.09517
 20
5.33382
 30
0.0
 40
0
 41
0
  0
VERTEX
  8
0
 10
3.01508
 20
5.34489
 30
0.0
 40
0
 41
0
  0
VERTEX
  8
0
 10
2.95546
 20
5.33838
 30
0.0
 40
0
 41
0
  0
VERTEX
  8
0
 10
2.91135
 20
5.31885
 30
0.0
 40
0
 41
0
  0
VERTEX
  8
0
 10
2.88411
 20
5.28728
 30
0.0
 40
0
 41
0
  0
VERTEX
  8
0
 10
2.87511
 20
5.24463
 30
0.0
 40
0
 41
0
  0
VERTEX
  8
0
 10
2.88112
 20
5.20936
 30
0.0
 40
0
 41
0
  0
VERTEX
  8
0
 10
2.89919
 20
5.18386
 30
0.0
 40
0
 41
0
  0
VERTEX
  8
0
 10
2.93425
 20
5.16525
 30
0.0
 40
0
 41
0
  0
VERTEX
  8
0
 10
2.991
 20
5.15067
 30
0.0
 40
0
 41
0
  0
VERTEX
  8
0
 10
3.04069
 20
5.14046
 30
0.0
 40
0
 41
0
  0
VERTEX
  8
0
 10
3.12056
 20
5.11638
 30
0.0
 40
0
 41
0
  0
VERTEX
  8
0
 10
3.17632
 20
5.07883
 30
0.0
 40
0
 41
0
  0
VERTEX
  8
0
 10
3.20915
 20
5.02729
 30
0.0
 40
0
 41
0
  0
VERTEX
  8
0
 10
3.22017
 20
4.96078
 30
0.0
 40
0
 41
0
  0
VERTEX
  8
0
 10
3.20535
 20
4.88314
 30
0.0
 40
0
 41
0
  0
VERTEX
  8
0
 10
3.16092
 20
4.82688
 30
0.0
 40
0
 41
0
  0
VERTEX
  8
0
 10
3.08783
 20
4.79269
 30
0.0
 40
0
 41
0
  0
VERTEX
  8
0
 10
2.98731
 20
4.78125
 30
0.0
 40
0
 41
0
  0
VERTEX
  8
0
 10
2.89551
 20
4.79107
 30
0.0
 40
0
 41
0
  0
VERTEX
  8
0
 10
2.79482
 20
4.81993
 30
0.0
 40
0
 41
0
  0
VERTEX
  8
0
 10
2.79482
 20
4.90451
 30
0.0
 40
0
 41
0
  0
VERTEX
  8
0
 10
2.8929
 20
4.86203
 30
0.0
 40
0
 41
0
  0
VERTEX
  8
0
 10
2.98731
 20
4.84793
 30
0.0
 40
0
 41
0
  0
VERTEX
  8
0
 10
3.04969
 20
4.85482
 30
0.0
 40
0
 41
0
  0
VERTEX
  8
0
 10
3.09603
 20
4.87549
 30
0.0
 40
0
 41
0
  0
VERTEX
  8
0
 10
3.12463
 20
4.90913
 30
0.0
 40
0
 41
0
  0
VERTEX
  8
0
 10
3.13422
 20
4.95449
 30
0.0
 40
0
 41
0
  0
VERTEX
  8
0
 10
3.12728
 20
4.99447
 30
0.0
 40
0
 41
0
  0
VERTEX
  8
0
 10
3.10667
 20
5.02458
 30
0.0
 40
0
 41
0
  0
VERTEX
  8
0
 10
3.07042
 20
5.0466
 30
0.0
 40
0
 41
0
  0
VERTEX
  8
0
 10
3.0166
 20
5.06233
 30
0.0
 40
0
 41
0
  0
VERTEX
  8
0
 10
2.96669
 20
5.0721
 30
0.0
 40
0
 41
0
  0
VERTEX
  8
0
 10
2.88732
 20
5.09571
 30
0.0
 40
0
 41
0
  0
VERTEX
  8
0
 10
2.83344
 20
5.12961
 30
0.0
 40
0
 41
0
  0
VERTEX
  8
0
 10
2.80268
 20
5.17626
 30
0.0
 40
0
 41
0
  0
VERTEX
  8
0
 10
2.79243
 20
5.23812
 30
0.0
 40
0
 41
0
  0
VERTEX
  8
0
 10
2.80658
 20
5.31022
 30
0.0
 40
0
 41
0
  0
VERTEX
  8
0
 10
2.84907
 20
5.36507
 30
0.0
 40
0
 41
0
  0
VERTEX
  8
0
 10
2.91661
 20
5.3999
 30
0.0
 40
0
 41
0
  0
VERTEX
  8
0
 10
3.00575
 20
5.41146
 30
0.0
 40
0
 41
0
  0
VERTEX
  8
0
 10
3.09278
 20
5.40369
 30
0.0
 40
0
 41
0
  0
VERTEX
  8
0
 10
3.18349
 20
5.38069
 30
0.0
 40
0
 41
0
  0
SEQEND
 8
0
  0
POLYLINE
  8
0
 62
     0
 66
     1
 10
0
 20
0
 30
0.0
 70
     1
 40
0
 41
0
  0
VERTEX
  8
0
 10
4.32493
 20
5.40044
 30
0.0
 40
0
 41
0
  0
VERTEX
  8
0
 10
4.40717
 20
5.40044
 30
0.0
 40
0
 41
0
  0
VERTEX
  8
0
 10
4.40717
 20
4.79303
 30
0.0
 40
0
 41
0
  0
VERTEX
  8
0
 10
4.32493
 20
4.79303
 30
0.0
 40
0
 41
0
  0
VERTEX
  8
0
 10
4.32493
 20
5.40044
 30
0.0
 40
0
 41
0
  0
SEQEND
 8
0
  0
POLYLINE
  8
0
 62
     0
 66
     1
 10
0
 20
0
 30
0.0
 70
     1
 40
0
 41
0
  0
VERTEX
  8
0
 10
5.58143
 20
5.40044
 30
0.0
 40
0
 41
0
  0
VERTEX
  8
0
 10
5.96556
 20
5.40044
 30
0.0
 40
0
 41
0
  0
VERTEX
  8
0
 10
5.96556
 20
5.33143
 30
0.0
 40
0
 41
0
  0
VERTEX
  8
0
 10
5.66368
 20
5.33143
 30
0.0
 40
0
 41
0
  0
VERTEX
  8
0
 10
5.66368
 20
5.15153
 30
0.0
 40
0
 41
0
  0
VERTEX
  8
0
 10
5.95296
 20
5.15153
 30
0.0
 40
0
 41
0
  0
VERTEX
  8
0
 10
5.95296
 20
5.08231
 30
0.0
 40
0
 41
0
  0
VERTEX
  8
0
 10
5.66368
 20
5.08231
 30
0.0
 40
0
 41
0
  0
VERTEX
  8
0
 10
5.66368
 20
4.86225
 30
0.0
 40
0
 41
0
  0
VERTEX
  8
0
 10
5.97293
 20
4.86225
 30
0.0
 40
0
 41
0
  0
VERTEX
  8
0
 10
5.97293
 20
4.79303
 30
0.0
 40
0
 41
0
  0
VERTEX
  8
0
 10
5.58143
 20
4.79303
 30
0.0
 40
0
 41
0
  0
VERTEX
  8
0
 10
5.58143
 20
5.40044
 30
0.0
 40
0
 41
0
  0
SEQEND
 8
0
  0
POLYLINE
  8
0
 62
     0
 66
     1
 10
0
 20
0
 30
0.0
 70
     1
 40
0
 41
0
  0
VERTEX
  8
0
 10
7.04443
 20
5.08317
 30
0.0
 40
0
 41
0
  0
VERTEX
  8
0
 10
7.04443
 20
4.86051
 30
0.0
 40
0
 41
0
  0
VERTEX
  8
0
 10
7.17617
 20
4.86051
 30
0.0
 40
0
 41
0
  0
VERTEX
  8
0
 10
7.23394
 20
4.86735
 30
0.0
 40
0
 41
0
  0
VERTEX
  8
0
 10
7.27447
 20
4.88786
 30
0.0
 40
0
 41
0
  0
VERTEX
  8
0
 10
7.29839
 20
4.92269
 30
0.0
 40
0
 41
0
  0
VERTEX
  8
0
 10
7.30638
 20
4.97206
 30
0.0
 40
0
 41
0
  0
VERTEX
  8
0
 10
7.29839
 20
5.0216
 30
0.0
 40
0
 41
0
  0
VERTEX
  8
0
 10
7.27447
 20
5.05604
 30
0.0
 40
0
 41
0
  0
VERTEX
  8
0
 10
7.23394
 20
5.07639
 30
0.0
 40
0
 41
0
  0
VERTEX
  8
0
 10
7.17617
 20
5.08317
 30
0.0
 40
0
 41
0
  0
VERTEX
  8
0
 10
7.04443
 20
5.08317
 30
0.0
 40
0
 41
0
  0
SEQEND
 8
0
  0
POLYLINE
  8
0
 62
     0
 66
     1
 10
0
 20
0
 30
0.0
 70
     1
 40
0
 41
0
  0
VERTEX
  8
0
 10
7.04443
 20
5.33296
 30
0.0
 40
0
 41
0
  0
VERTEX
  8
0
 10
7.04443
 20
5.14979
 30
0.0
 40
0
 41
0
  0
VERTEX
  8
0
 10
7.16596
 20
5.14979
 30
0.0
 40
0
 41
0
  0
VERTEX
  8
0
 10
7.21853
 20
5.15543
 30
0.0
 40
0
 41
0
  0
VERTEX
  8
0
 10
7.25581
 20
5.17236
 30
0.0
 40
0
 41
0
  0
VERTEX
  8
0
 10
7.27789
 20
5.20101
 30
0.0
 40
0
 41
0
  0
VERTEX
  8
0
 10
7.28532
 20
5.24132
 30
0.0
 40
0
 41
0
  0
VERTEX
  8
0
 10
7.27789
 20
5.28157
 30
0.0
 40
0
 41
0
  0
VERTEX
  8
0
 10
7.25581
 20
5.31017
 30
0.0
 40
0
 41
0
  0
VERTEX
  8
0
 10
7.21853
 20
5.32726
 30
0.0
 40
0
 41
0
  0
VERTEX
  8
0
 10
7.16596
 20
5.33296
 30
0.0
 40
0
 41
0
  0
VERTEX
  8
0
 10
7.04443
 20
5.33296
 30
0.0
 40
0
 41
0
  0
SEQEND
 8
0
  0
POLYLINE
  8
0
 62
     0
 66
     1
 10
0
 20
0
 30
0.0
 70
     1
 40
0
 41
0
  0
VERTEX
  8
0
 10
6.96218
 20
5.40044
 30
0.0
 40
0
 41
0
  0
VERTEX
  8
0
 10
7.17204
 20
5.40044
 30
0.0
 40
0
 41
0
  0
VERTEX
  8
0
 10
7.25532
 20
5.39068
 30
0.0
 40
0
 41
0
  0
VERTEX
  8
0
 10
7.317
 20
5.36139
 30
0.0
 40
0
 41
0
  0
VERTEX
  8
0
 10
7.35508
 20
5.31413
 30
0.0
 40
0
 41
0
  0
VERTEX
  8
0
 10
7.36778
 20
5.25049
 30
0.0
 40
0
 41
0
  0
VERTEX
  8
0
 10
7.36128
 20
5.20042
 30
0.0
 40
0
 41
0
  0
VERTEX
  8
0
 10
7.34174
 20
5.16174
 30
0.0
 40
0
 41
0
  0
VERTEX
  8
0
 10
7.30957
 20
5.13493
 30
0.0
 40
0
 41
0
  0
VERTEX
  8
0
 10
7.26535
 20
5.1205
 30
0.0
 40
0
 41
0
  0
VERTEX
  8
0
 10
7.31912
 20
5.10042
 30
0.0
 40
0
 41
0
  0
VERTEX
  8
0
 10
7.35954
 20
5.06625
 30
0.0
 40
0
 41
0
  0
VERTEX
  8
0
 10
7.38471
 20
5.01986
 30
0.0
 40
0
 41
0
  0
VERTEX
  8
0
 10
7.39318
 20
4.96317
 30
0.0
 40
0
 41
0
  0
VERTEX
  8
0
 10
7.37935
 20
4.891
 30
0.0
 40
0
 41
0
  0
VERTEX
  8
0
 10
7.33783
 20
4.83729
 30
0.0
 40
0
 41
0
  0
VERTEX
  8
0
 10
7.27078
 20
4.8041
 30
0.0
 40
0
 41
0
  0
VERTEX
  8
0
 10
7.18028
 20
4.79303
 30
0.0
 40
0
 41
0
  0
VERTEX
  8
0
 10
6.96218
 20
4.79303
 30
0.0
 40
0
 41
0
  0
VERTEX
  8
0
 10
6.96218
 20
5.40044
 30
0.0
 40
0
 41
0
  0
SEQEND
 8
0
  0
POLYLINE
  8
0
 62
     0
 66
     1
 10
0
 20
0
 30
0.0
 70
     1
 40
0
 41
0
  0
VERTEX
  8
0
 10
8.34321
 20
5.40044
 30
0.0
 40
0
 41
0
  0
VERTEX
  8
0
 10
8.72732
 20
5.40044
 30
0.0
 40
0
 41
0
  0
VERTEX
  8
0
 10
8.72732
 20
5.33143
 30
0.0
 40
0
 41
0
  0
VERTEX
  8
0
 10
8.42546
 20
5.33143
 30
0.0
 40
0
 41
0
  0
VERTEX
  8
0
 10
8.42546
 20
5.15153
 30
0.0
 40
0
 41
0
  0
VERTEX
  8
0
 10
8.71474
 20
5.15153
 30
0.0
 40
0
 41
0
  0
VERTEX
  8
0
 10
8.71474
 20
5.08231
 30
0.0
 40
0
 41
0
  0
VERTEX
  8
0
 10
8.42546
 20
5.08231
 30
0.0
 40
0
 41
0
  0
VERTEX
  8
0
 10
8.42546
 20
4.86225
 30
0.0
 40
0
 41
0
  0
VERTEX
  8
0
 10
8.73469
 20
4.86225
 30
0.0
 40
0
 41
0
  0
VERTEX
  8
0
 10
8.73469
 20
4.79303
 30
0.0
 40
0
 41
0
  0
VERTEX
  8
0
 10
8.34321
 20
4.79303
 30
0.0
 40
0
 41
0
  0
VERTEX
  8
0
 10
8.34321
 20
5.40044
 30
0.0
 40
0
 41
0
  0
SEQEND
 8
0
  0
POLYLINE
  8
0
 62
     0
 66
     1
 10
0
 20
0
 30
0.0
 70
     1
 40
0
 41
0
  0
VERTEX
  8
0
 10
9.71619
 20
5.40044
 30
0.0
 40
0
 41
0
  0
VERTEX
  8
0
 10
9.82687
 20
5.40044
 30
0.0
 40
0
 41
0
  0
VERTEX
  8
0
 10
10.0962
 20
4.89236
 30
0.0
 40
0
 41
0
  0
VERTEX
  8
0
 10
10.0962
 20
5.40044
 30
0.0
 40
0
 41
0
  0
VERTEX
  8
0
 10
10.1761
 20
5.40044
 30
0.0
 40
0
 41
0
  0
VERTEX
  8
0
 10
10.1761
 20
4.79303
 30
0.0
 40
0
 41
0
  0
VERTEX
  8
0
 10
10.0654
 20
4.79303
 30
0.0
 40
0
 41
0
  0
VERTEX
  8
0
 10
9.79585
 20
5.30126
 30
0.0
 40
0
 41
0
  0
VERTEX
  8
0
 10
9.79585
 20
4.79303
 30
0.0
 40
0
 41
0
  0
VERTEX
  8
0
 10
9.71619
 20
4.79303
 30
0.0
 40
0
 41
0
  0
VERTEX
  8
0
 10
9.71619
 20
5.40044
 30
0.0
 40
0
 41
0
  0
SEQEND
 8
0
  0
POLYLINE
  8
0
 62
     0
 66
     1
 10
0
 20
0
 30
0.0
 70
     1
 40
0
 41
0
  0
VERTEX
  8
0
 10
11.078
 20
5.40044
 30
0.0
 40
0
 41
0
  0
VERTEX
  8
0
 10
11.5552
 20
5.40044
 30
0.0
 40
0
 41
0
  0
VERTEX
  8
0
 10
11.5552
 20
5.33794
 30
0.0
 40
0
 41
0
  0
VERTEX
  8
0
 10
11.1711
 20
4.86225
 30
0.0
 40
0
 41
0
  0
VERTEX
  8
0
 10
11.5645
 20
4.86225
 30
0.0
 40
0
 41
0
  0
VERTEX
  8
0
 10
11.5645
 20
4.79303
 30
0.0
 40
0
 41
0
  0
VERTEX
  8
0
 10
11.0686
 20
4.79303
 30
0.0
 40
0
 41
0
  0
VERTEX
  8
0
 10
11.0686
 20
4.85574
 30
0.0
 40
0
 41
0
  0
VERTEX
  8
0
 10
11.4528
 20
5.33143
 30
0.0
 40
0
 41
0
  0
VERTEX
  8
0
 10
11.078
 20
5.33143
 30
0.0
 40
0
 41
0
  0
VERTEX
  8
0
 10
11.078
 20
5.40044
 30
0.0
 40
0
 41
0
  0
SEQEND
 8
0
  0
POLYLINE
  8
0
 62
     0
 66
     1
 10
0
 20
0
 30
0.0
 70
     1
 40
0
 41
0
  0
VERTEX
  8
0
 10
12.3384
 20
5.40044
 30
0.0
 40
0
 41
0
  0
VERTEX
  8
0
 10
12.4213
 20
5.40044
 30
0.0
 40
0
 41
0
  0
VERTEX
  8
0
 10
12.5492
 20
4.88699
 30
0.0
 40
0
 41
0
  0
VERTEX
  8
0
 10
12.6765
 20
5.40044
 30
0.0
 40
0
 41
0
  0
VERTEX
  8
0
 10
12.7688
 20
5.40044
 30
0.0
 40
0
 41
0
  0
VERTEX
  8
0
 10
12.8966
 20
4.88699
 30
0.0
 40
0
 41
0
  0
VERTEX
  8
0
 10
13.024
 20
5.40044
 30
0.0
 40
0
 41
0
  0
VERTEX
  8
0
 10
13.1073
 20
5.40044
 30
0.0
 40
0
 41
0
  0
VERTEX
  8
0
 10
12.9548
 20
4.79303
 30
0.0
 40
0
 41
0
  0
VERTEX
  8
0
 10
12.8515
 20
4.79303
 30
0.0
 40
0
 41
0
  0
VERTEX
  8
0
 10
12.7232
 20
5.32036
 30
0.0
 40
0
 41
0
  0
VERTEX
  8
0
 10
12.5939
 20
4.79303
 30
0.0
 40
0
 41
0
  0
VERTEX
  8
0
 10
12.4906
 20
4.79303
 30
0.0
 40
0
 41
0
  0
VERTEX
  8
0
 10
12.3384
 20
5.40044
 30
0.0
 40
0
 41
0
  0
SEQEND
 8
0
  0
POLYLINE
  8
0
 62
     0
 66
     1
 10
0
 20
0
 30
0.0
 70
     1
 40
0
 41
0
  0
VERTEX
  8
0
 10
14.0782
 20
5.30637
 30
0.0
 40
0
 41
0
  0
VERTEX
  8
0
 10
13.9979
 20
5.28965
 30
0.0
 40
0
 41
0
  0
VERTEX
  8
0
 10
13.9361
 20
5.23953
 30
0.0
 40
0
 41
0
  0
VERTEX
  8
0
 10
13.8965
 20
5.16075
 30
0.0
 40
0
 41
0
  0
VERTEX
  8
0
 10
13.8834
 20
5.05767
 30
0.0
 40
0
 41
0
  0
VERTEX
  8
0
 10
13.8965
 20
4.95486
 30
0.0
 40
0
 41
0
  0
VERTEX
  8
0
 10
13.9361
 20
4.87603
 30
0.0
 40
0
 41
0
  0
VERTEX
  8
0
 10
13.9979
 20
4.82607
 30
0.0
 40
0
 41
0
  0
VERTEX
  8
0
 10
14.0782
 20
4.8094
 30
0.0
 40
0
 41
0
  0
VERTEX
  8
0
 10
14.1585
 20
4.82607
 30
0.0
 40
0
 41
0
  0
VERTEX
  8
0
 10
14.2201
 20
4.87603
 30
0.0
 40
0
 41
0
  0
VERTEX
  8
0
 10
14.2593
 20
4.95486
 30
0.0
 40
0
 41
0
  0
VERTEX
  8
0
 10
14.2725
 20
5.05767
 30
0.0
 40
0
 41
0
  0
VERTEX
  8
0
 10
14.2593
 20
5.16075
 30
0.0
 40
0
 41
0
  0
VERTEX
  8
0
 10
14.2201
 20
5.23953
 30
0.0
 40
0
 41
0
  0
VERTEX
  8
0
 10
14.1585
 20
5.28965
 30
0.0
 40
0
 41
0
  0
VERTEX
  8
0
 10
14.0782
 20
5.30637
 30
0.0
 40
0
 41
0
  0
SEQEND
 8
0
  0
POLYLINE
  8
0
 62
     0
 66
     1
 10
0
 20
0
 30
0.0
 70
     1
 40
0
 41
0
  0
VERTEX
  8
0
 10
14.0782
 20
5.37299
 30
0.0
 40
0
 41
0
  0
VERTEX
  8
0
 10
14.1389
 20
5.36768
 30
0.0
 40
0
 41
0
  0
VERTEX
  8
0
 10
14.1932
 20
5.35157
 30
0.0
 40
0
 41
0
  0
VERTEX
  8
0
 10
14.241
 20
5.32482
 30
0.0
 40
0
 41
0
  0
VERTEX
  8
0
 10
14.2825
 20
5.28728
 30
0.0
 40
0
 41
0
  0
VERTEX
  8
0
 10
14.3399
 20
5.18712
 30
0.0
 40
0
 41
0
  0
VERTEX
  8
0
 10
14.359
 20
5.05767
 30
0.0
 40
0
 41
0
  0
VERTEX
  8
0
 10
14.3399
 20
4.9285
 30
0.0
 40
0
 41
0
  0
VERTEX
  8
0
 10
14.2825
 20
4.82829
 30
0.0
 40
0
 41
0
  0
VERTEX
  8
0
 10
14.241
 20
4.7909
 30
0.0
 40
0
 41
0
  0
VERTEX
  8
0
 10
14.1932
 20
4.76417
 30
0.0
 40
0
 41
0
  0
VERTEX
  8
0
 10
14.1389
 20
4.74815
 30
0.0
 40
0
 41
0
  0
VERTEX
  8
0
 10
14.0782
 20
4.74278
 30
0.0
 40
0
 41
0
  0
VERTEX
  8
0
 10
14.0174
 20
4.74815
 30
0.0
 40
0
 41
0
  0
VERTEX
  8
0
 10
13.9629
 20
4.76411
 30
0.0
 40
0
 41
0
  0
VERTEX
  8
0
 10
13.915
 20
4.79081
 30
0.0
 40
0
 41
0
  0
VERTEX
  8
0
 10
13.8734
 20
4.82807
 30
0.0
 40
0
 41
0
  0
VERTEX
  8
0
 10
13.8159
 20
4.92822
 30
0.0
 40
0
 41
0
  0
VERTEX
  8
0
 10
13.7968
 20
5.05767
 30
0.0
 40
0
 41
0
  0
VERTEX
  8
0
 10
13.8159
 20
5.18712
 30
0.0
 40
0
 41
0
  0
VERTEX
  8
0
 10
13.8734
 20
5.28728
 30
0.0
 40
0
 41
0
  0
VERTEX
  8
0
 10
13.915
 20
5.32482
 30
0.0
 40
0
 41
0
  0
VERTEX
  8
0
 10
13.9629
 20
5.35157
 30
0.0
 40
0
 41
0
  0
VERTEX
  8
0
 10
14.0174
 20
5.36768
 30
0.0
 40
0
 41
0
  0
VERTEX
  8
0
 10
14.0782
 20
5.37299
 30
0.0
 40
0
 41
0
  0
SEQEND
 8
0
  0
POLYLINE
  8
0
 62
     0
 66
     1
 10
0
 20
0
 30
0.0
 70
     1
 40
0
 41
0
  0
VERTEX
  8
0
 10
14.1214
 20
5.51644
 30
0.0
 40
0
 41
0
  0
VERTEX
  8
0
 10
14.2042
 20
5.51644
 30
0.0
 40
0
 41
0
  0
VERTEX
  8
0
 10
14.2042
 20
5.43375
 30
0.0
 40
0
 41
0
  0
VERTEX
  8
0
 10
14.1214
 20
5.43375
 30
0.0
 40
0
 41
0
  0
VERTEX
  8
0
 10
14.1214
 20
5.51644
 30
0.0
 40
0
 41
0
  0
SEQEND
 8
0
  0
POLYLINE
  8
0
 62
     0
 66
     1
 10
0
 20
0
 30
0.0
 70
     1
 40
0
 41
0
  0
VERTEX
  8
0
 10
13.9624
 20
5.51644
 30
0.0
 40
0
 41
0
  0
VERTEX
  8
0
 10
14.045
 20
5.51644
 30
0.0
 40
0
 41
0
  0
VERTEX
  8
0
 10
14.045
 20
5.43375
 30
0.0
 40
0
 41
0
  0
VERTEX
  8
0
 10
13.9624
 20
5.43375
 30
0.0
 40
0
 41
0
  0
VERTEX
  8
0
 10
13.9624
 20
5.51644
 30
0.0
 40
0
 41
0
  0
SEQEND
 8
0
  0
POLYLINE
  8
0
 62
     0
 66
     1
 10
0
 20
0
 30
0.0
 70
     1
 40
0
 41
0
  0
VERTEX
  8
0
 10
15.2746
 20
5.40044
 30
0.0
 40
0
 41
0
  0
VERTEX
  8
0
 10
15.3569
 20
5.40044
 30
0.0
 40
0
 41
0
  0
VERTEX
  8
0
 10
15.3569
 20
4.86225
 30
0.0
 40
0
 41
0
  0
VERTEX
  8
0
 10
15.6526
 20
4.86225
 30
0.0
 40
0
 41
0
  0
VERTEX
  8
0
 10
15.6526
 20
4.79303
 30
0.0
 40
0
 41
0
  0
VERTEX
  8
0
 10
15.2746
 20
4.79303
 30
0.0
 40
0
 41
0
  0
VERTEX
  8
0
 10
15.2746
 20
5.40044
 30
0.0
 40
0
 41
0
  0
SEQEND
 8
0
  0
POLYLINE
  8
0
 62
     0
 66
     1
 10
0
 20
0
 30
0.0
 70
     1
 40
0
 41
0
  0
VERTEX
  8
0
 10
16.6425
 20
5.40044
 30
0.0
 40
0
 41
0
  0
VERTEX
  8
0
 10
16.9917
 20
5.40044
 30
0.0
 40
0
 41
0
  0
VERTEX
  8
0
 10
16.9917
 20
5.33143
 30
0.0
 40
0
 41
0
  0
VERTEX
  8
0
 10
16.7247
 20
5.33143
 30
0.0
 40
0
 41
0
  0
VERTEX
  8
0
 10
16.7247
 20
5.1524
 30
0.0
 40
0
 41
0
  0
VERTEX
  8
0
 10
16.9657
 20
5.1524
 30
0.0
 40
0
 41
0
  0
VERTEX
  8
0
 10
16.9657
 20
5.08317
 30
0.0
 40
0
 41
0
  0
VERTEX
  8
0
 10
16.7247
 20
5.08317
 30
0.0
 40
0
 41
0
  0
VERTEX
  8
0
 10
16.7247
 20
4.79303
 30
0.0
 40
0
 41
0
  0
VERTEX
  8
0
 10
16.6425
 20
4.79303
 30
0.0
 40
0
 41
0
  0
VERTEX
  8
0
 10
16.6425
 20
5.40044
 30
0.0
 40
0
 41
0
  0
SEQEND
 8
0
  0
POLYLINE
  8
0
 62
     0
 66
     1
 10
0
 20
0
 30
0.0
 70
     1
 40
0
 41
0
  0
VERTEX
  8
0
 10
2.79275
 20
4.01958
 30
0.0
 40
0
 41
0
  0
VERTEX
  8
0
 10
3.26997
 20
4.01958
 30
0.0
 40
0
 41
0
  0
VERTEX
  8
0
 10
3.26997
 20
3.95708
 30
0.0
 40
0
 41
0
  0
VERTEX
  8
0
 10
2.88585
 20
3.48139
 30
0.0
 40
0
 41
0
  0
VERTEX
  8
0
 10
3.27929
 20
3.48139
 30
0.0
 40
0
 41
0
  0
VERTEX
  8
0
 10
3.27929
 20
3.41217
 30
0.0
 40
0
 41
0
  0
VERTEX
  8
0
 10
2.78342
 20
3.41217
 30
0.0
 40
0
 41
0
  0
VERTEX
  8
0
 10
2.78342
 20
3.47487
 30
0.0
 40
0
 41
0
  0
VERTEX
  8
0
 10
3.16754
 20
3.95057
 30
0.0
 40
0
 41
0
  0
VERTEX
  8
0
 10
2.79275
 20
3.95057
 30
0.0
 40
0
 41
0
  0
VERTEX
  8
0
 10
2.79275
 20
4.01958
 30
0.0
 40
0
 41
0
  0
SEQEND
 8
0
  0
POLYLINE
  8
0
 62
     0
 66
     1
 10
0
 20
0
 30
0.0
 70
     1
 40
0
 41
0
  0
VERTEX
  8
0
 10
4.20057
 20
4.01958
 30
0.0
 40
0
 41
0
  0
VERTEX
  8
0
 10
4.58469
 20
4.01958
 30
0.0
 40
0
 41
0
  0
VERTEX
  8
0
 10
4.58469
 20
3.95057
 30
0.0
 40
0
 41
0
  0
VERTEX
  8
0
 10
4.28282
 20
3.95057
 30
0.0
 40
0
 41
0
  0
VERTEX
  8
0
 10
4.28282
 20
3.77067
 30
0.0
 40
0
 41
0
  0
VERTEX
  8
0
 10
4.5721
 20
3.77067
 30
0.0
 40
0
 41
0
  0
VERTEX
  8
0
 10
4.5721
 20
3.70139
 30
0.0
 40
0
 41
0
  0
VERTEX
  8
0
 10
4.28282
 20
3.70139
 30
0.0
 40
0
 41
0
  0
VERTEX
  8
0
 10
4.28282
 20
3.48139
 30
0.0
 40
0
 41
0
  0
VERTEX
  8
0
 10
4.59207
 20
3.48139
 30
0.0
 40
0
 41
0
  0
VERTEX
  8
0
 10
4.59207
 20
3.41217
 30
0.0
 40
0
 41
0
  0
VERTEX
  8
0
 10
4.20057
 20
3.41217
 30
0.0
 40
0
 41
0
  0
VERTEX
  8
0
 10
4.20057
 20
4.01958
 30
0.0
 40
0
 41
0
  0
SEQEND
 8
0
  0
POLYLINE
  8
0
 62
     0
 66
     1
 10
0
 20
0
 30
0.0
 70
     1
 40
0
 41
0
  0
VERTEX
  8
0
 10
5.57319
 20
4.01958
 30
0.0
 40
0
 41
0
  0
VERTEX
  8
0
 10
5.65543
 20
4.01958
 30
0.0
 40
0
 41
0
  0
VERTEX
  8
0
 10
5.65543
 20
3.77067
 30
0.0
 40
0
 41
0
  0
VERTEX
  8
0
 10
5.95404
 20
3.77067
 30
0.0
 40
0
 41
0
  0
VERTEX
  8
0
 10
5.95404
 20
4.01958
 30
0.0
 40
0
 41
0
  0
VERTEX
  8
0
 10
6.03629
 20
4.01958
 30
0.0
 40
0
 41
0
  0
VERTEX
  8
0
 10
6.03629
 20
3.41217
 30
0.0
 40
0
 41
0
  0
VERTEX
  8
0
 10
5.95404
 20
3.41217
 30
0.0
 40
0
 41
0
  0
VERTEX
  8
0
 10
5.95404
 20
3.70139
 30
0.0
 40
0
 41
0
  0
VERTEX
  8
0
 10
5.65543
 20
3.70139
 30
0.0
 40
0
 41
0
  0
VERTEX
  8
0
 10
5.65543
 20
3.41217
 30
0.0
 40
0
 41
0
  0
VERTEX
  8
0
 10
5.57319
 20
3.41217
 30
0.0
 40
0
 41
0
  0
VERTEX
  8
0
 10
5.57319
 20
4.01958
 30
0.0
 40
0
 41
0
  0
SEQEND
 8
0
  0
POLYLINE
  8
0
 62
     0
 66
     1
 10
0
 20
0
 30
0.0
 70
     1
 40
0
 41
0
  0
VERTEX
  8
0
 10
6.95449
 20
4.01958
 30
0.0
 40
0
 41
0
  0
VERTEX
  8
0
 10
7.06515
 20
4.01958
 30
0.0
 40
0
 41
0
  0
VERTEX
  8
0
 10
7.33447
 20
3.51156
 30
0.0
 40
0
 41
0
  0
VERTEX
  8
0
 10
7.33447
 20
4.01958
 30
0.0
 40
0
 41
0
  0
VERTEX
  8
0
 10
7.41433
 20
4.01958
 30
0.0
 40
0
 41
0
  0
VERTEX
  8
0
 10
7.41433
 20
3.41217
 30
0.0
 40
0
 41
0
  0
VERTEX
  8
0
 10
7.30365
 20
3.41217
 30
0.0
 40
0
 41
0
  0
VERTEX
  8
0
 10
7.03413
 20
3.92042
 30
0.0
 40
0
 41
0
  0
VERTEX
  8
0
 10
7.03413
 20
3.41217
 30
0.0
 40
0
 41
0
  0
VERTEX
  8
0
 10
6.95449
 20
3.41217
 30
0.0
 40
0
 41
0
  0
VERTEX
  8
0
 10
6.95449
 20
4.01958
 30
0.0
 40
0
 41
0
  0
SEQEND
 8
0
  0
POLYLINE
  8
0
 62
     0
 66
     1
 10
0
 20
0
 30
0.0
 70
     1
 40
0
 41
0
  0
VERTEX
  8
0
 10
8.34321
 20
4.01958
 30
0.0
 40
0
 41
0
  0
VERTEX
  8
0
 10
8.72732
 20
4.01958
 30
0.0
 40
0
 41
0
  0
VERTEX
  8
0
 10
8.72732
 20
3.95057
 30
0.0
 40
0
 41
0
  0
VERTEX
  8
0
 10
8.42546
 20
3.95057
 30
0.0
 40
0
 41
0
  0
VERTEX
  8
0
 10
8.42546
 20
3.77067
 30
0.0
 40
0
 41
0
  0
VERTEX
  8
0
 10
8.71474
 20
3.77067
 30
0.0
 40
0
 41
0
  0
VERTEX
  8
0
 10
8.71474
 20
3.70139
 30
0.0
 40
0
 41
0
  0
VERTEX
  8
0
 10
8.42546
 20
3.70139
 30
0.0
 40
0
 41
0
  0
VERTEX
  8
0
 10
8.42546
 20
3.48139
 30
0.0
 40
0
 41
0
  0
VERTEX
  8
0
 10
8.73469
 20
3.48139
 30
0.0
 40
0
 41
0
  0
VERTEX
  8
0
 10
8.73469
 20
3.41217
 30
0.0
 40
0
 41
0
  0
VERTEX
  8
0
 10
8.34321
 20
3.41217
 30
0.0
 40
0
 41
0
  0
VERTEX
  8
0
 10
8.34321
 20
4.01958
 30
0.0
 40
0
 41
0
  0
SEQEND
 8
0
  0
POLYLINE
  8
0
 62
     0
 66
     1
 10
0
 20
0
 30
0.0
 70
     1
 40
0
 41
0
  0
VERTEX
  8
0
 10
9.70643
 20
4.02311
 30
0.0
 40
0
 41
0
  0
VERTEX
  8
0
 10
9.7889
 20
4.02311
 30
0.0
 40
0
 41
0
  0
VERTEX
  8
0
 10
9.7889
 20
3.65419
 30
0.0
 40
0
 41
0
  0
VERTEX
  8
0
 10
9.79769
 20
3.57021
 30
0.0
 40
0
 41
0
  0
VERTEX
  8
0
 10
9.82428
 20
3.51357
 30
0.0
 40
0
 41
0
  0
VERTEX
  8
0
 10
9.87071
 20
3.48133
 30
0.0
 40
0
 41
0
  0
VERTEX
  8
0
 10
9.93907
 20
3.4706
 30
0.0
 40
0
 41
0
  0
VERTEX
  8
0
 10
10.0071
 20
3.48133
 30
0.0
 40
0
 41
0
  0
VERTEX
  8
0
 10
10.0534
 20
3.51357
 30
0.0
 40
0
 41
0
  0
VERTEX
  8
0
 10
10.0799
 20
3.57021
 30
0.0
 40
0
 41
0
  0
VERTEX
  8
0
 10
10.0888
 20
3.65419
 30
0.0
 40
0
 41
0
  0
VERTEX
  8
0
 10
10.0888
 20
4.02311
 30
0.0
 40
0
 41
0
  0
VERTEX
  8
0
 10
10.1715
 20
4.02311
 30
0.0
 40
0
 41
0
  0
VERTEX
  8
0
 10
10.1715
 20
3.64399
 30
0.0
 40
0
 41
0
  0
VERTEX
  8
0
 10
10.1678
 20
3.58817
 30
0.0
 40
0
 41
0
  0
VERTEX
  8
0
 10
10.1567
 20
3.53965
 30
0.0
 40
0
 41
0
  0
VERTEX
  8
0
 10
10.1383
 20
3.49849
 30
0.0
 40
0
 41
0
  0
VERTEX
  8
0
 10
10.1127
 20
3.46451
 30
0.0
 40
0
 41
0
  0
VERTEX
  8
0
 10
10.0798
 20
3.43804
 30
0.0
 40
0
 41
0
  0
VERTEX
  8
0
 10
10.0398
 20
3.41911
 30
0.0
 40
0
 41
0
  0
VERTEX
  8
0
 10
9.99294
 20
3.40771
 30
0.0
 40
0
 41
0
  0
VERTEX
  8
0
 10
9.93907
 20
3.40392
 30
0.0
 40
0
 41
0
  0
VERTEX
  8
0
 10
9.88504
 20
3.40771
 30
0.0
 40
0
 41
0
  0
VERTEX
  8
0
 10
9.83806
 20
3.41911
 30
0.0
 40
0
 41
0
  0
VERTEX
  8
0
 10
9.79813
 20
3.43804
 30
0.0
 40
0
 41
0
  0
VERTEX
  8
0
 10
9.76525
 20
3.46451
 30
0.0
 40
0
 41
0
  0
VERTEX
  8
0
 10
9.73947
 20
3.49849
 30
0.0
 40
0
 41
0
  0
VERTEX
  8
0
 10
9.72108
 20
3.53965
 30
0.0
 40
0
 41
0
  0
VERTEX
  8
0
 10
9.71007
 20
3.58817
 30
0.0
 40
0
 41
0
  0
VERTEX
  8
0
 10
9.70643
 20
3.64399
 30
0.0
 40
0
 41
0
  0
VERTEX
  8
0
 10
9.70643
 20
4.02311
 30
0.0
 40
0
 41
0
  0
SEQEND
 8
0
  0
POLYLINE
  8
0
 62
     0
 66
     1
 10
0
 20
0
 30
0.0
 70
     1
 40
0
 41
0
  0
VERTEX
  8
0
 10
11.0971
 20
4.01958
 30
0.0
 40
0
 41
0
  0
VERTEX
  8
0
 10
11.2077
 20
4.01958
 30
0.0
 40
0
 41
0
  0
VERTEX
  8
0
 10
11.4771
 20
3.51156
 30
0.0
 40
0
 41
0
  0
VERTEX
  8
0
 10
11.4771
 20
4.01958
 30
0.0
 40
0
 41
0
  0
VERTEX
  8
0
 10
11.5569
 20
4.01958
 30
0.0
 40
0
 41
0
  0
VERTEX
  8
0
 10
11.5569
 20
3.41217
 30
0.0
 40
0
 41
0
  0
VERTEX
  8
0
 10
11.4462
 20
3.41217
 30
0.0
 40
0
 41
0
  0
VERTEX
  8
0
 10
11.1767
 20
3.92042
 30
0.0
 40
0
 41
0
  0
VERTEX
  8
0
 10
11.1767
 20
3.41217
 30
0.0
 40
0
 41
0
  0
VERTEX
  8
0
 10
11.0971
 20
3.41217
 30
0.0
 40
0
 41
0
  0
VERTEX
  8
0
 10
11.0971
 20
4.01958
 30
0.0
 40
0
 41
0
  0
SEQEND
 8
0
  0
POLYLINE
  8
0
 62
     0
 66
     1
 10
0
 20
0
 30
0.0
 70
     1
 40
0
 41
0
  0
VERTEX
  8
0
 10
12.5518
 20
3.9521
 30
0.0
 40
0
 41
0
  0
VERTEX
  8
0
 10
12.5518
 20
3.47965
 30
0.0
 40
0
 41
0
  0
VERTEX
  8
0
 10
12.6509
 20
3.47965
 30
0.0
 40
0
 41
0
  0
VERTEX
  8
0
 10
12.7096
 20
3.48324
 30
0.0
 40
0
 41
0
  0
VERTEX
  8
0
 10
12.7599
 20
3.49388
 30
0.0
 40
0
 41
0
  0
VERTEX
  8
0
 10
12.8017
 20
3.51161
 30
0.0
 40
0
 41
0
  0
VERTEX
  8
0
 10
12.8352
 20
3.53646
 30
0.0
 40
0
 41
0
  0
VERTEX
  8
0
 10
12.8607
 20
3.56917
 30
0.0
 40
0
 41
0
  0
VERTEX
  8
0
 10
12.8789
 20
3.61008
 30
0.0
 40
0
 41
0
  0
VERTEX
  8
0
 10
12.8899
 20
3.65924
 30
0.0
 40
0
 41
0
  0
VERTEX
  8
0
 10
12.8936
 20
3.71664
 30
0.0
 40
0
 41
0
  0
VERTEX
  8
0
 10
12.8899
 20
3.77354
 30
0.0
 40
0
 41
0
  0
VERTEX
  8
0
 10
12.8789
 20
3.82226
 30
0.0
 40
0
 41
0
  0
VERTEX
  8
0
 10
12.8607
 20
3.86285
 30
0.0
 40
0
 41
0
  0
VERTEX
  8
0
 10
12.8352
 20
3.89524
 30
0.0
 40
0
 41
0
  0
VERTEX
  8
0
 10
12.8017
 20
3.92014
 30
0.0
 40
0
 41
0
  0
VERTEX
  8
0
 10
12.7599
 20
3.93788
 30
0.0
 40
0
 41
0
  0
VERTEX
  8
0
 10
12.7096
 20
3.94857
 30
0.0
 40
0
 41
0
  0
VERTEX
  8
0
 10
12.6509
 20
3.9521
 30
0.0
 40
0
 41
0
  0
VERTEX
  8
0
 10
12.5518
 20
3.9521
 30
0.0
 40
0
 41
0
  0
SEQEND
 8
0
  0
POLYLINE
  8
0
 62
     0
 66
     1
 10
0
 20
0
 30
0.0
 70
     1
 40
0
 41
0
  0
VERTEX
  8
0
 10
12.4695
 20
4.01958
 30
0.0
 40
0
 41
0
  0
VERTEX
  8
0
 10
12.6383
 20
4.01958
 30
0.0
 40
0
 41
0
  0
VERTEX
  8
0
 10
12.7914
 20
4.00125
 30
0.0
 40
0
 41
0
  0
VERTEX
  8
0
 10
12.8975
 20
3.94618
 30
0.0
 40
0
 41
0
  0
VERTEX
  8
0
 10
12.9595
 20
3.85215
 30
0.0
 40
0
 41
0
  0
VERTEX
  8
0
 10
12.9801
 20
3.71664
 30
0.0
 40
0
 41
0
  0
VERTEX
  8
0
 10
12.9593
 20
3.58035
 30
0.0
 40
0
 41
0
  0
VERTEX
  8
0
 10
12.897
 20
3.48574
 30
0.0
 40
0
 41
0
  0
VERTEX
  8
0
 10
12.7908
 20
3.43056
 30
0.0
 40
0
 41
0
  0
VERTEX
  8
0
 10
12.6383
 20
3.41217
 30
0.0
 40
0
 41
0
  0
VERTEX
  8
0
 10
12.4695
 20
3.41217
 30
0.0
 40
0
 41
0
  0
VERTEX
  8
0
 10
12.4695
 20
4.01958
 30
0.0
 40
0
 41
0
  0
SEQEND
 8
0
  0
POLYLINE
  8
0
 62
     0
 66
     1
 10
0
 20
0
 30
0.0
 70
     1
 40
0
 41
0
  0
VERTEX
  8
0
 10
13.849
 20
4.02311
 30
0.0
 40
0
 41
0
  0
VERTEX
  8
0
 10
13.9315
 20
4.02311
 30
0.0
 40
0
 41
0
  0
VERTEX
  8
0
 10
13.9315
 20
3.65419
 30
0.0
 40
0
 41
0
  0
VERTEX
  8
0
 10
13.9403
 20
3.57021
 30
0.0
 40
0
 41
0
  0
VERTEX
  8
0
 10
13.9668
 20
3.51357
 30
0.0
 40
0
 41
0
  0
VERTEX
  8
0
 10
14.0133
 20
3.48133
 30
0.0
 40
0
 41
0
  0
VERTEX
  8
0
 10
14.0817
 20
3.4706
 30
0.0
 40
0
 41
0
  0
VERTEX
  8
0
 10
14.1497
 20
3.48133
 30
0.0
 40
0
 41
0
  0
VERTEX
  8
0
 10
14.196
 20
3.51357
 30
0.0
 40
0
 41
0
  0
VERTEX
  8
0
 10
14.2225
 20
3.57021
 30
0.0
 40
0
 41
0
  0
VERTEX
  8
0
 10
14.2314
 20
3.65419
 30
0.0
 40
0
 41
0
  0
VERTEX
  8
0
 10
14.2314
 20
4.02311
 30
0.0
 40
0
 41
0
  0
VERTEX
  8
0
 10
14.314
 20
4.02311
 30
0.0
 40
0
 41
0
  0
VERTEX
  8
0
 10
14.314
 20
3.64399
 30
0.0
 40
0
 41
0
  0
VERTEX
  8
0
 10
14.3104
 20
3.58817
 30
0.0
 40
0
 41
0
  0
VERTEX
  8
0
 10
14.2993
 20
3.53965
 30
0.0
 40
0
 41
0
  0
VERTEX
  8
0
 10
14.281
 20
3.49849
 30
0.0
 40
0
 41
0
  0
VERTEX
  8
0
 10
14.2553
 20
3.46451
 30
0.0
 40
0
 41
0
  0
VERTEX
  8
0
 10
14.2224
 20
3.43804
 30
0.0
 40
0
 41
0
  0
VERTEX
  8
0
 10
14.1824
 20
3.41911
 30
0.0
 40
0
 41
0
  0
VERTEX
  8
0
 10
14.1356
 20
3.40771
 30
0.0
 40
0
 41
0
  0
VERTEX
  8
0
 10
14.0817
 20
3.40392
 30
0.0
 40
0
 41
0
  0
VERTEX
  8
0
 10
14.0276
 20
3.40771
 30
0.0
 40
0
 41
0
  0
VERTEX
  8
0
 10
13.9807
 20
3.41911
 30
0.0
 40
0
 41
0
  0
VERTEX
  8
0
 10
13.9407
 20
3.43804
 30
0.0
 40
0
 41
0
  0
VERTEX
  8
0
 10
13.9078
 20
3.46451
 30
0.0
 40
0
 41
0
  0
VERTEX
  8
0
 10
13.8821
 20
3.49849
 30
0.0
 40
0
 41
0
  0
VERTEX
  8
0
 10
13.8637
 20
3.53965
 30
0.0
 40
0
 41
0
  0
VERTEX
  8
0
 10
13.8527
 20
3.58817
 30
0.0
 40
0
 41
0
  0
VERTEX
  8
0
 10
13.849
 20
3.64399
 30
0.0
 40
0
 41
0
  0
VERTEX
  8
0
 10
13.849
 20
4.02311
 30
0.0
 40
0
 41
0
  0
SEQEND
 8
0
  0
POLYLINE
  8
0
 62
     0
 66
     1
 10
0
 20
0
 30
0.0
 70
     1
 40
0
 41
0
  0
VERTEX
  8
0
 10
15.2393
 20
4.01958
 30
0.0
 40
0
 41
0
  0
VERTEX
  8
0
 10
15.3215
 20
4.01958
 30
0.0
 40
0
 41
0
  0
VERTEX
  8
0
 10
15.3215
 20
3.77067
 30
0.0
 40
0
 41
0
  0
VERTEX
  8
0
 10
15.6201
 20
3.77067
 30
0.0
 40
0
 41
0
  0
VERTEX
  8
0
 10
15.6201
 20
4.01958
 30
0.0
 40
0
 41
0
  0
VERTEX
  8
0
 10
15.7024
 20
4.01958
 30
0.0
 40
0
 41
0
  0
VERTEX
  8
0
 10
15.7024
 20
3.41217
 30
0.0
 40
0
 41
0
  0
VERTEX
  8
0
 10
15.6201
 20
3.41217
 30
0.0
 40
0
 41
0
  0
VERTEX
  8
0
 10
15.6201
 20
3.70139
 30
0.0
 40
0
 41
0
  0
VERTEX
  8
0
 10
15.3215
 20
3.70139
 30
0.0
 40
0
 41
0
  0
VERTEX
  8
0
 10
15.3215
 20
3.41217
 30
0.0
 40
0
 41
0
  0
VERTEX
  8
0
 10
15.2393
 20
3.41217
 30
0.0
 40
0
 41
0
  0
VERTEX
  8
0
 10
15.2393
 20
4.01958
 30
0.0
 40
0
 41
0
  0
SEQEND
 8
0
  0
POLYLINE
  8
0
 62
     0
 66
     1
 10
0
 20
0
 30
0.0
 70
     1
 40
0
 41
0
  0
VERTEX
  8
0
 10
16.8882
 20
3.6971
 30
0.0
 40
0
 41
0
  0
VERTEX
  8
0
 10
16.9397
 20
3.65869
 30
0.0
 40
0
 41
0
  0
VERTEX
  8
0
 10
16.99
 20
3.57813
 30
0.0
 40
0
 41
0
  0
VERTEX
  8
0
 10
17.0736
 20
3.41217
 30
0.0
 40
0
 41
0
  0
VERTEX
  8
0
 10
16.9853
 20
3.41217
 30
0.0
 40
0
 41
0
  0
VERTEX
  8
0
 10
16.9075
 20
3.56799
 30
0.0
 40
0
 41
0
  0
VERTEX
  8
0
 10
16.8778
 20
3.61871
 30
0.0
 40
0
 41
0
  0
VERTEX
  8
0
 10
16.849
 20
3.64893
 30
0.0
 40
0
 41
0
  0
VERTEX
  8
0
 10
16.8156
 20
3.6639
 30
0.0
 40
0
 41
0
  0
VERTEX
  8
0
 10
16.7719
 20
3.66889
 30
0.0
 40
0
 41
0
  0
VERTEX
  8
0
 10
16.6825
 20
3.66889
 30
0.0
 40
0
 41
0
  0
VERTEX
  8
0
 10
16.6825
 20
3.41217
 30
0.0
 40
0
 41
0
  0
VERTEX
  8
0
 10
16.6003
 20
3.41217
 30
0.0
 40
0
 41
0
  0
VERTEX
  8
0
 10
16.6003
 20
4.01958
 30
0.0
 40
0
 41
0
  0
VERTEX
  8
0
 10
16.7858
 20
4.01958
 30
0.0
 40
0
 41
0
  0
VERTEX
  8
0
 10
16.8767
 20
4.00868
 30
0.0
 40
0
 41
0
  0
VERTEX
  8
0
 10
16.9413
 20
3.97597
 30
0.0
 40
0
 41
0
  0
VERTEX
  8
0
 10
16.9796
 20
3.92144
 30
0.0
 40
0
 41
0
  0
VERTEX
  8
0
 10
16.9924
 20
3.84467
 30
0.0
 40
0
 41
0
  0
VERTEX
  8
0
 10
16.9857
 20
3.79221
 30
0.0
 40
0
 41
0
  0
VERTEX
  8
0
 10
16.9657
 20
3.7494
 30
0.0
 40
0
 41
0
  0
VERTEX
  8
0
 10
16.9331
 20
3.71744
 30
0.0
 40
0
 41
0
  0
VERTEX
  8
0
 10
16.8882
 20
3.6971
 30
0.0
 40
0
 41
0
  0
SEQEND
 8
0
  0
POLYLINE
  8
0
 62
     0
 66
     1
 10
0
 20
0
 30
0.0
 70
     1
 40
0
 41
0
  0
VERTEX
  8
0
 10
16.6825
 20
3.9521
 30
0.0
 40
0
 41
0
  0
VERTEX
  8
0
 10
16.6825
 20
3.73639
 30
0.0
 40
0
 41
0
  0
VERTEX
  8
0
 10
16.7858
 20
3.73639
 30
0.0
 40
0
 41
0
  0
VERTEX
  8
0
 10
16.8379
 20
3.74328
 30
0.0
 40
0
 41
0
  0
VERTEX
  8
0
 10
16.8754
 20
3.76389
 30
0.0
 40
0
 41
0
  0
VERTEX
  8
0
 10
16.8982
 20
3.7979
 30
0.0
 40
0
 41
0
  0
VERTEX
  8
0
 10
16.9058
 20
3.84467
 30
0.0
 40
0
 41
0
  0
VERTEX
  8
0
 10
16.8982
 20
3.89144
 30
0.0
 40
0
 41
0
  0
VERTEX
  8
0
 10
16.8754
 20
3.92497
 30
0.0
 40
0
 41
0
  0
VERTEX
  8
0
 10
16.8379
 20
3.94532
 30
0.0
 40
0
 41
0
  0
VERTEX
  8
0
 10
16.7858
 20
3.9521
 30
0.0
 40
0
 41
0
  0
VERTEX
  8
0
 10
16.6825
 20
3.9521
 30
0.0
 40
0
 41
0
  0
SEQEND
 8
0
  0
POLYLINE
  8
0
 62
     0
 66
     1
 10
0
 20
0
 30
0.0
 70
     1
 40
0.5669
 41
0.5669
  0
VERTEX
  8
0
 10
1.63385
 20
18.1103
 30
0.0
 40
0.00787361
 41
0.00787361
  0
VERTEX
  8
0
 10
1.62918
 20
18.1332
 30
0.0
 40
0.00787361
 41
0.00787361
  0
VERTEX
  8
0
 10
1.61654
 20
18.1521
 30
0.0
 40
0.00787361
 41
0.00787361
  0
VERTEX
  8
0
 10
1.59776
 20
18.1647
 30
0.0
 40
0.00787361
 41
0.00787361
  0
VERTEX
  8
0
 10
1.57482
 20
18.1693
 30
0.0
 40
0.00787361
 41
0.00787361
  0
VERTEX
  8
0
 10
1.55181
 20
18.1647
 30
0.0
 40
0.00787361
 41
0.00787361
  0
VERTEX
  8
0
 10
1.53304
 20
18.1521
 30
0.0
 40
0.00787361
 41
0.00787361
  0
VERTEX
  8
0
 10
1.52035
 20
18.1332
 30
0.0
 40
0.00787361
 41
0.00787361
  0
VERTEX
  8
0
 10
1.51574
 20
18.1103
 30
0.0
 40
0.00787361
 41
0.00787361
  0
VERTEX
  8
0
 10
1.52035
 20
18.0874
 30
0.0
 40
0.00787361
 41
0.00787361
  0
VERTEX
  8
0
 10
1.53304
 20
18.0685
 30
0.0
 40
0.00787361
 41
0.00787361
  0
VERTEX
  8
0
 10
1.55181
 20
18.0558
 30
0.0
 40
0.00787361
 41
0.00787361
  0
VERTEX
  8
0
 10
1.57482
 20
18.0512
 30
0.0
 40
0.00787361
 41
0.00787361
  0
VERTEX
  8
0
 10
1.59776
 20
18.0558
 30
0.0
 40
0.00787361
 41
0.00787361
  0
VERTEX
  8
0
 10
1.61654
 20
18.0685
 30
0.0
 40
0.00787361
 41
0.00787361
  0
VERTEX
  8
0
 10
1.62918
 20
18.0874
 30
0.0
 40
0.00787361
 41
0.00787361
  0
VERTEX
  8
0
 10
1.63385
 20
18.1103
 30
0.0
 40
0.00787361
 41
0.00787361
  0
SEQEND
 8
0
  0
POLYLINE
  8
0
 62
     0
 66
     1
 10
0
 20
0
 30
0.0
 70
     1
 40
0.5669
 41
0.5669
  0
VERTEX
  8
0
 10
18.1693
 20
18.1103
 30
0.0
 40
0.00787361
 41
0.00787361
  0
VERTEX
  8
0
 10
18.1646
 20
18.1332
 30
0.0
 40
0.00787361
 41
0.00787361
  0
VERTEX
  8
0
 10
18.1519
 20
18.1521
 30
0.0
 40
0.00787361
 41
0.00787361
  0
VERTEX
  8
0
 10
18.1332
 20
18.1647
 30
0.0
 40
0.00787361
 41
0.00787361
  0
VERTEX
  8
0
 10
18.1103
 20
18.1693
 30
0.0
 40
0.00787361
 41
0.00787361
  0
VERTEX
  8
0
 10
18.0872
 20
18.1647
 30
0.0
 40
0.00787361
 41
0.00787361
  0
VERTEX
  8
0
 10
18.0685
 20
18.1521
 30
0.0
 40
0.00787361
 41
0.00787361
  0
VERTEX
  8
0
 10
18.0558
 20
18.1332
 30
0.0
 40
0.00787361
 41
0.00787361
  0
VERTEX
  8
0
 10
18.0511
 20
18.1103
 30
0.0
 40
0.00787361
 41
0.00787361
  0
VERTEX
  8
0
 10
18.0558
 20
18.0874
 30
0.0
 40
0.00787361
 41
0.00787361
  0
VERTEX
  8
0
 10
18.0685
 20
18.0685
 30
0.0
 40
0.00787361
 41
0.00787361
  0
VERTEX
  8
0
 10
18.0872
 20
18.0558
 30
0.0
 40
0.00787361
 41
0.00787361
  0
VERTEX
  8
0
 10
18.1103
 20
18.0512
 30
0.0
 40
0.00787361
 41
0.00787361
  0
VERTEX
  8
0
 10
18.1332
 20
18.0558
 30
0.0
 40
0.00787361
 41
0.00787361
  0
VERTEX
  8
0
 10
18.1519
 20
18.0685
 30
0.0
 40
0.00787361
 41
0.00787361
  0
VERTEX
  8
0
 10
18.1646
 20
18.0874
 30
0.0
 40
0.00787361
 41
0.00787361
  0
VERTEX
  8
0
 10
18.1693
 20
18.1103
 30
0.0
 40
0.00787361
 41
0.00787361
  0
SEQEND
 8
0
  0
POLYLINE
  8
0
 62
     0
 66
     1
 10
0
 20
0
 30
0.0
 70
     1
 40
0.5669
 41
0.5669
  0
VERTEX
  8
0
 10
18.1693
 20
1.57482
 30
0.0
 40
0.00787361
 41
0.00787361
  0
VERTEX
  8
0
 10
18.1646
 20
1.59782
 30
0.0
 40
0.00787361
 41
0.00787361
  0
VERTEX
  8
0
 10
18.1519
 20
1.6166
 30
0.0
 40
0.00787361
 41
0.00787361
  0
VERTEX
  8
0
 10
18.1332
 20
1.62929
 30
0.0
 40
0.00787361
 41
0.00787361
  0
VERTEX
  8
0
 10
18.1103
 20
1.6339
 30
0.0
 40
0.00787361
 41
0.00787361
  0
VERTEX
  8
0
 10
18.0872
 20
1.62929
 30
0.0
 40
0.00787361
 41
0.00787361
  0
VERTEX
  8
0
 10
18.0685
 20
1.6166
 30
0.0
 40
0.00787361
 41
0.00787361
  0
VERTEX
  8
0
 10
18.0558
 20
1.59782
 30
0.0
 40
0.00787361
 41
0.00787361
  0
VERTEX
  8
0
 10
18.0511
 20
1.57482
 30
0.0
 40
0.00787361
 41
0.00787361
  0
VERTEX
  8
0
 10
18.0558
 20
1.55186
 30
0.0
 40
0.00787361
 41
0.00787361
  0
VERTEX
  8
0
 10
18.0685
 20
1.5331
 30
0.0
 40
0.00787361
 41
0.00787361
  0
VERTEX
  8
0
 10
18.0872
 20
1.52046
 30
0.0
 40
0.00787361
 41
0.00787361
  0
VERTEX
  8
0
 10
18.1103
 20
1.51579
 30
0.0
 40
0.00787361
 41
0.00787361
  0
VERTEX
  8
0
 10
18.1332
 20
1.52046
 30
0.0
 40
0.00787361
 41
0.00787361
  0
VERTEX
  8
0
 10
18.1519
 20
1.5331
 30
0.0
 40
0.00787361
 41
0.00787361
  0
VERTEX
  8
0
 10
18.1646
 20
1.55186
 30
0.0
 40
0.00787361
 41
0.00787361
  0
VERTEX
  8
0
 10
18.1693
 20
1.57482
 30
0.0
 40
0.00787361
 41
0.00787361
  0
SEQEND
 8
0
  0
POLYLINE
  8
0
 62
     0
 66
     1
 10
0
 20
0
 30
0.0
 70
     1
 40
0.5669
 41
0.5669
  0
VERTEX
  8
0
 10
1.63385
 20
1.57482
 30
0.0
 40
0.00787361
 41
0.00787361
  0
VERTEX
  8
0
 10
1.62918
 20
1.59782
 30
0.0
 40
0.00787361
 41
0.00787361
  0
VERTEX
  8
0
 10
1.61654
 20
1.6166
 30
0.0
 40
0.00787361
 41
0.00787361
  0
VERTEX
  8
0
 10
1.59776
 20
1.62929
 30
0.0
 40
0.00787361
 41
0.00787361
  0
VERTEX
  8
0
 10
1.57482
 20
1.6339
 30
0.0
 40
0.00787361
 41
0.00787361
  0
VERTEX
  8
0
 10
1.55181
 20
1.62929
 30
0.0
 40
0.00787361
 41
0.00787361
  0
VERTEX
  8
0
 10
1.53304
 20
1.6166
 30
0.0
 40
0.00787361
 41
0.00787361
  0
VERTEX
  8
0
 10
1.52035
 20
1.59782
 30
0.0
 40
0.00787361
 41
0.00787361
  0
VERTEX
  8
0
 10
1.51574
 20
1.57482
 30
0.0
 40
0.00787361
 41
0.00787361
  0
VERTEX
  8
0
 10
1.52035
 20
1.55186
 30
0.0
 40
0.00787361
 41
0.00787361
  0
VERTEX
  8
0
 10
1.53304
 20
1.5331
 30
0.0
 40
0.00787361
 41
0.00787361
  0
VERTEX
  8
0
 10
1.55181
 20
1.52046
 30
0.0
 40
0.00787361
 41
0.00787361
  0
VERTEX
  8
0
 10
1.57482
 20
1.51579
 30
0.0
 40
0.00787361
 41
0.00787361
  0
VERTEX
  8
0
 10
1.59776
 20
1.52046
 30
0.0
 40
0.00787361
 41
0.00787361
  0
VERTEX
  8
0
 10
1.61654
 20
1.5331
 30
0.0
 40
0.00787361
 41
0.00787361
  0
VERTEX
  8
0
 10
1.62918
 20
1.55186
 30
0.0
 40
0.00787361
 41
0.00787361
  0
VERTEX
  8
0
 10
1.63385
 20
1.57482
 30
0.0
 40
0.00787361
 41
0.00787361
  0
SEQEND
 8
0
  0
ENDSEC
  0
EOF
