  0
SECTION
  2
HEADER
  9
$ACADVER
  1
AC1009
  9
$FILLMODE
 70
1
  9
$EXTMIN
 10
-6.5692
 20
-0.1270
 30
0.0000
  9
$EXTMAX
 10
68.7070
 20
53.4670
 30
0.0000
  0
ENDSEC
  0
SECTION
  2
TABLES
  0
TABLE
  2
LTYPE
 70
1
  0
LTYPE
  2
CONTINUOUS
 70
64
  3
Solid line
 72
65
 73
0
 40
0
  0
ENDTAB
  0
TABLE
  2
LAYER
 70
255
  0
LAYER
  2
16
 70
64
 62
174
  6
CONTINUOUS
  0
LAYER
  2
17
 70
64
 62
94
  6
CONTINUOUS
  0
LAYER
  2
18
 70
64
 62
2
  6
CONTINUOUS
  0
LAYER
  2
19
 70
64
 62
54
  6
CONTINUOUS
  0
LAYER
  2
20
 70
64
 62
178
  6
CONTINUOUS
  0
ENDTAB
  0
ENDSEC
  0
SECTION
  2
BLOCKS
  0
BLOCK
  8
0
  2
RECT
 70
64
 10
0.0000
 20
0.0000
 30
0.0000
  3
RECT
  0
SOLID
  8
0
 10
-0.5000
 20
-0.5000
 30
0.0000
 11
0.5000
 21
-0.5000
 31
0.0000
 12
-0.5000
 22
0.5000
 32
0.0000
 13
0.5000
 23
0.5000
 33
0.0000
  0
ENDBLK
  8
0
  0
BLOCK
  8
0
  2
PIE
 70
64
 10
0.0000
 20
0.0000
 30
0.0000
  3
PIE
  0
POLYLINE
  8
0
 66
1
 10
0.0000
 20
0.0000
 30
0.0000
 40
0.5000
 41
0.5000
 70
0
  0
VERTEX
  8
0
 10
0.0000
 20
-0.2500
 30
0.0000
 42
1.0000
  0
VERTEX
  8
0
 10
0.0000
 20
0.2500
 30
0.0000
 42
1.0000
  0
VERTEX
  8
0
 10
0.0000
 20
-0.2500
 30
0.0000
  0
SEQEND
  8
0
  0
ENDBLK
  8
0
  0
BLOCK
  8
0
  2
OCTAGONP
 70
64
 10
0.0000
 20
0.0000
 30
0.0000
  3
OCTAGONP
  0
POLYLINE
  8
0
 66
1
 10
0.0000
 20
0.0000
 30
0.0000
 40
0.5000
 41
0.5000
 70
0
  0
VERTEX
  8
0
 10
-0.2500
 20
-0.1036
 30
0.0000
  0
VERTEX
  8
0
 10
-0.2500
 20
0.1036
 30
0.0000
  0
VERTEX
  8
0
 10
-0.1036
 20
0.2500
 30
0.0000
  0
VERTEX
  8
0
 10
0.1036
 20
0.2500
 30
0.0000
  0
VERTEX
  8
0
 10
0.2500
 20
0.1036
 30
0.0000
  0
VERTEX
  8
0
 10
0.2500
 20
-0.1036
 30
0.0000
  0
VERTEX
  8
0
 10
0.1036
 20
-0.2500
 30
0.0000
  0
VERTEX
  8
0
 10
-0.1036
 20
-0.2500
 30
0.0000
  0
VERTEX
  8
0
 10
-0.2500
 20
-0.1036
 30
0.0000
  0
VERTEX
  8
0
 10
-0.2500
 20
0.1036
 30
0.0000
  0
SEQEND
  8
0
  0
ENDBLK
  8
0
  0
BLOCK
  8
0
  2
SQUAREP
 70
64
 10
0.0000
 20
0.0000
 30
0.0000
  3
SQUAREP
  0
SOLID
  8
0
 10
-0.5000
 20
-0.5000
 30
0.0000
 11
0.5000
 21
-0.5000
 31
0.0000
 12
-0.5000
 22
0.5000
 32
0.0000
 13
0.5000
 23
0.5000
 33
0.0000
  0
ENDBLK
  8
0
  0
BLOCK
  8
0
  2
ROUNDP
 70
64
 10
0.0000
 20
0.0000
 30
0.0000
  3
ROUNDP
  0
POLYLINE
  8
0
 66
1
 10
0.0000
 20
0.0000
 30
0.0000
 40
0.5000
 41
0.5000
 70
0
  0
VERTEX
  8
0
 10
0.0000
 20
-0.2500
 30
0.0000
 42
1.0000
  0
VERTEX
  8
0
 10
0.0000
 20
0.2500
 30
0.0000
 42
1.0000
  0
VERTEX
  8
0
 10
0.0000
 20
-0.2500
 30
0.0000
  0
SEQEND
  8
0
  0
ENDBLK
  8
0
  0
BLOCK
  8
0
  2
ANNULUSP
 70
64
 10
0.0000
 20
0.0000
 30
0.0000
  3
ANNULUSP
  0
POLYLINE
  8
0
 66
1
 10
0.0000
 20
0.0000
 30
0.0000
 40
0.5000
 41
0.5000
 70
0
  0
VERTEX
  8
0
 10
0.0000
 20
-0.2500
 30
0.0000
 42
1.0000
  0
VERTEX
  8
0
 10
0.0000
 20
0.2500
 30
0.0000
 42
1.0000
  0
VERTEX
  8
0
 10
0.0000
 20
-0.2500
 30
0.0000
  0
SEQEND
  8
0
  0
ENDBLK
  8
0
  0
BLOCK
  8
0
  2
THERMALP
 70
64
 10
0.0000
 20
0.0000
 30
0.0000
  3
THERMALP
  0
POLYLINE
  8
0
 66
1
 10
0.0000
 20
0.0000
 30
0.0000
 40
0.1000
 41
0.1000
 70
0
  0
VERTEX
  8
0
 10
-0.2379
 20
0.4500
 30
0.0000
  0
VERTEX
  8
0
 10
0.2379
 20
0.4500
 30
0.0000
  0
SEQEND
  8
0
  0
POLYLINE
  8
0
 66
1
 10
0.0000
 20
0.0000
 30
0.0000
 40
0.0500
 41
0.0500
 70
0
  0
VERTEX
  8
0
 10
0.2379
 20
0.4250
 30
0.0000
 42
1.0000
  0
VERTEX
  8
0
 10
0.2379
 20
0.4750
 30
0.0000
  0
SEQEND
  8
0
  0
POLYLINE
  8
0
 66
1
 10
0.0000
 20
0.0000
 30
0.0000
 40
0.0500
 41
0.0500
 70
0
  0
VERTEX
  8
0
 10
-0.2379
 20
0.4750
 30
0.0000
 42
1.0000
  0
VERTEX
  8
0
 10
-0.2379
 20
0.4250
 30
0.0000
  0
SEQEND
  8
0
  0
POLYLINE
  8
0
 66
1
 10
0.0000
 20
0.0000
 30
0.0000
 40
0.1000
 41
0.1000
 70
0
  0
VERTEX
  8
0
 10
0.4500
 20
0.2379
 30
0.0000
  0
VERTEX
  8
0
 10
0.4500
 20
-0.2379
 30
0.0000
  0
SEQEND
  8
0
  0
POLYLINE
  8
0
 66
1
 10
0.0000
 20
0.0000
 30
0.0000
 40
0.0500
 41
0.0500
 70
0
  0
VERTEX
  8
0
 10
0.4250
 20
-0.2379
 30
0.0000
 42
1.0000
  0
VERTEX
  8
0
 10
0.4750
 20
-0.2379
 30
0.0000
  0
SEQEND
  8
0
  0
POLYLINE
  8
0
 66
1
 10
0.0000
 20
0.0000
 30
0.0000
 40
0.0500
 41
0.0500
 70
0
  0
VERTEX
  8
0
 10
0.4750
 20
0.2379
 30
0.0000
 42
1.0000
  0
VERTEX
  8
0
 10
0.4250
 20
0.2379
 30
0.0000
  0
SEQEND
  8
0
  0
POLYLINE
  8
0
 66
1
 10
0.0000
 20
0.0000
 30
0.0000
 40
0.1000
 41
0.1000
 70
0
  0
VERTEX
  8
0
 10
0.2379
 20
-0.4500
 30
0.0000
  0
VERTEX
  8
0
 10
-0.2379
 20
-0.4500
 30
0.0000
  0
SEQEND
  8
0
  0
POLYLINE
  8
0
 66
1
 10
0.0000
 20
0.0000
 30
0.0000
 40
0.0500
 41
0.0500
 70
0
  0
VERTEX
  8
0
 10
-0.2379
 20
-0.4250
 30
0.0000
 42
1.0000
  0
VERTEX
  8
0
 10
-0.2379
 20
-0.4750
 30
0.0000
  0
SEQEND
  8
0
  0
POLYLINE
  8
0
 66
1
 10
0.0000
 20
0.0000
 30
0.0000
 40
0.0500
 41
0.0500
 70
0
  0
VERTEX
  8
0
 10
0.2379
 20
-0.4750
 30
0.0000
 42
1.0000
  0
VERTEX
  8
0
 10
0.2379
 20
-0.4250
 30
0.0000
  0
SEQEND
  8
0
  0
POLYLINE
  8
0
 66
1
 10
0.0000
 20
0.0000
 30
0.0000
 40
0.1000
 41
0.1000
 70
0
  0
VERTEX
  8
0
 10
-0.4500
 20
-0.2379
 30
0.0000
  0
VERTEX
  8
0
 10
-0.4500
 20
0.2379
 30
0.0000
  0
SEQEND
  8
0
  0
POLYLINE
  8
0
 66
1
 10
0.0000
 20
0.0000
 30
0.0000
 40
0.0500
 41
0.0500
 70
0
  0
VERTEX
  8
0
 10
-0.4250
 20
0.2379
 30
0.0000
 42
1.0000
  0
VERTEX
  8
0
 10
-0.4750
 20
0.2379
 30
0.0000
  0
SEQEND
  8
0
  0
POLYLINE
  8
0
 66
1
 10
0.0000
 20
0.0000
 30
0.0000
 40
0.0500
 41
0.0500
 70
0
  0
VERTEX
  8
0
 10
-0.4750
 20
-0.2379
 30
0.0000
 42
1.0000
  0
VERTEX
  8
0
 10
-0.4250
 20
-0.2379
 30
0.0000
  0
SEQEND
  8
0
  0
ENDBLK
  8
0
  0
BLOCK
  8
0
  2
OCTAGONV
 70
64
 10
0.0000
 20
0.0000
 30
0.0000
  3
OCTAGONV
  0
POLYLINE
  8
0
 66
1
 10
0.0000
 20
0.0000
 30
0.0000
 40
0.5000
 41
0.5000
 70
0
  0
VERTEX
  8
0
 10
-0.2500
 20
-0.1036
 30
0.0000
  0
VERTEX
  8
0
 10
-0.2500
 20
0.1036
 30
0.0000
  0
VERTEX
  8
0
 10
-0.1036
 20
0.2500
 30
0.0000
  0
VERTEX
  8
0
 10
0.1036
 20
0.2500
 30
0.0000
  0
VERTEX
  8
0
 10
0.2500
 20
0.1036
 30
0.0000
  0
VERTEX
  8
0
 10
0.2500
 20
-0.1036
 30
0.0000
  0
VERTEX
  8
0
 10
0.1036
 20
-0.2500
 30
0.0000
  0
VERTEX
  8
0
 10
-0.1036
 20
-0.2500
 30
0.0000
  0
VERTEX
  8
0
 10
-0.2500
 20
-0.1036
 30
0.0000
  0
VERTEX
  8
0
 10
-0.2500
 20
0.1036
 30
0.0000
  0
SEQEND
  8
0
  0
ENDBLK
  8
0
  0
BLOCK
  8
0
  2
SQUAREV
 70
64
 10
0.0000
 20
0.0000
 30
0.0000
  3
SQUAREV
  0
SOLID
  8
0
 10
-0.5000
 20
-0.5000
 30
0.0000
 11
0.5000
 21
-0.5000
 31
0.0000
 12
-0.5000
 22
0.5000
 32
0.0000
 13
0.5000
 23
0.5000
 33
0.0000
  0
ENDBLK
  8
0
  0
BLOCK
  8
0
  2
ROUNDV
 70
64
 10
0.0000
 20
0.0000
 30
0.0000
  3
ROUNDV
  0
POLYLINE
  8
0
 66
1
 10
0.0000
 20
0.0000
 30
0.0000
 40
0.5000
 41
0.5000
 70
0
  0
VERTEX
  8
0
 10
0.0000
 20
-0.2500
 30
0.0000
 42
1.0000
  0
VERTEX
  8
0
 10
0.0000
 20
0.2500
 30
0.0000
 42
1.0000
  0
VERTEX
  8
0
 10
0.0000
 20
-0.2500
 30
0.0000
  0
SEQEND
  8
0
  0
ENDBLK
  8
0
  0
BLOCK
  8
0
  2
ANNULUSV
 70
64
 10
0.0000
 20
0.0000
 30
0.0000
  3
ANNULUSV
  0
POLYLINE
  8
0
 66
1
 10
0.0000
 20
0.0000
 30
0.0000
 40
0.5000
 41
0.5000
 70
0
  0
VERTEX
  8
0
 10
0.0000
 20
-0.2500
 30
0.0000
 42
1.0000
  0
VERTEX
  8
0
 10
0.0000
 20
0.2500
 30
0.0000
 42
1.0000
  0
VERTEX
  8
0
 10
0.0000
 20
-0.2500
 30
0.0000
  0
SEQEND
  8
0
  0
ENDBLK
  8
0
  0
BLOCK
  8
0
  2
THERMALV
 70
64
 10
0.0000
 20
0.0000
 30
0.0000
  3
THERMALV
  0
POLYLINE
  8
0
 66
1
 10
0.0000
 20
0.0000
 30
0.0000
 40
0.1000
 41
0.1000
 70
0
  0
VERTEX
  8
0
 10
-0.2379
 20
0.4500
 30
0.0000
  0
VERTEX
  8
0
 10
0.2379
 20
0.4500
 30
0.0000
  0
SEQEND
  8
0
  0
POLYLINE
  8
0
 66
1
 10
0.0000
 20
0.0000
 30
0.0000
 40
0.0500
 41
0.0500
 70
0
  0
VERTEX
  8
0
 10
0.2379
 20
0.4250
 30
0.0000
 42
1.0000
  0
VERTEX
  8
0
 10
0.2379
 20
0.4750
 30
0.0000
  0
SEQEND
  8
0
  0
POLYLINE
  8
0
 66
1
 10
0.0000
 20
0.0000
 30
0.0000
 40
0.0500
 41
0.0500
 70
0
  0
VERTEX
  8
0
 10
-0.2379
 20
0.4750
 30
0.0000
 42
1.0000
  0
VERTEX
  8
0
 10
-0.2379
 20
0.4250
 30
0.0000
  0
SEQEND
  8
0
  0
POLYLINE
  8
0
 66
1
 10
0.0000
 20
0.0000
 30
0.0000
 40
0.1000
 41
0.1000
 70
0
  0
VERTEX
  8
0
 10
0.4500
 20
0.2379
 30
0.0000
  0
VERTEX
  8
0
 10
0.4500
 20
-0.2379
 30
0.0000
  0
SEQEND
  8
0
  0
POLYLINE
  8
0
 66
1
 10
0.0000
 20
0.0000
 30
0.0000
 40
0.0500
 41
0.0500
 70
0
  0
VERTEX
  8
0
 10
0.4250
 20
-0.2379
 30
0.0000
 42
1.0000
  0
VERTEX
  8
0
 10
0.4750
 20
-0.2379
 30
0.0000
  0
SEQEND
  8
0
  0
POLYLINE
  8
0
 66
1
 10
0.0000
 20
0.0000
 30
0.0000
 40
0.0500
 41
0.0500
 70
0
  0
VERTEX
  8
0
 10
0.4750
 20
0.2379
 30
0.0000
 42
1.0000
  0
VERTEX
  8
0
 10
0.4250
 20
0.2379
 30
0.0000
  0
SEQEND
  8
0
  0
POLYLINE
  8
0
 66
1
 10
0.0000
 20
0.0000
 30
0.0000
 40
0.1000
 41
0.1000
 70
0
  0
VERTEX
  8
0
 10
0.2379
 20
-0.4500
 30
0.0000
  0
VERTEX
  8
0
 10
-0.2379
 20
-0.4500
 30
0.0000
  0
SEQEND
  8
0
  0
POLYLINE
  8
0
 66
1
 10
0.0000
 20
0.0000
 30
0.0000
 40
0.0500
 41
0.0500
 70
0
  0
VERTEX
  8
0
 10
-0.2379
 20
-0.4250
 30
0.0000
 42
1.0000
  0
VERTEX
  8
0
 10
-0.2379
 20
-0.4750
 30
0.0000
  0
SEQEND
  8
0
  0
POLYLINE
  8
0
 66
1
 10
0.0000
 20
0.0000
 30
0.0000
 40
0.0500
 41
0.0500
 70
0
  0
VERTEX
  8
0
 10
0.2379
 20
-0.4750
 30
0.0000
 42
1.0000
  0
VERTEX
  8
0
 10
0.2379
 20
-0.4250
 30
0.0000
  0
SEQEND
  8
0
  0
POLYLINE
  8
0
 66
1
 10
0.0000
 20
0.0000
 30
0.0000
 40
0.1000
 41
0.1000
 70
0
  0
VERTEX
  8
0
 10
-0.4500
 20
-0.2379
 30
0.0000
  0
VERTEX
  8
0
 10
-0.4500
 20
0.2379
 30
0.0000
  0
SEQEND
  8
0
  0
POLYLINE
  8
0
 66
1
 10
0.0000
 20
0.0000
 30
0.0000
 40
0.0500
 41
0.0500
 70
0
  0
VERTEX
  8
0
 10
-0.4250
 20
0.2379
 30
0.0000
 42
1.0000
  0
VERTEX
  8
0
 10
-0.4750
 20
0.2379
 30
0.0000
  0
SEQEND
  8
0
  0
POLYLINE
  8
0
 66
1
 10
0.0000
 20
0.0000
 30
0.0000
 40
0.0500
 41
0.0500
 70
0
  0
VERTEX
  8
0
 10
-0.4750
 20
-0.2379
 30
0.0000
 42
1.0000
  0
VERTEX
  8
0
 10
-0.4250
 20
-0.2379
 30
0.0000
  0
SEQEND
  8
0
  0
ENDBLK
  8
0
  0
BLOCK
  8
0
  2
LONGP50
 70
64
 10
0.0000
 20
0.0000
 30
0.0000
  3
LONGP50
  0
POLYLINE
  8
0
 66
1
 10
0.0000
 20
0.0000
 30
0.0000
 40
1.0000
 41
1.0000
 70
0
  0
VERTEX
  8
0
 10
-0.2500
 20
0.0000
 30
0.0000
  0
VERTEX
  8
0
 10
0.2500
 20
0.0000
 30
0.0000
  0
SEQEND
  8
0
  0
POLYLINE
  8
0
 66
1
 10
0.0000
 20
0.0000
 30
0.0000
 40
0.5000
 41
0.5000
 70
0
  0
VERTEX
  8
0
 10
0.2500
 20
-0.2500
 30
0.0000
 42
1.0000
  0
VERTEX
  8
0
 10
0.2500
 20
0.2500
 30
0.0000
  0
SEQEND
  8
0
  0
POLYLINE
  8
0
 66
1
 10
0.0000
 20
0.0000
 30
0.0000
 40
0.5000
 41
0.5000
 70
0
  0
VERTEX
  8
0
 10
-0.2500
 20
0.2500
 30
0.0000
 42
1.0000
  0
VERTEX
  8
0
 10
-0.2500
 20
-0.2500
 30
0.0000
  0
SEQEND
  8
0
  0
ENDBLK
  8
0
  0
ENDSEC
  0
SECTION
  2
ENTITIES
  0
POLYLINE
  8
20
 66
1
 10
0.0000
 20
0.0000
 30
0.0000
 40
0.2540
 41
0.2540
 70
0
  0
VERTEX
  8
20
 10
64.5160
 20
53.3400
 30
0.0000
  0
VERTEX
  8
20
 10
66.0400
 20
51.8160
 30
0.0000
  0
SEQEND
  8
0
  0
POLYLINE
  8
20
 66
1
 10
0.0000
 20
0.0000
 30
0.0000
 40
0.1270
 41
0.1270
 70
0
  0
VERTEX
  8
20
 10
65.9951
 20
51.7711
 30
0.0000
 42
1.0000
  0
VERTEX
  8
20
 10
66.0849
 20
51.8609
 30
0.0000
  0
SEQEND
  8
0
  0
POLYLINE
  8
20
 66
1
 10
0.0000
 20
0.0000
 30
0.0000
 40
0.1270
 41
0.1270
 70
0
  0
VERTEX
  8
20
 10
64.5609
 20
53.3849
 30
0.0000
 42
1.0000
  0
VERTEX
  8
20
 10
64.4711
 20
53.2951
 30
0.0000
  0
SEQEND
  8
0
  0
POLYLINE
  8
20
 66
1
 10
0.0000
 20
0.0000
 30
0.0000
 40
0.2540
 41
0.2540
 70
0
  0
VERTEX
  8
20
 10
66.0400
 20
40.3860
 30
0.0000
  0
VERTEX
  8
20
 10
68.5800
 20
37.8460
 30
0.0000
  0
SEQEND
  8
0
  0
POLYLINE
  8
20
 66
1
 10
0.0000
 20
0.0000
 30
0.0000
 40
0.1270
 41
0.1270
 70
0
  0
VERTEX
  8
20
 10
68.5351
 20
37.8011
 30
0.0000
 42
1.0000
  0
VERTEX
  8
20
 10
68.6249
 20
37.8909
 30
0.0000
  0
SEQEND
  8
0
  0
POLYLINE
  8
20
 66
1
 10
0.0000
 20
0.0000
 30
0.0000
 40
0.1270
 41
0.1270
 70
0
  0
VERTEX
  8
20
 10
66.0849
 20
40.4309
 30
0.0000
 42
1.0000
  0
VERTEX
  8
20
 10
65.9951
 20
40.3411
 30
0.0000
  0
SEQEND
  8
0
  0
POLYLINE
  8
20
 66
1
 10
0.0000
 20
0.0000
 30
0.0000
 40
0.2540
 41
0.2540
 70
0
  0
VERTEX
  8
20
 10
68.5800
 20
37.8460
 30
0.0000
  0
VERTEX
  8
20
 10
68.5800
 20
5.0800
 30
0.0000
  0
SEQEND
  8
0
  0
POLYLINE
  8
20
 66
1
 10
0.0000
 20
0.0000
 30
0.0000
 40
0.1270
 41
0.1270
 70
0
  0
VERTEX
  8
20
 10
68.5165
 20
5.0800
 30
0.0000
 42
1.0000
  0
VERTEX
  8
20
 10
68.6435
 20
5.0800
 30
0.0000
  0
SEQEND
  8
0
  0
POLYLINE
  8
20
 66
1
 10
0.0000
 20
0.0000
 30
0.0000
 40
0.1270
 41
0.1270
 70
0
  0
VERTEX
  8
20
 10
68.6435
 20
37.8460
 30
0.0000
 42
1.0000
  0
VERTEX
  8
20
 10
68.5165
 20
37.8460
 30
0.0000
  0
SEQEND
  8
0
  0
POLYLINE
  8
20
 66
1
 10
0.0000
 20
0.0000
 30
0.0000
 40
0.2540
 41
0.2540
 70
0
  0
VERTEX
  8
20
 10
68.5800
 20
5.0800
 30
0.0000
  0
VERTEX
  8
20
 10
66.0400
 20
2.5400
 30
0.0000
  0
SEQEND
  8
0
  0
POLYLINE
  8
20
 66
1
 10
0.0000
 20
0.0000
 30
0.0000
 40
0.1270
 41
0.1270
 70
0
  0
VERTEX
  8
20
 10
65.9951
 20
2.5849
 30
0.0000
 42
1.0000
  0
VERTEX
  8
20
 10
66.0849
 20
2.4951
 30
0.0000
  0
SEQEND
  8
0
  0
POLYLINE
  8
20
 66
1
 10
0.0000
 20
0.0000
 30
0.0000
 40
0.1270
 41
0.1270
 70
0
  0
VERTEX
  8
20
 10
68.6249
 20
5.0351
 30
0.0000
 42
1.0000
  0
VERTEX
  8
20
 10
68.5351
 20
5.1249
 30
0.0000
  0
SEQEND
  8
0
  0
POLYLINE
  8
20
 66
1
 10
0.0000
 20
0.0000
 30
0.0000
 40
0.2540
 41
0.2540
 70
0
  0
VERTEX
  8
20
 10
66.0400
 20
2.5400
 30
0.0000
  0
VERTEX
  8
20
 10
66.0400
 20
1.0000
 30
0.0000
  0
SEQEND
  8
0
  0
POLYLINE
  8
20
 66
1
 10
0.0000
 20
0.0000
 30
0.0000
 40
0.1270
 41
0.1270
 70
0
  0
VERTEX
  8
20
 10
65.9765
 20
1.0000
 30
0.0000
 42
1.0000
  0
VERTEX
  8
20
 10
66.1035
 20
1.0000
 30
0.0000
  0
SEQEND
  8
0
  0
POLYLINE
  8
20
 66
1
 10
0.0000
 20
0.0000
 30
0.0000
 40
0.1270
 41
0.1270
 70
0
  0
VERTEX
  8
20
 10
66.1035
 20
2.5400
 30
0.0000
 42
1.0000
  0
VERTEX
  8
20
 10
65.9765
 20
2.5400
 30
0.0000
  0
SEQEND
  8
0
  0
POLYLINE
  8
20
 66
1
 10
0.0000
 20
0.0000
 30
0.0000
 40
0.2540
 41
0.2540
 70
0
  0
VERTEX
  8
20
 10
65.0400
 20
0.0000
 30
0.0000
 42
0.4142
  0
VERTEX
  8
20
 10
66.0400
 20
1.0000
 30
0.0000
  0
SEQEND
  8
0
  0
POLYLINE
  8
20
 66
1
 10
0.0000
 20
0.0000
 30
0.0000
 40
0.1270
 41
0.1270
 70
0
  0
VERTEX
  8
20
 10
65.0400
 20
0.0635
 30
0.0000
 42
1.0000
  0
VERTEX
  8
20
 10
65.0400
 20
-0.0635
 30
0.0000
  0
SEQEND
  8
0
  0
POLYLINE
  8
20
 66
1
 10
0.0000
 20
0.0000
 30
0.0000
 40
0.1270
 41
0.1270
 70
0
  0
VERTEX
  8
20
 10
66.1035
 20
1.0000
 30
0.0000
 42
1.0000
  0
VERTEX
  8
20
 10
65.9765
 20
1.0000
 30
0.0000
  0
SEQEND
  8
0
  0
POLYLINE
  8
20
 66
1
 10
0.0000
 20
0.0000
 30
0.0000
 40
0.2540
 41
0.2540
 70
0
  0
VERTEX
  8
20
 10
65.0400
 20
0.0000
 30
0.0000
  0
VERTEX
  8
20
 10
1.0000
 20
0.0000
 30
0.0000
  0
SEQEND
  8
0
  0
POLYLINE
  8
20
 66
1
 10
0.0000
 20
0.0000
 30
0.0000
 40
0.1270
 41
0.1270
 70
0
  0
VERTEX
  8
20
 10
1.0000
 20
0.0635
 30
0.0000
 42
1.0000
  0
VERTEX
  8
20
 10
1.0000
 20
-0.0635
 30
0.0000
  0
SEQEND
  8
0
  0
POLYLINE
  8
20
 66
1
 10
0.0000
 20
0.0000
 30
0.0000
 40
0.1270
 41
0.1270
 70
0
  0
VERTEX
  8
20
 10
65.0400
 20
-0.0635
 30
0.0000
 42
1.0000
  0
VERTEX
  8
20
 10
65.0400
 20
0.0635
 30
0.0000
  0
SEQEND
  8
0
  0
POLYLINE
  8
20
 66
1
 10
0.0000
 20
0.0000
 30
0.0000
 40
0.2540
 41
0.2540
 70
0
  0
VERTEX
  8
20
 10
0.0000
 20
1.0000
 30
0.0000
 42
0.4142
  0
VERTEX
  8
20
 10
1.0000
 20
0.0000
 30
0.0000
  0
SEQEND
  8
0
  0
POLYLINE
  8
20
 66
1
 10
0.0000
 20
0.0000
 30
0.0000
 40
0.1270
 41
0.1270
 70
0
  0
VERTEX
  8
20
 10
0.0635
 20
1.0000
 30
0.0000
 42
1.0000
  0
VERTEX
  8
20
 10
-0.0635
 20
1.0000
 30
0.0000
  0
SEQEND
  8
0
  0
POLYLINE
  8
20
 66
1
 10
0.0000
 20
0.0000
 30
0.0000
 40
0.1270
 41
0.1270
 70
0
  0
VERTEX
  8
20
 10
1.0000
 20
-0.0635
 30
0.0000
 42
1.0000
  0
VERTEX
  8
20
 10
1.0000
 20
0.0635
 30
0.0000
  0
SEQEND
  8
0
  0
POLYLINE
  8
20
 66
1
 10
0.0000
 20
0.0000
 30
0.0000
 40
0.2540
 41
0.2540
 70
0
  0
VERTEX
  8
20
 10
0.0000
 20
1.0000
 30
0.0000
  0
VERTEX
  8
20
 10
0.0000
 20
52.3400
 30
0.0000
  0
SEQEND
  8
0
  0
POLYLINE
  8
20
 66
1
 10
0.0000
 20
0.0000
 30
0.0000
 40
0.1270
 41
0.1270
 70
0
  0
VERTEX
  8
20
 10
0.0635
 20
52.3400
 30
0.0000
 42
1.0000
  0
VERTEX
  8
20
 10
-0.0635
 20
52.3400
 30
0.0000
  0
SEQEND
  8
0
  0
POLYLINE
  8
20
 66
1
 10
0.0000
 20
0.0000
 30
0.0000
 40
0.1270
 41
0.1270
 70
0
  0
VERTEX
  8
20
 10
-0.0635
 20
1.0000
 30
0.0000
 42
1.0000
  0
VERTEX
  8
20
 10
0.0635
 20
1.0000
 30
0.0000
  0
SEQEND
  8
0
  0
POLYLINE
  8
20
 66
1
 10
0.0000
 20
0.0000
 30
0.0000
 40
0.2540
 41
0.2540
 70
0
  0
VERTEX
  8
20
 10
1.0000
 20
53.3400
 30
0.0000
 42
0.4142
  0
VERTEX
  8
20
 10
0.0000
 20
52.3400
 30
0.0000
  0
SEQEND
  8
0
  0
POLYLINE
  8
20
 66
1
 10
0.0000
 20
0.0000
 30
0.0000
 40
0.1270
 41
0.1270
 70
0
  0
VERTEX
  8
20
 10
1.0000
 20
53.2765
 30
0.0000
 42
1.0000
  0
VERTEX
  8
20
 10
1.0000
 20
53.4035
 30
0.0000
  0
SEQEND
  8
0
  0
POLYLINE
  8
20
 66
1
 10
0.0000
 20
0.0000
 30
0.0000
 40
0.1270
 41
0.1270
 70
0
  0
VERTEX
  8
20
 10
-0.0635
 20
52.3400
 30
0.0000
 42
1.0000
  0
VERTEX
  8
20
 10
0.0635
 20
52.3400
 30
0.0000
  0
SEQEND
  8
0
  0
POLYLINE
  8
20
 66
1
 10
0.0000
 20
0.0000
 30
0.0000
 40
0.2540
 41
0.2540
 70
0
  0
VERTEX
  8
20
 10
1.0000
 20
53.3400
 30
0.0000
  0
VERTEX
  8
20
 10
64.5160
 20
53.3400
 30
0.0000
  0
SEQEND
  8
0
  0
POLYLINE
  8
20
 66
1
 10
0.0000
 20
0.0000
 30
0.0000
 40
0.1270
 41
0.1270
 70
0
  0
VERTEX
  8
20
 10
64.5160
 20
53.2765
 30
0.0000
 42
1.0000
  0
VERTEX
  8
20
 10
64.5160
 20
53.4035
 30
0.0000
  0
SEQEND
  8
0
  0
POLYLINE
  8
20
 66
1
 10
0.0000
 20
0.0000
 30
0.0000
 40
0.1270
 41
0.1270
 70
0
  0
VERTEX
  8
20
 10
1.0000
 20
53.4035
 30
0.0000
 42
1.0000
  0
VERTEX
  8
20
 10
1.0000
 20
53.2765
 30
0.0000
  0
SEQEND
  8
0
  0
POLYLINE
  8
20
 66
1
 10
0.0000
 20
0.0000
 30
0.0000
 40
0.2540
 41
0.2540
 70
0
  0
VERTEX
  8
20
 10
66.0400
 20
51.8160
 30
0.0000
  0
VERTEX
  8
20
 10
66.0400
 20
40.3860
 30
0.0000
  0
SEQEND
  8
0
  0
POLYLINE
  8
20
 66
1
 10
0.0000
 20
0.0000
 30
0.0000
 40
0.1270
 41
0.1270
 70
0
  0
VERTEX
  8
20
 10
65.9765
 20
40.3860
 30
0.0000
 42
1.0000
  0
VERTEX
  8
20
 10
66.1035
 20
40.3860
 30
0.0000
  0
SEQEND
  8
0
  0
POLYLINE
  8
20
 66
1
 10
0.0000
 20
0.0000
 30
0.0000
 40
0.1270
 41
0.1270
 70
0
  0
VERTEX
  8
20
 10
66.1035
 20
51.8160
 30
0.0000
 42
1.0000
  0
VERTEX
  8
20
 10
65.9765
 20
51.8160
 30
0.0000
  0
SEQEND
  8
0
  0
CIRCLE
  8
20
 10
15.2400
 20
50.8000
 30
0.0000
 40
1.6000
  0
CIRCLE
  8
20
 10
66.0400
 20
7.6200
 30
0.0000
 40
1.6000
  0
CIRCLE
  8
20
 10
66.0400
 20
35.5600
 30
0.0000
 40
1.6000
  0
INSERT
  8
17
  2
LONGP50
 10
50.8000
 20
2.5400
 30
0.0000
 41
1.5240
 42
1.5240
 43
1.0000
 50
90.0000
  0
INSERT
  8
17
  2
LONGP50
 10
53.3400
 20
2.5400
 30
0.0000
 41
1.5240
 42
1.5240
 43
1.0000
 50
90.0000
  0
INSERT
  8
17
  2
LONGP50
 10
55.8800
 20
2.5400
 30
0.0000
 41
1.5240
 42
1.5240
 43
1.0000
 50
90.0000
  0
INSERT
  8
17
  2
LONGP50
 10
58.4200
 20
2.5400
 30
0.0000
 41
1.5240
 42
1.5240
 43
1.0000
 50
90.0000
  0
INSERT
  8
17
  2
LONGP50
 10
60.9600
 20
2.5400
 30
0.0000
 41
1.5240
 42
1.5240
 43
1.0000
 50
90.0000
  0
INSERT
  8
17
  2
LONGP50
 10
63.5000
 20
2.5400
 30
0.0000
 41
1.5240
 42
1.5240
 43
1.0000
 50
90.0000
  0
INSERT
  8
17
  2
LONGP50
 10
62.3824
 20
39.9288
 30
0.0000
 41
1.3208
 42
1.3208
 43
1.0000
 50
90.0000
  0
INSERT
  8
17
  2
LONGP50
 10
62.3824
 20
29.7688
 30
0.0000
 41
1.3208
 42
1.3208
 43
1.0000
 50
90.0000
  0
INSERT
  8
17
  2
LONGP50
 10
63.5000
 20
50.8000
 30
0.0000
 41
1.4580
 42
1.4580
 43
1.0000
 50
270.0000
  0
INSERT
  8
17
  2
LONGP50
 10
60.9600
 20
50.8000
 30
0.0000
 41
1.4580
 42
1.4580
 43
1.0000
 50
270.0000
  0
INSERT
  8
17
  2
LONGP50
 10
58.4200
 20
50.8000
 30
0.0000
 41
1.4580
 42
1.4580
 43
1.0000
 50
270.0000
  0
INSERT
  8
17
  2
LONGP50
 10
55.8800
 20
50.8000
 30
0.0000
 41
1.4580
 42
1.4580
 43
1.0000
 50
270.0000
  0
INSERT
  8
17
  2
LONGP50
 10
53.3400
 20
50.8000
 30
0.0000
 41
1.4580
 42
1.4580
 43
1.0000
 50
270.0000
  0
INSERT
  8
17
  2
LONGP50
 10
50.8000
 20
50.8000
 30
0.0000
 41
1.4580
 42
1.4580
 43
1.0000
 50
270.0000
  0
INSERT
  8
17
  2
LONGP50
 10
48.2600
 20
50.8000
 30
0.0000
 41
1.4580
 42
1.4580
 43
1.0000
 50
270.0000
  0
INSERT
  8
17
  2
LONGP50
 10
45.7200
 20
50.8000
 30
0.0000
 41
1.4580
 42
1.4580
 43
1.0000
 50
270.0000
  0
INSERT
  8
17
  2
LONGP50
 10
27.9400
 20
2.5400
 30
0.0000
 41
1.4580
 42
1.4580
 43
1.0000
 50
90.0000
  0
INSERT
  8
17
  2
LONGP50
 10
30.4800
 20
2.5400
 30
0.0000
 41
1.4580
 42
1.4580
 43
1.0000
 50
90.0000
  0
INSERT
  8
17
  2
LONGP50
 10
33.0200
 20
2.5400
 30
0.0000
 41
1.4580
 42
1.4580
 43
1.0000
 50
90.0000
  0
INSERT
  8
17
  2
LONGP50
 10
35.5600
 20
2.5400
 30
0.0000
 41
1.4580
 42
1.4580
 43
1.0000
 50
90.0000
  0
INSERT
  8
17
  2
LONGP50
 10
38.1000
 20
2.5400
 30
0.0000
 41
1.4580
 42
1.4580
 43
1.0000
 50
90.0000
  0
INSERT
  8
17
  2
LONGP50
 10
40.6400
 20
2.5400
 30
0.0000
 41
1.4580
 42
1.4580
 43
1.0000
 50
90.0000
  0
INSERT
  8
17
  2
LONGP50
 10
43.1800
 20
2.5400
 30
0.0000
 41
1.4580
 42
1.4580
 43
1.0000
 50
90.0000
  0
INSERT
  8
17
  2
LONGP50
 10
45.7200
 20
2.5400
 30
0.0000
 41
1.4580
 42
1.4580
 43
1.0000
 50
90.0000
  0
INSERT
  8
17
  2
LONGP50
 10
41.6560
 20
50.8000
 30
0.0000
 41
1.4580
 42
1.4580
 43
1.0000
 50
270.0000
  0
INSERT
  8
17
  2
LONGP50
 10
39.1160
 20
50.8000
 30
0.0000
 41
1.4580
 42
1.4580
 43
1.0000
 50
270.0000
  0
INSERT
  8
17
  2
LONGP50
 10
36.5760
 20
50.8000
 30
0.0000
 41
1.4580
 42
1.4580
 43
1.0000
 50
270.0000
  0
INSERT
  8
17
  2
LONGP50
 10
34.0360
 20
50.8000
 30
0.0000
 41
1.4580
 42
1.4580
 43
1.0000
 50
270.0000
  0
INSERT
  8
17
  2
LONGP50
 10
31.4960
 20
50.8000
 30
0.0000
 41
1.4580
 42
1.4580
 43
1.0000
 50
270.0000
  0
INSERT
  8
17
  2
LONGP50
 10
28.9560
 20
50.8000
 30
0.0000
 41
1.4580
 42
1.4580
 43
1.0000
 50
270.0000
  0
INSERT
  8
17
  2
LONGP50
 10
26.4160
 20
50.8000
 30
0.0000
 41
1.4580
 42
1.4580
 43
1.0000
 50
270.0000
  0
INSERT
  8
17
  2
LONGP50
 10
23.8760
 20
50.8000
 30
0.0000
 41
1.4580
 42
1.4580
 43
1.0000
 50
270.0000
  0
INSERT
  8
17
  2
LONGP50
 10
21.3360
 20
50.8000
 30
0.0000
 41
1.4580
 42
1.4580
 43
1.0000
 50
270.0000
  0
INSERT
  8
17
  2
LONGP50
 10
18.7960
 20
50.8000
 30
0.0000
 41
1.4580
 42
1.4580
 43
1.0000
 50
270.0000
  0
INSERT
  8
17
  2
LONGP50
 10
41.6560
 20
48.2600
 30
0.0000
 41
1.4580
 42
1.4580
 43
1.0000
 50
270.0000
  0
INSERT
  8
17
  2
LONGP50
 10
39.1160
 20
48.2600
 30
0.0000
 41
1.4580
 42
1.4580
 43
1.0000
 50
270.0000
  0
INSERT
  8
17
  2
LONGP50
 10
36.5760
 20
48.2600
 30
0.0000
 41
1.4580
 42
1.4580
 43
1.0000
 50
270.0000
  0
INSERT
  8
17
  2
LONGP50
 10
34.0360
 20
48.2600
 30
0.0000
 41
1.4580
 42
1.4580
 43
1.0000
 50
270.0000
  0
INSERT
  8
17
  2
LONGP50
 10
31.4960
 20
48.2600
 30
0.0000
 41
1.4580
 42
1.4580
 43
1.0000
 50
270.0000
  0
INSERT
  8
17
  2
LONGP50
 10
28.9560
 20
48.2600
 30
0.0000
 41
1.4580
 42
1.4580
 43
1.0000
 50
270.0000
  0
INSERT
  8
17
  2
LONGP50
 10
26.4160
 20
48.2600
 30
0.0000
 41
1.4580
 42
1.4580
 43
1.0000
 50
270.0000
  0
INSERT
  8
17
  2
LONGP50
 10
23.8760
 20
48.2600
 30
0.0000
 41
1.4580
 42
1.4580
 43
1.0000
 50
270.0000
  0
INSERT
  8
17
  2
LONGP50
 10
21.3360
 20
48.2600
 30
0.0000
 41
1.4580
 42
1.4580
 43
1.0000
 50
270.0000
  0
INSERT
  8
17
  2
LONGP50
 10
18.7960
 20
48.2600
 30
0.0000
 41
1.4580
 42
1.4580
 43
1.0000
 50
270.0000
  0
INSERT
  8
17
  2
LONGP50
 10
63.5000
 20
48.2600
 30
0.0000
 41
1.4580
 42
1.4580
 43
1.0000
 50
270.0000
  0
INSERT
  8
17
  2
LONGP50
 10
60.9600
 20
48.2600
 30
0.0000
 41
1.4580
 42
1.4580
 43
1.0000
 50
270.0000
  0
INSERT
  8
17
  2
LONGP50
 10
58.4200
 20
48.2600
 30
0.0000
 41
1.4580
 42
1.4580
 43
1.0000
 50
270.0000
  0
INSERT
  8
17
  2
LONGP50
 10
55.8800
 20
48.2600
 30
0.0000
 41
1.4580
 42
1.4580
 43
1.0000
 50
270.0000
  0
INSERT
  8
17
  2
LONGP50
 10
53.3400
 20
48.2600
 30
0.0000
 41
1.4580
 42
1.4580
 43
1.0000
 50
270.0000
  0
INSERT
  8
17
  2
LONGP50
 10
50.8000
 20
48.2600
 30
0.0000
 41
1.4580
 42
1.4580
 43
1.0000
 50
270.0000
  0
INSERT
  8
17
  2
LONGP50
 10
48.2600
 20
48.2600
 30
0.0000
 41
1.4580
 42
1.4580
 43
1.0000
 50
270.0000
  0
INSERT
  8
17
  2
LONGP50
 10
45.7200
 20
48.2600
 30
0.0000
 41
1.4580
 42
1.4580
 43
1.0000
 50
270.0000
  0
INSERT
  8
17
  2
LONGP50
 10
50.8000
 20
5.0800
 30
0.0000
 41
1.5240
 42
1.5240
 43
1.0000
 50
90.0000
  0
INSERT
  8
17
  2
LONGP50
 10
53.3400
 20
5.0800
 30
0.0000
 41
1.5240
 42
1.5240
 43
1.0000
 50
90.0000
  0
INSERT
  8
17
  2
LONGP50
 10
55.8800
 20
5.0800
 30
0.0000
 41
1.5240
 42
1.5240
 43
1.0000
 50
90.0000
  0
INSERT
  8
17
  2
LONGP50
 10
58.4200
 20
5.0800
 30
0.0000
 41
1.5240
 42
1.5240
 43
1.0000
 50
90.0000
  0
INSERT
  8
17
  2
LONGP50
 10
60.9600
 20
5.0800
 30
0.0000
 41
1.5240
 42
1.5240
 43
1.0000
 50
90.0000
  0
INSERT
  8
17
  2
LONGP50
 10
63.5000
 20
5.0800
 30
0.0000
 41
1.5240
 42
1.5240
 43
1.0000
 50
90.0000
  0
INSERT
  8
17
  2
LONGP50
 10
60.4520
 20
16.4592
 30
0.0000
 41
1.5240
 42
1.5240
 43
1.0000
 50
180.0000
  0
INSERT
  8
17
  2
LONGP50
 10
60.4520
 20
13.9192
 30
0.0000
 41
1.5240
 42
1.5240
 43
1.0000
 50
180.0000
  0
INSERT
  8
17
  2
LONGP50
 10
60.4520
 20
11.3792
 30
0.0000
 41
1.5240
 42
1.5240
 43
1.0000
 50
180.0000
  0
INSERT
  8
17
  2
LONGP50
 10
23.7744
 20
13.2588
 30
0.0000
 41
1.5240
 42
1.5240
 43
1.0000
 50
0.0000
  0
INSERT
  8
17
  2
LONGP50
 10
23.7744
 20
15.7988
 30
0.0000
 41
1.5240
 42
1.5240
 43
1.0000
 50
0.0000
  0
INSERT
  8
17
  2
LONGP50
 10
17.7800
 20
22.4536
 30
0.0000
 41
1.5240
 42
1.5240
 43
1.0000
 50
90.0000
  0
INSERT
  8
17
  2
LONGP50
 10
15.2400
 20
22.4536
 30
0.0000
 41
1.5240
 42
1.5240
 43
1.0000
 50
90.0000
  0
INSERT
  8
17
  2
LONGP50
 10
12.7000
 20
22.4536
 30
0.0000
 41
1.5240
 42
1.5240
 43
1.0000
 50
90.0000
  0
INSERT
  8
17
  2
LONGP50
 10
10.1600
 20
22.4536
 30
0.0000
 41
1.5240
 42
1.5240
 43
1.0000
 50
90.0000
  0
INSERT
  8
17
  2
LONGP50
 10
41.9100
 20
22.4536
 30
0.0000
 41
1.5240
 42
1.5240
 43
1.0000
 50
90.0000
  0
INSERT
  8
17
  2
LONGP50
 10
39.3700
 20
22.4536
 30
0.0000
 41
1.5240
 42
1.5240
 43
1.0000
 50
90.0000
  0
INSERT
  8
17
  2
LONGP50
 10
36.8300
 20
22.4536
 30
0.0000
 41
1.5240
 42
1.5240
 43
1.0000
 50
90.0000
  0
INSERT
  8
17
  2
LONGP50
 10
34.2900
 20
22.4536
 30
0.0000
 41
1.5240
 42
1.5240
 43
1.0000
 50
90.0000
  0
INSERT
  8
17
  2
LONGP50
 10
51.3080
 20
16.3576
 30
0.0000
 41
1.5240
 42
1.5240
 43
1.0000
 50
180.0000
  0
INSERT
  8
17
  2
LONGP50
 10
51.3080
 20
13.8176
 30
0.0000
 41
1.5240
 42
1.5240
 43
1.0000
 50
180.0000
  0
INSERT
  8
17
  2
LONGP50
 10
51.3080
 20
11.2776
 30
0.0000
 41
1.5240
 42
1.5240
 43
1.0000
 50
180.0000
  0
INSERT
  8
17
  2
ROUNDP
 10
51.5620
 20
31.1404
 30
0.0000
 41
1.6000
 42
1.6000
 43
1.0000
 50
270.0000
  0
INSERT
  8
17
  2
ROUNDP
 10
51.5620
 20
26.0604
 30
0.0000
 41
1.6000
 42
1.6000
 43
1.0000
 50
270.0000
  0
INSERT
  8
17
  2
ROUNDP
 10
51.5620
 20
20.9804
 30
0.0000
 41
1.6000
 42
1.6000
 43
1.0000
 50
270.0000
  0
INSERT
  8
17
  2
ROUNDP
 10
59.1820
 20
31.1404
 30
0.0000
 41
1.6000
 42
1.6000
 43
1.0000
 50
270.0000
  0
INSERT
  8
17
  2
ROUNDP
 10
59.1820
 20
26.0604
 30
0.0000
 41
1.6000
 42
1.6000
 43
1.0000
 50
270.0000
  0
INSERT
  8
17
  2
ROUNDP
 10
59.1820
 20
20.9804
 30
0.0000
 41
1.6000
 42
1.6000
 43
1.0000
 50
270.0000
  0
INSERT
  8
17
  2
ROUNDP
 10
51.5620
 20
38.7604
 30
0.0000
 41
1.6000
 42
1.6000
 43
1.0000
 50
270.0000
  0
INSERT
  8
17
  2
ROUNDP
 10
59.1820
 20
38.7604
 30
0.0000
 41
1.6000
 42
1.6000
 43
1.0000
 50
270.0000
  0
INSERT
  8
17
  2
LONGP50
 10
27.9400
 20
5.0800
 30
0.0000
 41
1.4580
 42
1.4580
 43
1.0000
 50
90.0000
  0
INSERT
  8
17
  2
LONGP50
 10
30.4800
 20
5.0800
 30
0.0000
 41
1.4580
 42
1.4580
 43
1.0000
 50
90.0000
  0
INSERT
  8
17
  2
LONGP50
 10
33.0200
 20
5.0800
 30
0.0000
 41
1.4580
 42
1.4580
 43
1.0000
 50
90.0000
  0
INSERT
  8
17
  2
LONGP50
 10
35.5600
 20
5.0800
 30
0.0000
 41
1.4580
 42
1.4580
 43
1.0000
 50
90.0000
  0
INSERT
  8
17
  2
LONGP50
 10
38.1000
 20
5.0800
 30
0.0000
 41
1.4580
 42
1.4580
 43
1.0000
 50
90.0000
  0
INSERT
  8
17
  2
LONGP50
 10
40.6400
 20
5.0800
 30
0.0000
 41
1.4580
 42
1.4580
 43
1.0000
 50
90.0000
  0
INSERT
  8
17
  2
LONGP50
 10
43.1800
 20
5.0800
 30
0.0000
 41
1.4580
 42
1.4580
 43
1.0000
 50
90.0000
  0
INSERT
  8
17
  2
LONGP50
 10
45.7200
 20
5.0800
 30
0.0000
 41
1.4580
 42
1.4580
 43
1.0000
 50
90.0000
  0
INSERT
  8
17
  2
OCTAGONP
 10
46.2280
 20
11.0744
 30
0.0000
 41
1.3208
 42
1.3208
 43
1.0000
 50
90.0000
  0
INSERT
  8
17
  2
OCTAGONP
 10
46.2280
 20
21.2344
 30
0.0000
 41
1.3208
 42
1.3208
 43
1.0000
 50
90.0000
  0
INSERT
  8
17
  2
OCTAGONP
 10
60.9092
 20
42.8752
 30
0.0000
 41
1.3208
 42
1.3208
 43
1.0000
 50
0.0000
  0
INSERT
  8
17
  2
OCTAGONP
 10
59.6392
 20
44.7802
 30
0.0000
 41
1.3208
 42
1.3208
 43
1.0000
 50
0.0000
  0
INSERT
  8
17
  2
OCTAGONP
 10
58.3692
 20
42.8752
 30
0.0000
 41
1.3208
 42
1.3208
 43
1.0000
 50
0.0000
  0
INSERT
  8
17
  2
LONGP50
 10
12.7000
 20
28.2956
 30
0.0000
 41
1.3080
 42
1.3080
 43
1.0000
 50
270.0000
  0
INSERT
  8
17
  2
LONGP50
 10
10.1600
 20
28.2956
 30
0.0000
 41
1.3080
 42
1.3080
 43
1.0000
 50
270.0000
  0
INSERT
  8
17
  2
LONGP50
 10
15.2400
 20
28.2956
 30
0.0000
 41
1.3080
 42
1.3080
 43
1.0000
 50
270.0000
  0
INSERT
  8
17
  2
LONGP50
 10
17.7800
 20
28.2956
 30
0.0000
 41
1.3080
 42
1.3080
 43
1.0000
 50
270.0000
  0
INSERT
  8
17
  2
LONGP50
 10
5.0800
 20
28.2956
 30
0.0000
 41
1.3080
 42
1.3080
 43
1.0000
 50
270.0000
  0
INSERT
  8
17
  2
LONGP50
 10
5.0800
 20
40.9956
 30
0.0000
 41
1.3080
 42
1.3080
 43
1.0000
 50
270.0000
  0
INSERT
  8
17
  2
LONGP50
 10
22.8600
 20
40.9956
 30
0.0000
 41
1.3080
 42
1.3080
 43
1.0000
 50
270.0000
  0
INSERT
  8
17
  2
LONGP50
 10
20.3200
 20
28.2956
 30
0.0000
 41
1.3080
 42
1.3080
 43
1.0000
 50
270.0000
  0
INSERT
  8
17
  2
LONGP50
 10
20.3200
 20
40.9956
 30
0.0000
 41
1.3080
 42
1.3080
 43
1.0000
 50
270.0000
  0
INSERT
  8
17
  2
LONGP50
 10
17.7800
 20
40.9956
 30
0.0000
 41
1.3080
 42
1.3080
 43
1.0000
 50
270.0000
  0
INSERT
  8
17
  2
LONGP50
 10
15.2400
 20
40.9956
 30
0.0000
 41
1.3080
 42
1.3080
 43
1.0000
 50
270.0000
  0
INSERT
  8
17
  2
LONGP50
 10
12.7000
 20
40.9956
 30
0.0000
 41
1.3080
 42
1.3080
 43
1.0000
 50
270.0000
  0
INSERT
  8
17
  2
LONGP50
 10
10.1600
 20
40.9956
 30
0.0000
 41
1.3080
 42
1.3080
 43
1.0000
 50
270.0000
  0
INSERT
  8
17
  2
LONGP50
 10
7.6200
 20
40.9956
 30
0.0000
 41
1.3080
 42
1.3080
 43
1.0000
 50
270.0000
  0
INSERT
  8
17
  2
LONGP50
 10
7.6200
 20
28.2956
 30
0.0000
 41
1.3080
 42
1.3080
 43
1.0000
 50
270.0000
  0
INSERT
  8
17
  2
LONGP50
 10
22.8600
 20
28.2956
 30
0.0000
 41
1.3080
 42
1.3080
 43
1.0000
 50
270.0000
  0
INSERT
  8
17
  2
LONGP50
 10
36.8300
 20
28.2956
 30
0.0000
 41
1.3080
 42
1.3080
 43
1.0000
 50
270.0000
  0
INSERT
  8
17
  2
LONGP50
 10
34.2900
 20
28.2956
 30
0.0000
 41
1.3080
 42
1.3080
 43
1.0000
 50
270.0000
  0
INSERT
  8
17
  2
LONGP50
 10
39.3700
 20
28.2956
 30
0.0000
 41
1.3080
 42
1.3080
 43
1.0000
 50
270.0000
  0
INSERT
  8
17
  2
LONGP50
 10
41.9100
 20
28.2956
 30
0.0000
 41
1.3080
 42
1.3080
 43
1.0000
 50
270.0000
  0
INSERT
  8
17
  2
LONGP50
 10
29.2100
 20
28.2956
 30
0.0000
 41
1.3080
 42
1.3080
 43
1.0000
 50
270.0000
  0
INSERT
  8
17
  2
LONGP50
 10
29.2100
 20
40.9956
 30
0.0000
 41
1.3080
 42
1.3080
 43
1.0000
 50
270.0000
  0
INSERT
  8
17
  2
LONGP50
 10
46.9900
 20
40.9956
 30
0.0000
 41
1.3080
 42
1.3080
 43
1.0000
 50
270.0000
  0
INSERT
  8
17
  2
LONGP50
 10
44.4500
 20
28.2956
 30
0.0000
 41
1.3080
 42
1.3080
 43
1.0000
 50
270.0000
  0
INSERT
  8
17
  2
LONGP50
 10
44.4500
 20
40.9956
 30
0.0000
 41
1.3080
 42
1.3080
 43
1.0000
 50
270.0000
  0
INSERT
  8
17
  2
LONGP50
 10
41.9100
 20
40.9956
 30
0.0000
 41
1.3080
 42
1.3080
 43
1.0000
 50
270.0000
  0
INSERT
  8
17
  2
LONGP50
 10
39.3700
 20
40.9956
 30
0.0000
 41
1.3080
 42
1.3080
 43
1.0000
 50
270.0000
  0
INSERT
  8
17
  2
LONGP50
 10
36.8300
 20
40.9956
 30
0.0000
 41
1.3080
 42
1.3080
 43
1.0000
 50
270.0000
  0
INSERT
  8
17
  2
LONGP50
 10
34.2900
 20
40.9956
 30
0.0000
 41
1.3080
 42
1.3080
 43
1.0000
 50
270.0000
  0
INSERT
  8
17
  2
LONGP50
 10
31.7500
 20
40.9956
 30
0.0000
 41
1.3080
 42
1.3080
 43
1.0000
 50
270.0000
  0
INSERT
  8
17
  2
LONGP50
 10
31.7500
 20
28.2956
 30
0.0000
 41
1.3080
 42
1.3080
 43
1.0000
 50
270.0000
  0
INSERT
  8
17
  2
LONGP50
 10
46.9900
 20
28.2956
 30
0.0000
 41
1.3080
 42
1.3080
 43
1.0000
 50
270.0000
  0
POLYLINE
  8
16
 66
1
 10
0.0000
 20
0.0000
 30
0.0000
 40
0.6096
 41
0.6096
 70
0
  0
VERTEX
  8
16
 10
45.7200
 20
2.5400
 30
0.0000
  0
VERTEX
  8
16
 10
45.7200
 20
5.0800
 30
0.0000
  0
SEQEND
  8
0
  0
POLYLINE
  8
16
 66
1
 10
0.0000
 20
0.0000
 30
0.0000
 40
0.3048
 41
0.3048
 70
0
  0
VERTEX
  8
16
 10
45.8724
 20
5.0800
 30
0.0000
 42
1.0000
  0
VERTEX
  8
16
 10
45.5676
 20
5.0800
 30
0.0000
  0
SEQEND
  8
0
  0
POLYLINE
  8
16
 66
1
 10
0.0000
 20
0.0000
 30
0.0000
 40
0.3048
 41
0.3048
 70
0
  0
VERTEX
  8
16
 10
45.5676
 20
2.5400
 30
0.0000
 42
1.0000
  0
VERTEX
  8
16
 10
45.8724
 20
2.5400
 30
0.0000
  0
SEQEND
  8
0
  0
POLYLINE
  8
16
 66
1
 10
0.0000
 20
0.0000
 30
0.0000
 40
0.6096
 41
0.6096
 70
0
  0
VERTEX
  8
16
 10
28.9560
 20
48.2600
 30
0.0000
  0
VERTEX
  8
16
 10
28.9560
 20
50.8000
 30
0.0000
  0
SEQEND
  8
0
  0
POLYLINE
  8
16
 66
1
 10
0.0000
 20
0.0000
 30
0.0000
 40
0.3048
 41
0.3048
 70
0
  0
VERTEX
  8
16
 10
29.1084
 20
50.8000
 30
0.0000
 42
1.0000
  0
VERTEX
  8
16
 10
28.8036
 20
50.8000
 30
0.0000
  0
SEQEND
  8
0
  0
POLYLINE
  8
16
 66
1
 10
0.0000
 20
0.0000
 30
0.0000
 40
0.3048
 41
0.3048
 70
0
  0
VERTEX
  8
16
 10
28.8036
 20
48.2600
 30
0.0000
 42
1.0000
  0
VERTEX
  8
16
 10
29.1084
 20
48.2600
 30
0.0000
  0
SEQEND
  8
0
  0
POLYLINE
  8
16
 66
1
 10
0.0000
 20
0.0000
 30
0.0000
 40
0.4064
 41
0.4064
 70
0
  0
VERTEX
  8
16
 10
28.9560
 20
48.2600
 30
0.0000
  0
VERTEX
  8
16
 10
28.9560
 20
46.9392
 30
0.0000
  0
SEQEND
  8
0
  0
POLYLINE
  8
16
 66
1
 10
0.0000
 20
0.0000
 30
0.0000
 40
0.2032
 41
0.2032
 70
0
  0
VERTEX
  8
16
 10
28.8544
 20
46.9392
 30
0.0000
 42
1.0000
  0
VERTEX
  8
16
 10
29.0576
 20
46.9392
 30
0.0000
  0
SEQEND
  8
0
  0
POLYLINE
  8
16
 66
1
 10
0.0000
 20
0.0000
 30
0.0000
 40
0.2032
 41
0.2032
 70
0
  0
VERTEX
  8
16
 10
29.0576
 20
48.2600
 30
0.0000
 42
1.0000
  0
VERTEX
  8
16
 10
28.8544
 20
48.2600
 30
0.0000
  0
SEQEND
  8
0
  0
POLYLINE
  8
16
 66
1
 10
0.0000
 20
0.0000
 30
0.0000
 40
0.4064
 41
0.4064
 70
0
  0
VERTEX
  8
16
 10
28.9560
 20
46.9392
 30
0.0000
  0
VERTEX
  8
16
 10
28.3464
 20
46.3296
 30
0.0000
  0
SEQEND
  8
0
  0
POLYLINE
  8
16
 66
1
 10
0.0000
 20
0.0000
 30
0.0000
 40
0.2032
 41
0.2032
 70
0
  0
VERTEX
  8
16
 10
28.2746
 20
46.4014
 30
0.0000
 42
1.0000
  0
VERTEX
  8
16
 10
28.4182
 20
46.2578
 30
0.0000
  0
SEQEND
  8
0
  0
POLYLINE
  8
16
 66
1
 10
0.0000
 20
0.0000
 30
0.0000
 40
0.2032
 41
0.2032
 70
0
  0
VERTEX
  8
16
 10
29.0278
 20
46.8674
 30
0.0000
 42
1.0000
  0
VERTEX
  8
16
 10
28.8842
 20
47.0110
 30
0.0000
  0
SEQEND
  8
0
  0
POLYLINE
  8
16
 66
1
 10
0.0000
 20
0.0000
 30
0.0000
 40
0.4064
 41
0.4064
 70
0
  0
VERTEX
  8
16
 10
28.3464
 20
46.3296
 30
0.0000
  0
VERTEX
  8
16
 10
6.4008
 20
46.3296
 30
0.0000
  0
SEQEND
  8
0
  0
POLYLINE
  8
16
 66
1
 10
0.0000
 20
0.0000
 30
0.0000
 40
0.2032
 41
0.2032
 70
0
  0
VERTEX
  8
16
 10
6.4008
 20
46.4312
 30
0.0000
 42
1.0000
  0
VERTEX
  8
16
 10
6.4008
 20
46.2280
 30
0.0000
  0
SEQEND
  8
0
  0
POLYLINE
  8
16
 66
1
 10
0.0000
 20
0.0000
 30
0.0000
 40
0.2032
 41
0.2032
 70
0
  0
VERTEX
  8
16
 10
28.3464
 20
46.2280
 30
0.0000
 42
1.0000
  0
VERTEX
  8
16
 10
28.3464
 20
46.4312
 30
0.0000
  0
SEQEND
  8
0
  0
POLYLINE
  8
16
 66
1
 10
0.0000
 20
0.0000
 30
0.0000
 40
0.4064
 41
0.4064
 70
0
  0
VERTEX
  8
16
 10
6.4008
 20
46.3296
 30
0.0000
  0
VERTEX
  8
16
 10
5.0800
 20
45.0088
 30
0.0000
  0
SEQEND
  8
0
  0
POLYLINE
  8
16
 66
1
 10
0.0000
 20
0.0000
 30
0.0000
 40
0.2032
 41
0.2032
 70
0
  0
VERTEX
  8
16
 10
5.0082
 20
45.0806
 30
0.0000
 42
1.0000
  0
VERTEX
  8
16
 10
5.1518
 20
44.9370
 30
0.0000
  0
SEQEND
  8
0
  0
POLYLINE
  8
16
 66
1
 10
0.0000
 20
0.0000
 30
0.0000
 40
0.2032
 41
0.2032
 70
0
  0
VERTEX
  8
16
 10
6.4726
 20
46.2578
 30
0.0000
 42
1.0000
  0
VERTEX
  8
16
 10
6.3290
 20
46.4014
 30
0.0000
  0
SEQEND
  8
0
  0
POLYLINE
  8
16
 66
1
 10
0.0000
 20
0.0000
 30
0.0000
 40
0.4064
 41
0.4064
 70
0
  0
VERTEX
  8
16
 10
5.0800
 20
40.9956
 30
0.0000
  0
VERTEX
  8
16
 10
5.0800
 20
45.0088
 30
0.0000
  0
SEQEND
  8
0
  0
POLYLINE
  8
16
 66
1
 10
0.0000
 20
0.0000
 30
0.0000
 40
0.2032
 41
0.2032
 70
0
  0
VERTEX
  8
16
 10
5.1816
 20
45.0088
 30
0.0000
 42
1.0000
  0
VERTEX
  8
16
 10
4.9784
 20
45.0088
 30
0.0000
  0
SEQEND
  8
0
  0
POLYLINE
  8
16
 66
1
 10
0.0000
 20
0.0000
 30
0.0000
 40
0.2032
 41
0.2032
 70
0
  0
VERTEX
  8
16
 10
4.9784
 20
40.9956
 30
0.0000
 42
1.0000
  0
VERTEX
  8
16
 10
5.1816
 20
40.9956
 30
0.0000
  0
SEQEND
  8
0
  0
LINE
  8
19
 10
58.4200
 20
48.2600
 30
0.0000
 11
58.4200
 21
50.8000
 31
0.0000
  0
LINE
  8
19
 10
55.8800
 20
48.2600
 30
0.0000
 11
55.8800
 21
50.8000
 31
0.0000
  0
POLYLINE
  8
16
 66
1
 10
0.0000
 20
0.0000
 30
0.0000
 40
0.6096
 41
0.6096
 70
0
  0
VERTEX
  8
16
 10
31.4960
 20
48.2600
 30
0.0000
  0
VERTEX
  8
16
 10
31.4960
 20
50.8000
 30
0.0000
  0
SEQEND
  8
0
  0
POLYLINE
  8
16
 66
1
 10
0.0000
 20
0.0000
 30
0.0000
 40
0.3048
 41
0.3048
 70
0
  0
VERTEX
  8
16
 10
31.6484
 20
50.8000
 30
0.0000
 42
1.0000
  0
VERTEX
  8
16
 10
31.3436
 20
50.8000
 30
0.0000
  0
SEQEND
  8
0
  0
POLYLINE
  8
16
 66
1
 10
0.0000
 20
0.0000
 30
0.0000
 40
0.3048
 41
0.3048
 70
0
  0
VERTEX
  8
16
 10
31.3436
 20
48.2600
 30
0.0000
 42
1.0000
  0
VERTEX
  8
16
 10
31.6484
 20
48.2600
 30
0.0000
  0
SEQEND
  8
0
  0
POLYLINE
  8
16
 66
1
 10
0.0000
 20
0.0000
 30
0.0000
 40
0.4064
 41
0.4064
 70
0
  0
VERTEX
  8
16
 10
31.4960
 20
48.2600
 30
0.0000
  0
VERTEX
  8
16
 10
31.4960
 20
47.9552
 30
0.0000
  0
SEQEND
  8
0
  0
POLYLINE
  8
16
 66
1
 10
0.0000
 20
0.0000
 30
0.0000
 40
0.2032
 41
0.2032
 70
0
  0
VERTEX
  8
16
 10
31.3944
 20
47.9552
 30
0.0000
 42
1.0000
  0
VERTEX
  8
16
 10
31.5976
 20
47.9552
 30
0.0000
  0
SEQEND
  8
0
  0
POLYLINE
  8
16
 66
1
 10
0.0000
 20
0.0000
 30
0.0000
 40
0.2032
 41
0.2032
 70
0
  0
VERTEX
  8
16
 10
31.5976
 20
48.2600
 30
0.0000
 42
1.0000
  0
VERTEX
  8
16
 10
31.3944
 20
48.2600
 30
0.0000
  0
SEQEND
  8
0
  0
POLYLINE
  8
16
 66
1
 10
0.0000
 20
0.0000
 30
0.0000
 40
0.4064
 41
0.4064
 70
0
  0
VERTEX
  8
16
 10
31.4960
 20
47.9552
 30
0.0000
  0
VERTEX
  8
16
 10
28.9560
 20
45.4152
 30
0.0000
  0
SEQEND
  8
0
  0
POLYLINE
  8
16
 66
1
 10
0.0000
 20
0.0000
 30
0.0000
 40
0.2032
 41
0.2032
 70
0
  0
VERTEX
  8
16
 10
28.8842
 20
45.4870
 30
0.0000
 42
1.0000
  0
VERTEX
  8
16
 10
29.0278
 20
45.3434
 30
0.0000
  0
SEQEND
  8
0
  0
POLYLINE
  8
16
 66
1
 10
0.0000
 20
0.0000
 30
0.0000
 40
0.2032
 41
0.2032
 70
0
  0
VERTEX
  8
16
 10
31.5678
 20
47.8834
 30
0.0000
 42
1.0000
  0
VERTEX
  8
16
 10
31.4242
 20
48.0270
 30
0.0000
  0
SEQEND
  8
0
  0
POLYLINE
  8
16
 66
1
 10
0.0000
 20
0.0000
 30
0.0000
 40
0.4064
 41
0.4064
 70
0
  0
VERTEX
  8
16
 10
28.9560
 20
45.4152
 30
0.0000
  0
VERTEX
  8
16
 10
8.2296
 20
45.4152
 30
0.0000
  0
SEQEND
  8
0
  0
POLYLINE
  8
16
 66
1
 10
0.0000
 20
0.0000
 30
0.0000
 40
0.2032
 41
0.2032
 70
0
  0
VERTEX
  8
16
 10
8.2296
 20
45.5168
 30
0.0000
 42
1.0000
  0
VERTEX
  8
16
 10
8.2296
 20
45.3136
 30
0.0000
  0
SEQEND
  8
0
  0
POLYLINE
  8
16
 66
1
 10
0.0000
 20
0.0000
 30
0.0000
 40
0.2032
 41
0.2032
 70
0
  0
VERTEX
  8
16
 10
28.9560
 20
45.3136
 30
0.0000
 42
1.0000
  0
VERTEX
  8
16
 10
28.9560
 20
45.5168
 30
0.0000
  0
SEQEND
  8
0
  0
POLYLINE
  8
16
 66
1
 10
0.0000
 20
0.0000
 30
0.0000
 40
0.4064
 41
0.4064
 70
0
  0
VERTEX
  8
16
 10
8.2296
 20
45.4152
 30
0.0000
  0
VERTEX
  8
16
 10
7.6200
 20
44.8056
 30
0.0000
  0
SEQEND
  8
0
  0
POLYLINE
  8
16
 66
1
 10
0.0000
 20
0.0000
 30
0.0000
 40
0.2032
 41
0.2032
 70
0
  0
VERTEX
  8
16
 10
7.5482
 20
44.8774
 30
0.0000
 42
1.0000
  0
VERTEX
  8
16
 10
7.6918
 20
44.7338
 30
0.0000
  0
SEQEND
  8
0
  0
POLYLINE
  8
16
 66
1
 10
0.0000
 20
0.0000
 30
0.0000
 40
0.2032
 41
0.2032
 70
0
  0
VERTEX
  8
16
 10
8.3014
 20
45.3434
 30
0.0000
 42
1.0000
  0
VERTEX
  8
16
 10
8.1578
 20
45.4870
 30
0.0000
  0
SEQEND
  8
0
  0
POLYLINE
  8
16
 66
1
 10
0.0000
 20
0.0000
 30
0.0000
 40
0.4064
 41
0.4064
 70
0
  0
VERTEX
  8
16
 10
7.6200
 20
44.8056
 30
0.0000
  0
VERTEX
  8
16
 10
7.6200
 20
40.9956
 30
0.0000
  0
SEQEND
  8
0
  0
POLYLINE
  8
16
 66
1
 10
0.0000
 20
0.0000
 30
0.0000
 40
0.2032
 41
0.2032
 70
0
  0
VERTEX
  8
16
 10
7.5184
 20
40.9956
 30
0.0000
 42
1.0000
  0
VERTEX
  8
16
 10
7.7216
 20
40.9956
 30
0.0000
  0
SEQEND
  8
0
  0
POLYLINE
  8
16
 66
1
 10
0.0000
 20
0.0000
 30
0.0000
 40
0.2032
 41
0.2032
 70
0
  0
VERTEX
  8
16
 10
7.7216
 20
44.8056
 30
0.0000
 42
1.0000
  0
VERTEX
  8
16
 10
7.5184
 20
44.8056
 30
0.0000
  0
SEQEND
  8
0
  0
POLYLINE
  8
16
 66
1
 10
0.0000
 20
0.0000
 30
0.0000
 40
0.6096
 41
0.6096
 70
0
  0
VERTEX
  8
16
 10
26.4160
 20
48.2600
 30
0.0000
  0
VERTEX
  8
16
 10
26.4160
 20
50.8000
 30
0.0000
  0
SEQEND
  8
0
  0
POLYLINE
  8
16
 66
1
 10
0.0000
 20
0.0000
 30
0.0000
 40
0.3048
 41
0.3048
 70
0
  0
VERTEX
  8
16
 10
26.5684
 20
50.8000
 30
0.0000
 42
1.0000
  0
VERTEX
  8
16
 10
26.2636
 20
50.8000
 30
0.0000
  0
SEQEND
  8
0
  0
POLYLINE
  8
16
 66
1
 10
0.0000
 20
0.0000
 30
0.0000
 40
0.3048
 41
0.3048
 70
0
  0
VERTEX
  8
16
 10
26.2636
 20
48.2600
 30
0.0000
 42
1.0000
  0
VERTEX
  8
16
 10
26.5684
 20
48.2600
 30
0.0000
  0
SEQEND
  8
0
  0
POLYLINE
  8
16
 66
1
 10
0.0000
 20
0.0000
 30
0.0000
 40
0.4064
 41
0.4064
 70
0
  0
VERTEX
  8
16
 10
20.3200
 20
40.9956
 30
0.0000
  0
VERTEX
  8
16
 10
17.7800
 20
40.9956
 30
0.0000
  0
SEQEND
  8
0
  0
POLYLINE
  8
16
 66
1
 10
0.0000
 20
0.0000
 30
0.0000
 40
0.2032
 41
0.2032
 70
0
  0
VERTEX
  8
16
 10
17.7800
 20
41.0972
 30
0.0000
 42
1.0000
  0
VERTEX
  8
16
 10
17.7800
 20
40.8940
 30
0.0000
  0
SEQEND
  8
0
  0
POLYLINE
  8
16
 66
1
 10
0.0000
 20
0.0000
 30
0.0000
 40
0.2032
 41
0.2032
 70
0
  0
VERTEX
  8
16
 10
20.3200
 20
40.8940
 30
0.0000
 42
1.0000
  0
VERTEX
  8
16
 10
20.3200
 20
41.0972
 30
0.0000
  0
SEQEND
  8
0
  0
POLYLINE
  8
16
 66
1
 10
0.0000
 20
0.0000
 30
0.0000
 40
0.4064
 41
0.4064
 70
0
  0
VERTEX
  8
16
 10
17.7800
 20
40.9956
 30
0.0000
  0
VERTEX
  8
16
 10
15.2400
 20
40.9956
 30
0.0000
  0
SEQEND
  8
0
  0
POLYLINE
  8
16
 66
1
 10
0.0000
 20
0.0000
 30
0.0000
 40
0.2032
 41
0.2032
 70
0
  0
VERTEX
  8
16
 10
15.2400
 20
41.0972
 30
0.0000
 42
1.0000
  0
VERTEX
  8
16
 10
15.2400
 20
40.8940
 30
0.0000
  0
SEQEND
  8
0
  0
POLYLINE
  8
16
 66
1
 10
0.0000
 20
0.0000
 30
0.0000
 40
0.2032
 41
0.2032
 70
0
  0
VERTEX
  8
16
 10
17.7800
 20
40.8940
 30
0.0000
 42
1.0000
  0
VERTEX
  8
16
 10
17.7800
 20
41.0972
 30
0.0000
  0
SEQEND
  8
0
  0
POLYLINE
  8
16
 66
1
 10
0.0000
 20
0.0000
 30
0.0000
 40
0.4064
 41
0.4064
 70
0
  0
VERTEX
  8
16
 10
34.0360
 20
48.2600
 30
0.0000
  0
VERTEX
  8
16
 10
34.0360
 20
47.7520
 30
0.0000
  0
SEQEND
  8
0
  0
POLYLINE
  8
16
 66
1
 10
0.0000
 20
0.0000
 30
0.0000
 40
0.2032
 41
0.2032
 70
0
  0
VERTEX
  8
16
 10
33.9344
 20
47.7520
 30
0.0000
 42
1.0000
  0
VERTEX
  8
16
 10
34.1376
 20
47.7520
 30
0.0000
  0
SEQEND
  8
0
  0
POLYLINE
  8
16
 66
1
 10
0.0000
 20
0.0000
 30
0.0000
 40
0.2032
 41
0.2032
 70
0
  0
VERTEX
  8
16
 10
34.1376
 20
48.2600
 30
0.0000
 42
1.0000
  0
VERTEX
  8
16
 10
33.9344
 20
48.2600
 30
0.0000
  0
SEQEND
  8
0
  0
POLYLINE
  8
16
 66
1
 10
0.0000
 20
0.0000
 30
0.0000
 40
0.4064
 41
0.4064
 70
0
  0
VERTEX
  8
16
 10
34.0360
 20
47.7520
 30
0.0000
  0
VERTEX
  8
16
 10
30.7848
 20
44.5008
 30
0.0000
  0
SEQEND
  8
0
  0
POLYLINE
  8
16
 66
1
 10
0.0000
 20
0.0000
 30
0.0000
 40
0.2032
 41
0.2032
 70
0
  0
VERTEX
  8
16
 10
30.7130
 20
44.5726
 30
0.0000
 42
1.0000
  0
VERTEX
  8
16
 10
30.8566
 20
44.4290
 30
0.0000
  0
SEQEND
  8
0
  0
POLYLINE
  8
16
 66
1
 10
0.0000
 20
0.0000
 30
0.0000
 40
0.2032
 41
0.2032
 70
0
  0
VERTEX
  8
16
 10
34.1078
 20
47.6802
 30
0.0000
 42
1.0000
  0
VERTEX
  8
16
 10
33.9642
 20
47.8238
 30
0.0000
  0
SEQEND
  8
0
  0
POLYLINE
  8
16
 66
1
 10
0.0000
 20
0.0000
 30
0.0000
 40
0.4064
 41
0.4064
 70
0
  0
VERTEX
  8
16
 10
30.7848
 20
44.5008
 30
0.0000
  0
VERTEX
  8
16
 10
15.5448
 20
44.5008
 30
0.0000
  0
SEQEND
  8
0
  0
POLYLINE
  8
16
 66
1
 10
0.0000
 20
0.0000
 30
0.0000
 40
0.2032
 41
0.2032
 70
0
  0
VERTEX
  8
16
 10
15.5448
 20
44.6024
 30
0.0000
 42
1.0000
  0
VERTEX
  8
16
 10
15.5448
 20
44.3992
 30
0.0000
  0
SEQEND
  8
0
  0
POLYLINE
  8
16
 66
1
 10
0.0000
 20
0.0000
 30
0.0000
 40
0.2032
 41
0.2032
 70
0
  0
VERTEX
  8
16
 10
30.7848
 20
44.3992
 30
0.0000
 42
1.0000
  0
VERTEX
  8
16
 10
30.7848
 20
44.6024
 30
0.0000
  0
SEQEND
  8
0
  0
POLYLINE
  8
16
 66
1
 10
0.0000
 20
0.0000
 30
0.0000
 40
0.4064
 41
0.4064
 70
0
  0
VERTEX
  8
16
 10
15.5448
 20
44.5008
 30
0.0000
  0
VERTEX
  8
16
 10
15.2400
 20
44.1960
 30
0.0000
  0
SEQEND
  8
0
  0
POLYLINE
  8
16
 66
1
 10
0.0000
 20
0.0000
 30
0.0000
 40
0.2032
 41
0.2032
 70
0
  0
VERTEX
  8
16
 10
15.1682
 20
44.2678
 30
0.0000
 42
1.0000
  0
VERTEX
  8
16
 10
15.3118
 20
44.1242
 30
0.0000
  0
SEQEND
  8
0
  0
POLYLINE
  8
16
 66
1
 10
0.0000
 20
0.0000
 30
0.0000
 40
0.2032
 41
0.2032
 70
0
  0
VERTEX
  8
16
 10
15.6166
 20
44.4290
 30
0.0000
 42
1.0000
  0
VERTEX
  8
16
 10
15.4730
 20
44.5726
 30
0.0000
  0
SEQEND
  8
0
  0
POLYLINE
  8
16
 66
1
 10
0.0000
 20
0.0000
 30
0.0000
 40
0.4064
 41
0.4064
 70
0
  0
VERTEX
  8
16
 10
15.2400
 20
44.1960
 30
0.0000
  0
VERTEX
  8
16
 10
15.2400
 20
40.9956
 30
0.0000
  0
SEQEND
  8
0
  0
POLYLINE
  8
16
 66
1
 10
0.0000
 20
0.0000
 30
0.0000
 40
0.2032
 41
0.2032
 70
0
  0
VERTEX
  8
16
 10
15.1384
 20
40.9956
 30
0.0000
 42
1.0000
  0
VERTEX
  8
16
 10
15.3416
 20
40.9956
 30
0.0000
  0
SEQEND
  8
0
  0
POLYLINE
  8
16
 66
1
 10
0.0000
 20
0.0000
 30
0.0000
 40
0.2032
 41
0.2032
 70
0
  0
VERTEX
  8
16
 10
15.3416
 20
44.1960
 30
0.0000
 42
1.0000
  0
VERTEX
  8
16
 10
15.1384
 20
44.1960
 30
0.0000
  0
SEQEND
  8
0
  0
LINE
  8
19
 10
34.0360
 20
48.2600
 30
0.0000
 11
34.0360
 21
50.8000
 31
0.0000
  0
POLYLINE
  8
16
 66
1
 10
0.0000
 20
0.0000
 30
0.0000
 40
0.6096
 41
0.6096
 70
0
  0
VERTEX
  8
16
 10
36.5760
 20
48.2600
 30
0.0000
  0
VERTEX
  8
16
 10
36.5760
 20
50.8000
 30
0.0000
  0
SEQEND
  8
0
  0
POLYLINE
  8
16
 66
1
 10
0.0000
 20
0.0000
 30
0.0000
 40
0.3048
 41
0.3048
 70
0
  0
VERTEX
  8
16
 10
36.7284
 20
50.8000
 30
0.0000
 42
1.0000
  0
VERTEX
  8
16
 10
36.4236
 20
50.8000
 30
0.0000
  0
SEQEND
  8
0
  0
POLYLINE
  8
16
 66
1
 10
0.0000
 20
0.0000
 30
0.0000
 40
0.3048
 41
0.3048
 70
0
  0
VERTEX
  8
16
 10
36.4236
 20
48.2600
 30
0.0000
 42
1.0000
  0
VERTEX
  8
16
 10
36.7284
 20
48.2600
 30
0.0000
  0
SEQEND
  8
0
  0
POLYLINE
  8
16
 66
1
 10
0.0000
 20
0.0000
 30
0.0000
 40
0.6096
 41
0.6096
 70
0
  0
VERTEX
  8
16
 10
36.5760
 20
48.2600
 30
0.0000
  0
VERTEX
  8
16
 10
36.5760
 20
47.7520
 30
0.0000
  0
SEQEND
  8
0
  0
POLYLINE
  8
16
 66
1
 10
0.0000
 20
0.0000
 30
0.0000
 40
0.3048
 41
0.3048
 70
0
  0
VERTEX
  8
16
 10
36.4236
 20
47.7520
 30
0.0000
 42
1.0000
  0
VERTEX
  8
16
 10
36.7284
 20
47.7520
 30
0.0000
  0
SEQEND
  8
0
  0
POLYLINE
  8
16
 66
1
 10
0.0000
 20
0.0000
 30
0.0000
 40
0.3048
 41
0.3048
 70
0
  0
VERTEX
  8
16
 10
36.7284
 20
48.2600
 30
0.0000
 42
1.0000
  0
VERTEX
  8
16
 10
36.4236
 20
48.2600
 30
0.0000
  0
SEQEND
  8
0
  0
POLYLINE
  8
16
 66
1
 10
0.0000
 20
0.0000
 30
0.0000
 40
0.4064
 41
0.4064
 70
0
  0
VERTEX
  8
16
 10
36.5760
 20
47.7520
 30
0.0000
  0
VERTEX
  8
16
 10
35.5600
 20
47.7520
 30
0.0000
  0
SEQEND
  8
0
  0
POLYLINE
  8
16
 66
1
 10
0.0000
 20
0.0000
 30
0.0000
 40
0.2032
 41
0.2032
 70
0
  0
VERTEX
  8
16
 10
35.5600
 20
47.8536
 30
0.0000
 42
1.0000
  0
VERTEX
  8
16
 10
35.5600
 20
47.6504
 30
0.0000
  0
SEQEND
  8
0
  0
POLYLINE
  8
16
 66
1
 10
0.0000
 20
0.0000
 30
0.0000
 40
0.2032
 41
0.2032
 70
0
  0
VERTEX
  8
16
 10
36.5760
 20
47.6504
 30
0.0000
 42
1.0000
  0
VERTEX
  8
16
 10
36.5760
 20
47.8536
 30
0.0000
  0
SEQEND
  8
0
  0
POLYLINE
  8
16
 66
1
 10
0.0000
 20
0.0000
 30
0.0000
 40
0.4064
 41
0.4064
 70
0
  0
VERTEX
  8
16
 10
35.5600
 20
47.7520
 30
0.0000
  0
VERTEX
  8
16
 10
31.3944
 20
43.5864
 30
0.0000
  0
SEQEND
  8
0
  0
POLYLINE
  8
16
 66
1
 10
0.0000
 20
0.0000
 30
0.0000
 40
0.2032
 41
0.2032
 70
0
  0
VERTEX
  8
16
 10
31.3226
 20
43.6582
 30
0.0000
 42
1.0000
  0
VERTEX
  8
16
 10
31.4662
 20
43.5146
 30
0.0000
  0
SEQEND
  8
0
  0
POLYLINE
  8
16
 66
1
 10
0.0000
 20
0.0000
 30
0.0000
 40
0.2032
 41
0.2032
 70
0
  0
VERTEX
  8
16
 10
35.6318
 20
47.6802
 30
0.0000
 42
1.0000
  0
VERTEX
  8
16
 10
35.4882
 20
47.8238
 30
0.0000
  0
SEQEND
  8
0
  0
POLYLINE
  8
16
 66
1
 10
0.0000
 20
0.0000
 30
0.0000
 40
0.4064
 41
0.4064
 70
0
  0
VERTEX
  8
16
 10
31.3944
 20
43.5864
 30
0.0000
  0
VERTEX
  8
16
 10
23.7744
 20
43.5864
 30
0.0000
  0
SEQEND
  8
0
  0
POLYLINE
  8
16
 66
1
 10
0.0000
 20
0.0000
 30
0.0000
 40
0.2032
 41
0.2032
 70
0
  0
VERTEX
  8
16
 10
23.7744
 20
43.6880
 30
0.0000
 42
1.0000
  0
VERTEX
  8
16
 10
23.7744
 20
43.4848
 30
0.0000
  0
SEQEND
  8
0
  0
POLYLINE
  8
16
 66
1
 10
0.0000
 20
0.0000
 30
0.0000
 40
0.2032
 41
0.2032
 70
0
  0
VERTEX
  8
16
 10
31.3944
 20
43.4848
 30
0.0000
 42
1.0000
  0
VERTEX
  8
16
 10
31.3944
 20
43.6880
 30
0.0000
  0
SEQEND
  8
0
  0
POLYLINE
  8
16
 66
1
 10
0.0000
 20
0.0000
 30
0.0000
 40
0.4064
 41
0.4064
 70
0
  0
VERTEX
  8
16
 10
23.7744
 20
43.5864
 30
0.0000
  0
VERTEX
  8
16
 10
22.8600
 20
42.6720
 30
0.0000
  0
SEQEND
  8
0
  0
POLYLINE
  8
16
 66
1
 10
0.0000
 20
0.0000
 30
0.0000
 40
0.2032
 41
0.2032
 70
0
  0
VERTEX
  8
16
 10
22.7882
 20
42.7438
 30
0.0000
 42
1.0000
  0
VERTEX
  8
16
 10
22.9318
 20
42.6002
 30
0.0000
  0
SEQEND
  8
0
  0
POLYLINE
  8
16
 66
1
 10
0.0000
 20
0.0000
 30
0.0000
 40
0.2032
 41
0.2032
 70
0
  0
VERTEX
  8
16
 10
23.8462
 20
43.5146
 30
0.0000
 42
1.0000
  0
VERTEX
  8
16
 10
23.7026
 20
43.6582
 30
0.0000
  0
SEQEND
  8
0
  0
POLYLINE
  8
16
 66
1
 10
0.0000
 20
0.0000
 30
0.0000
 40
0.4064
 41
0.4064
 70
0
  0
VERTEX
  8
16
 10
22.8600
 20
42.6720
 30
0.0000
  0
VERTEX
  8
16
 10
22.8600
 20
40.9956
 30
0.0000
  0
SEQEND
  8
0
  0
POLYLINE
  8
16
 66
1
 10
0.0000
 20
0.0000
 30
0.0000
 40
0.2032
 41
0.2032
 70
0
  0
VERTEX
  8
16
 10
22.7584
 20
40.9956
 30
0.0000
 42
1.0000
  0
VERTEX
  8
16
 10
22.9616
 20
40.9956
 30
0.0000
  0
SEQEND
  8
0
  0
POLYLINE
  8
16
 66
1
 10
0.0000
 20
0.0000
 30
0.0000
 40
0.2032
 41
0.2032
 70
0
  0
VERTEX
  8
16
 10
22.9616
 20
42.6720
 30
0.0000
 42
1.0000
  0
VERTEX
  8
16
 10
22.7584
 20
42.6720
 30
0.0000
  0
SEQEND
  8
0
  0
POLYLINE
  8
16
 66
1
 10
0.0000
 20
0.0000
 30
0.0000
 40
0.6096
 41
0.6096
 70
0
  0
VERTEX
  8
16
 10
63.5000
 20
48.2600
 30
0.0000
  0
VERTEX
  8
16
 10
63.5000
 20
50.8000
 30
0.0000
  0
SEQEND
  8
0
  0
POLYLINE
  8
16
 66
1
 10
0.0000
 20
0.0000
 30
0.0000
 40
0.3048
 41
0.3048
 70
0
  0
VERTEX
  8
16
 10
63.6524
 20
50.8000
 30
0.0000
 42
1.0000
  0
VERTEX
  8
16
 10
63.3476
 20
50.8000
 30
0.0000
  0
SEQEND
  8
0
  0
POLYLINE
  8
16
 66
1
 10
0.0000
 20
0.0000
 30
0.0000
 40
0.3048
 41
0.3048
 70
0
  0
VERTEX
  8
16
 10
63.3476
 20
48.2600
 30
0.0000
 42
1.0000
  0
VERTEX
  8
16
 10
63.6524
 20
48.2600
 30
0.0000
  0
SEQEND
  8
0
  0
POLYLINE
  8
16
 66
1
 10
0.0000
 20
0.0000
 30
0.0000
 40
0.6096
 41
0.6096
 70
0
  0
VERTEX
  8
16
 10
60.9600
 20
48.2600
 30
0.0000
  0
VERTEX
  8
16
 10
60.9600
 20
50.8000
 30
0.0000
  0
SEQEND
  8
0
  0
POLYLINE
  8
16
 66
1
 10
0.0000
 20
0.0000
 30
0.0000
 40
0.3048
 41
0.3048
 70
0
  0
VERTEX
  8
16
 10
61.1124
 20
50.8000
 30
0.0000
 42
1.0000
  0
VERTEX
  8
16
 10
60.8076
 20
50.8000
 30
0.0000
  0
SEQEND
  8
0
  0
POLYLINE
  8
16
 66
1
 10
0.0000
 20
0.0000
 30
0.0000
 40
0.3048
 41
0.3048
 70
0
  0
VERTEX
  8
16
 10
60.8076
 20
48.2600
 30
0.0000
 42
1.0000
  0
VERTEX
  8
16
 10
61.1124
 20
48.2600
 30
0.0000
  0
SEQEND
  8
0
  0
POLYLINE
  8
16
 66
1
 10
0.0000
 20
0.0000
 30
0.0000
 40
0.4064
 41
0.4064
 70
0
  0
VERTEX
  8
16
 10
39.3700
 20
40.9956
 30
0.0000
  0
VERTEX
  8
16
 10
41.9100
 20
40.9956
 30
0.0000
  0
SEQEND
  8
0
  0
POLYLINE
  8
16
 66
1
 10
0.0000
 20
0.0000
 30
0.0000
 40
0.2032
 41
0.2032
 70
0
  0
VERTEX
  8
16
 10
41.9100
 20
40.8940
 30
0.0000
 42
1.0000
  0
VERTEX
  8
16
 10
41.9100
 20
41.0972
 30
0.0000
  0
SEQEND
  8
0
  0
POLYLINE
  8
16
 66
1
 10
0.0000
 20
0.0000
 30
0.0000
 40
0.2032
 41
0.2032
 70
0
  0
VERTEX
  8
16
 10
39.3700
 20
41.0972
 30
0.0000
 42
1.0000
  0
VERTEX
  8
16
 10
39.3700
 20
40.8940
 30
0.0000
  0
SEQEND
  8
0
  0
POLYLINE
  8
16
 66
1
 10
0.0000
 20
0.0000
 30
0.0000
 40
0.4064
 41
0.4064
 70
0
  0
VERTEX
  8
16
 10
41.9100
 20
40.9956
 30
0.0000
  0
VERTEX
  8
16
 10
44.4500
 20
40.9956
 30
0.0000
  0
SEQEND
  8
0
  0
POLYLINE
  8
16
 66
1
 10
0.0000
 20
0.0000
 30
0.0000
 40
0.2032
 41
0.2032
 70
0
  0
VERTEX
  8
16
 10
44.4500
 20
40.8940
 30
0.0000
 42
1.0000
  0
VERTEX
  8
16
 10
44.4500
 20
41.0972
 30
0.0000
  0
SEQEND
  8
0
  0
POLYLINE
  8
16
 66
1
 10
0.0000
 20
0.0000
 30
0.0000
 40
0.2032
 41
0.2032
 70
0
  0
VERTEX
  8
16
 10
41.9100
 20
41.0972
 30
0.0000
 42
1.0000
  0
VERTEX
  8
16
 10
41.9100
 20
40.8940
 30
0.0000
  0
SEQEND
  8
0
  0
POLYLINE
  8
16
 66
1
 10
0.0000
 20
0.0000
 30
0.0000
 40
0.4064
 41
0.4064
 70
0
  0
VERTEX
  8
16
 10
44.4500
 20
40.9956
 30
0.0000
  0
VERTEX
  8
16
 10
44.4500
 20
41.7068
 30
0.0000
  0
SEQEND
  8
0
  0
POLYLINE
  8
16
 66
1
 10
0.0000
 20
0.0000
 30
0.0000
 40
0.2032
 41
0.2032
 70
0
  0
VERTEX
  8
16
 10
44.5516
 20
41.7068
 30
0.0000
 42
1.0000
  0
VERTEX
  8
16
 10
44.3484
 20
41.7068
 30
0.0000
  0
SEQEND
  8
0
  0
POLYLINE
  8
16
 66
1
 10
0.0000
 20
0.0000
 30
0.0000
 40
0.2032
 41
0.2032
 70
0
  0
VERTEX
  8
16
 10
44.3484
 20
40.9956
 30
0.0000
 42
1.0000
  0
VERTEX
  8
16
 10
44.5516
 20
40.9956
 30
0.0000
  0
SEQEND
  8
0
  0
POLYLINE
  8
16
 66
1
 10
0.0000
 20
0.0000
 30
0.0000
 40
0.4064
 41
0.4064
 70
0
  0
VERTEX
  8
16
 10
44.4500
 20
41.7068
 30
0.0000
  0
VERTEX
  8
16
 10
45.7200
 20
42.9768
 30
0.0000
  0
SEQEND
  8
0
  0
POLYLINE
  8
16
 66
1
 10
0.0000
 20
0.0000
 30
0.0000
 40
0.2032
 41
0.2032
 70
0
  0
VERTEX
  8
16
 10
45.7918
 20
42.9050
 30
0.0000
 42
1.0000
  0
VERTEX
  8
16
 10
45.6482
 20
43.0486
 30
0.0000
  0
SEQEND
  8
0
  0
POLYLINE
  8
16
 66
1
 10
0.0000
 20
0.0000
 30
0.0000
 40
0.2032
 41
0.2032
 70
0
  0
VERTEX
  8
16
 10
44.3782
 20
41.7786
 30
0.0000
 42
1.0000
  0
VERTEX
  8
16
 10
44.5218
 20
41.6350
 30
0.0000
  0
SEQEND
  8
0
  0
POLYLINE
  8
16
 66
1
 10
0.0000
 20
0.0000
 30
0.0000
 40
0.4064
 41
0.4064
 70
0
  0
VERTEX
  8
16
 10
45.7200
 20
42.9768
 30
0.0000
  0
VERTEX
  8
16
 10
45.7200
 20
48.2600
 30
0.0000
  0
SEQEND
  8
0
  0
POLYLINE
  8
16
 66
1
 10
0.0000
 20
0.0000
 30
0.0000
 40
0.2032
 41
0.2032
 70
0
  0
VERTEX
  8
16
 10
45.8216
 20
48.2600
 30
0.0000
 42
1.0000
  0
VERTEX
  8
16
 10
45.6184
 20
48.2600
 30
0.0000
  0
SEQEND
  8
0
  0
POLYLINE
  8
16
 66
1
 10
0.0000
 20
0.0000
 30
0.0000
 40
0.2032
 41
0.2032
 70
0
  0
VERTEX
  8
16
 10
45.6184
 20
42.9768
 30
0.0000
 42
1.0000
  0
VERTEX
  8
16
 10
45.8216
 20
42.9768
 30
0.0000
  0
SEQEND
  8
0
  0
POLYLINE
  8
16
 66
1
 10
0.0000
 20
0.0000
 30
0.0000
 40
0.4064
 41
0.4064
 70
0
  0
VERTEX
  8
16
 10
45.7200
 20
50.8000
 30
0.0000
  0
VERTEX
  8
16
 10
45.7200
 20
48.2600
 30
0.0000
  0
SEQEND
  8
0
  0
POLYLINE
  8
16
 66
1
 10
0.0000
 20
0.0000
 30
0.0000
 40
0.2032
 41
0.2032
 70
0
  0
VERTEX
  8
16
 10
45.6184
 20
48.2600
 30
0.0000
 42
1.0000
  0
VERTEX
  8
16
 10
45.8216
 20
48.2600
 30
0.0000
  0
SEQEND
  8
0
  0
POLYLINE
  8
16
 66
1
 10
0.0000
 20
0.0000
 30
0.0000
 40
0.2032
 41
0.2032
 70
0
  0
VERTEX
  8
16
 10
45.8216
 20
50.8000
 30
0.0000
 42
1.0000
  0
VERTEX
  8
16
 10
45.6184
 20
50.8000
 30
0.0000
  0
SEQEND
  8
0
  0
LINE
  8
19
 10
53.3400
 20
48.2600
 30
0.0000
 11
53.3400
 21
50.8000
 31
0.0000
  0
LINE
  8
19
 10
50.8000
 20
48.2600
 30
0.0000
 11
50.8000
 21
50.8000
 31
0.0000
  0
POLYLINE
  8
16
 66
1
 10
0.0000
 20
0.0000
 30
0.0000
 40
0.4064
 41
0.4064
 70
0
  0
VERTEX
  8
16
 10
31.7500
 20
40.9956
 30
0.0000
  0
VERTEX
  8
16
 10
31.8516
 20
40.9956
 30
0.0000
  0
SEQEND
  8
0
  0
POLYLINE
  8
16
 66
1
 10
0.0000
 20
0.0000
 30
0.0000
 40
0.2032
 41
0.2032
 70
0
  0
VERTEX
  8
16
 10
31.8516
 20
40.8940
 30
0.0000
 42
1.0000
  0
VERTEX
  8
16
 10
31.8516
 20
41.0972
 30
0.0000
  0
SEQEND
  8
0
  0
POLYLINE
  8
16
 66
1
 10
0.0000
 20
0.0000
 30
0.0000
 40
0.2032
 41
0.2032
 70
0
  0
VERTEX
  8
16
 10
31.7500
 20
41.0972
 30
0.0000
 42
1.0000
  0
VERTEX
  8
16
 10
31.7500
 20
40.8940
 30
0.0000
  0
SEQEND
  8
0
  0
POLYLINE
  8
16
 66
1
 10
0.0000
 20
0.0000
 30
0.0000
 40
0.4064
 41
0.4064
 70
0
  0
VERTEX
  8
16
 10
31.8516
 20
40.9956
 30
0.0000
  0
VERTEX
  8
16
 10
35.9664
 20
45.1104
 30
0.0000
  0
SEQEND
  8
0
  0
POLYLINE
  8
16
 66
1
 10
0.0000
 20
0.0000
 30
0.0000
 40
0.2032
 41
0.2032
 70
0
  0
VERTEX
  8
16
 10
36.0382
 20
45.0386
 30
0.0000
 42
1.0000
  0
VERTEX
  8
16
 10
35.8946
 20
45.1822
 30
0.0000
  0
SEQEND
  8
0
  0
POLYLINE
  8
16
 66
1
 10
0.0000
 20
0.0000
 30
0.0000
 40
0.2032
 41
0.2032
 70
0
  0
VERTEX
  8
16
 10
31.7798
 20
41.0674
 30
0.0000
 42
1.0000
  0
VERTEX
  8
16
 10
31.9234
 20
40.9238
 30
0.0000
  0
SEQEND
  8
0
  0
POLYLINE
  8
16
 66
1
 10
0.0000
 20
0.0000
 30
0.0000
 40
0.4064
 41
0.4064
 70
0
  0
VERTEX
  8
16
 10
35.9664
 20
45.1104
 30
0.0000
  0
VERTEX
  8
16
 10
38.5064
 20
45.1104
 30
0.0000
  0
SEQEND
  8
0
  0
POLYLINE
  8
16
 66
1
 10
0.0000
 20
0.0000
 30
0.0000
 40
0.2032
 41
0.2032
 70
0
  0
VERTEX
  8
16
 10
38.5064
 20
45.0088
 30
0.0000
 42
1.0000
  0
VERTEX
  8
16
 10
38.5064
 20
45.2120
 30
0.0000
  0
SEQEND
  8
0
  0
POLYLINE
  8
16
 66
1
 10
0.0000
 20
0.0000
 30
0.0000
 40
0.2032
 41
0.2032
 70
0
  0
VERTEX
  8
16
 10
35.9664
 20
45.2120
 30
0.0000
 42
1.0000
  0
VERTEX
  8
16
 10
35.9664
 20
45.0088
 30
0.0000
  0
SEQEND
  8
0
  0
POLYLINE
  8
16
 66
1
 10
0.0000
 20
0.0000
 30
0.0000
 40
0.4064
 41
0.4064
 70
0
  0
VERTEX
  8
16
 10
38.5064
 20
45.1104
 30
0.0000
  0
VERTEX
  8
16
 10
41.6560
 20
48.2600
 30
0.0000
  0
SEQEND
  8
0
  0
POLYLINE
  8
16
 66
1
 10
0.0000
 20
0.0000
 30
0.0000
 40
0.2032
 41
0.2032
 70
0
  0
VERTEX
  8
16
 10
41.7278
 20
48.1882
 30
0.0000
 42
1.0000
  0
VERTEX
  8
16
 10
41.5842
 20
48.3318
 30
0.0000
  0
SEQEND
  8
0
  0
POLYLINE
  8
16
 66
1
 10
0.0000
 20
0.0000
 30
0.0000
 40
0.2032
 41
0.2032
 70
0
  0
VERTEX
  8
16
 10
38.4346
 20
45.1822
 30
0.0000
 42
1.0000
  0
VERTEX
  8
16
 10
38.5782
 20
45.0386
 30
0.0000
  0
SEQEND
  8
0
  0
POLYLINE
  8
16
 66
1
 10
0.0000
 20
0.0000
 30
0.0000
 40
0.4064
 41
0.4064
 70
0
  0
VERTEX
  8
16
 10
41.6560
 20
48.2600
 30
0.0000
  0
VERTEX
  8
16
 10
41.6560
 20
50.8000
 30
0.0000
  0
SEQEND
  8
0
  0
POLYLINE
  8
16
 66
1
 10
0.0000
 20
0.0000
 30
0.0000
 40
0.2032
 41
0.2032
 70
0
  0
VERTEX
  8
16
 10
41.7576
 20
50.8000
 30
0.0000
 42
1.0000
  0
VERTEX
  8
16
 10
41.5544
 20
50.8000
 30
0.0000
  0
SEQEND
  8
0
  0
POLYLINE
  8
16
 66
1
 10
0.0000
 20
0.0000
 30
0.0000
 40
0.2032
 41
0.2032
 70
0
  0
VERTEX
  8
16
 10
41.5544
 20
48.2600
 30
0.0000
 42
1.0000
  0
VERTEX
  8
16
 10
41.7576
 20
48.2600
 30
0.0000
  0
SEQEND
  8
0
  0
LINE
  8
19
 10
54.7980
 20
43.5864
 30
0.0000
 11
59.6392
 21
44.7802
 31
0.0000
  0
LINE
  8
19
 10
58.3692
 20
42.8752
 30
0.0000
 11
62.3824
 21
39.9288
 31
0.0000
  0
POLYLINE
  8
16
 66
1
 10
0.0000
 20
0.0000
 30
0.0000
 40
0.6096
 41
0.6096
 70
0
  0
VERTEX
  8
16
 10
50.8000
 20
2.5400
 30
0.0000
  0
VERTEX
  8
16
 10
50.8000
 20
5.0800
 30
0.0000
  0
SEQEND
  8
0
  0
POLYLINE
  8
16
 66
1
 10
0.0000
 20
0.0000
 30
0.0000
 40
0.3048
 41
0.3048
 70
0
  0
VERTEX
  8
16
 10
50.9524
 20
5.0800
 30
0.0000
 42
1.0000
  0
VERTEX
  8
16
 10
50.6476
 20
5.0800
 30
0.0000
  0
SEQEND
  8
0
  0
POLYLINE
  8
16
 66
1
 10
0.0000
 20
0.0000
 30
0.0000
 40
0.3048
 41
0.3048
 70
0
  0
VERTEX
  8
16
 10
50.6476
 20
2.5400
 30
0.0000
 42
1.0000
  0
VERTEX
  8
16
 10
50.9524
 20
2.5400
 30
0.0000
  0
SEQEND
  8
0
  0
POLYLINE
  8
16
 66
1
 10
0.0000
 20
0.0000
 30
0.0000
 40
0.6096
 41
0.6096
 70
0
  0
VERTEX
  8
16
 10
53.3400
 20
2.5400
 30
0.0000
  0
VERTEX
  8
16
 10
53.3400
 20
5.0800
 30
0.0000
  0
SEQEND
  8
0
  0
POLYLINE
  8
16
 66
1
 10
0.0000
 20
0.0000
 30
0.0000
 40
0.3048
 41
0.3048
 70
0
  0
VERTEX
  8
16
 10
53.4924
 20
5.0800
 30
0.0000
 42
1.0000
  0
VERTEX
  8
16
 10
53.1876
 20
5.0800
 30
0.0000
  0
SEQEND
  8
0
  0
POLYLINE
  8
16
 66
1
 10
0.0000
 20
0.0000
 30
0.0000
 40
0.3048
 41
0.3048
 70
0
  0
VERTEX
  8
16
 10
53.1876
 20
2.5400
 30
0.0000
 42
1.0000
  0
VERTEX
  8
16
 10
53.4924
 20
2.5400
 30
0.0000
  0
SEQEND
  8
0
  0
POLYLINE
  8
16
 66
1
 10
0.0000
 20
0.0000
 30
0.0000
 40
0.6096
 41
0.6096
 70
0
  0
VERTEX
  8
16
 10
55.8800
 20
2.5400
 30
0.0000
  0
VERTEX
  8
16
 10
55.8800
 20
5.0800
 30
0.0000
  0
SEQEND
  8
0
  0
POLYLINE
  8
16
 66
1
 10
0.0000
 20
0.0000
 30
0.0000
 40
0.3048
 41
0.3048
 70
0
  0
VERTEX
  8
16
 10
56.0324
 20
5.0800
 30
0.0000
 42
1.0000
  0
VERTEX
  8
16
 10
55.7276
 20
5.0800
 30
0.0000
  0
SEQEND
  8
0
  0
POLYLINE
  8
16
 66
1
 10
0.0000
 20
0.0000
 30
0.0000
 40
0.3048
 41
0.3048
 70
0
  0
VERTEX
  8
16
 10
55.7276
 20
2.5400
 30
0.0000
 42
1.0000
  0
VERTEX
  8
16
 10
56.0324
 20
2.5400
 30
0.0000
  0
SEQEND
  8
0
  0
POLYLINE
  8
16
 66
1
 10
0.0000
 20
0.0000
 30
0.0000
 40
0.6096
 41
0.6096
 70
0
  0
VERTEX
  8
16
 10
58.4200
 20
2.5400
 30
0.0000
  0
VERTEX
  8
16
 10
58.4200
 20
5.0800
 30
0.0000
  0
SEQEND
  8
0
  0
POLYLINE
  8
16
 66
1
 10
0.0000
 20
0.0000
 30
0.0000
 40
0.3048
 41
0.3048
 70
0
  0
VERTEX
  8
16
 10
58.5724
 20
5.0800
 30
0.0000
 42
1.0000
  0
VERTEX
  8
16
 10
58.2676
 20
5.0800
 30
0.0000
  0
SEQEND
  8
0
  0
POLYLINE
  8
16
 66
1
 10
0.0000
 20
0.0000
 30
0.0000
 40
0.3048
 41
0.3048
 70
0
  0
VERTEX
  8
16
 10
58.2676
 20
2.5400
 30
0.0000
 42
1.0000
  0
VERTEX
  8
16
 10
58.5724
 20
2.5400
 30
0.0000
  0
SEQEND
  8
0
  0
POLYLINE
  8
16
 66
1
 10
0.0000
 20
0.0000
 30
0.0000
 40
0.6096
 41
0.6096
 70
0
  0
VERTEX
  8
16
 10
60.9600
 20
2.5400
 30
0.0000
  0
VERTEX
  8
16
 10
60.9600
 20
5.0800
 30
0.0000
  0
SEQEND
  8
0
  0
POLYLINE
  8
16
 66
1
 10
0.0000
 20
0.0000
 30
0.0000
 40
0.3048
 41
0.3048
 70
0
  0
VERTEX
  8
16
 10
61.1124
 20
5.0800
 30
0.0000
 42
1.0000
  0
VERTEX
  8
16
 10
60.8076
 20
5.0800
 30
0.0000
  0
SEQEND
  8
0
  0
POLYLINE
  8
16
 66
1
 10
0.0000
 20
0.0000
 30
0.0000
 40
0.3048
 41
0.3048
 70
0
  0
VERTEX
  8
16
 10
60.8076
 20
2.5400
 30
0.0000
 42
1.0000
  0
VERTEX
  8
16
 10
61.1124
 20
2.5400
 30
0.0000
  0
SEQEND
  8
0
  0
POLYLINE
  8
16
 66
1
 10
0.0000
 20
0.0000
 30
0.0000
 40
0.6096
 41
0.6096
 70
0
  0
VERTEX
  8
16
 10
63.5000
 20
2.5400
 30
0.0000
  0
VERTEX
  8
16
 10
63.5000
 20
5.0800
 30
0.0000
  0
SEQEND
  8
0
  0
POLYLINE
  8
16
 66
1
 10
0.0000
 20
0.0000
 30
0.0000
 40
0.3048
 41
0.3048
 70
0
  0
VERTEX
  8
16
 10
63.6524
 20
5.0800
 30
0.0000
 42
1.0000
  0
VERTEX
  8
16
 10
63.3476
 20
5.0800
 30
0.0000
  0
SEQEND
  8
0
  0
POLYLINE
  8
16
 66
1
 10
0.0000
 20
0.0000
 30
0.0000
 40
0.3048
 41
0.3048
 70
0
  0
VERTEX
  8
16
 10
63.3476
 20
2.5400
 30
0.0000
 42
1.0000
  0
VERTEX
  8
16
 10
63.6524
 20
2.5400
 30
0.0000
  0
SEQEND
  8
0
  0
POLYLINE
  8
16
 66
1
 10
0.0000
 20
0.0000
 30
0.0000
 40
0.4064
 41
0.4064
 70
0
  0
VERTEX
  8
16
 10
38.1000
 20
2.5400
 30
0.0000
  0
VERTEX
  8
16
 10
38.1000
 20
5.0800
 30
0.0000
  0
SEQEND
  8
0
  0
POLYLINE
  8
16
 66
1
 10
0.0000
 20
0.0000
 30
0.0000
 40
0.2032
 41
0.2032
 70
0
  0
VERTEX
  8
16
 10
38.2016
 20
5.0800
 30
0.0000
 42
1.0000
  0
VERTEX
  8
16
 10
37.9984
 20
5.0800
 30
0.0000
  0
SEQEND
  8
0
  0
POLYLINE
  8
16
 66
1
 10
0.0000
 20
0.0000
 30
0.0000
 40
0.2032
 41
0.2032
 70
0
  0
VERTEX
  8
16
 10
37.9984
 20
2.5400
 30
0.0000
 42
1.0000
  0
VERTEX
  8
16
 10
38.2016
 20
2.5400
 30
0.0000
  0
SEQEND
  8
0
  0
POLYLINE
  8
16
 66
1
 10
0.0000
 20
0.0000
 30
0.0000
 40
0.6096
 41
0.6096
 70
0
  0
VERTEX
  8
16
 10
40.6400
 20
2.5400
 30
0.0000
  0
VERTEX
  8
16
 10
40.6400
 20
5.0800
 30
0.0000
  0
SEQEND
  8
0
  0
POLYLINE
  8
16
 66
1
 10
0.0000
 20
0.0000
 30
0.0000
 40
0.3048
 41
0.3048
 70
0
  0
VERTEX
  8
16
 10
40.7924
 20
5.0800
 30
0.0000
 42
1.0000
  0
VERTEX
  8
16
 10
40.4876
 20
5.0800
 30
0.0000
  0
SEQEND
  8
0
  0
POLYLINE
  8
16
 66
1
 10
0.0000
 20
0.0000
 30
0.0000
 40
0.3048
 41
0.3048
 70
0
  0
VERTEX
  8
16
 10
40.4876
 20
2.5400
 30
0.0000
 42
1.0000
  0
VERTEX
  8
16
 10
40.7924
 20
2.5400
 30
0.0000
  0
SEQEND
  8
0
  0
POLYLINE
  8
16
 66
1
 10
0.0000
 20
0.0000
 30
0.0000
 40
1.2700
 41
1.2700
 70
0
  0
VERTEX
  8
16
 10
41.9100
 20
28.2956
 30
0.0000
  0
VERTEX
  8
16
 10
41.9100
 20
22.4536
 30
0.0000
  0
SEQEND
  8
0
  0
POLYLINE
  8
16
 66
1
 10
0.0000
 20
0.0000
 30
0.0000
 40
0.6350
 41
0.6350
 70
0
  0
VERTEX
  8
16
 10
41.5925
 20
22.4536
 30
0.0000
 42
1.0000
  0
VERTEX
  8
16
 10
42.2275
 20
22.4536
 30
0.0000
  0
SEQEND
  8
0
  0
POLYLINE
  8
16
 66
1
 10
0.0000
 20
0.0000
 30
0.0000
 40
0.6350
 41
0.6350
 70
0
  0
VERTEX
  8
16
 10
42.2275
 20
28.2956
 30
0.0000
 42
1.0000
  0
VERTEX
  8
16
 10
41.5925
 20
28.2956
 30
0.0000
  0
SEQEND
  8
0
  0
POLYLINE
  8
16
 66
1
 10
0.0000
 20
0.0000
 30
0.0000
 40
0.4064
 41
0.4064
 70
0
  0
VERTEX
  8
16
 10
29.2100
 20
40.9956
 30
0.0000
  0
VERTEX
  8
16
 10
29.2100
 20
41.7068
 30
0.0000
  0
SEQEND
  8
0
  0
POLYLINE
  8
16
 66
1
 10
0.0000
 20
0.0000
 30
0.0000
 40
0.2032
 41
0.2032
 70
0
  0
VERTEX
  8
16
 10
29.3116
 20
41.7068
 30
0.0000
 42
1.0000
  0
VERTEX
  8
16
 10
29.1084
 20
41.7068
 30
0.0000
  0
SEQEND
  8
0
  0
POLYLINE
  8
16
 66
1
 10
0.0000
 20
0.0000
 30
0.0000
 40
0.2032
 41
0.2032
 70
0
  0
VERTEX
  8
16
 10
29.1084
 20
40.9956
 30
0.0000
 42
1.0000
  0
VERTEX
  8
16
 10
29.3116
 20
40.9956
 30
0.0000
  0
SEQEND
  8
0
  0
POLYLINE
  8
16
 66
1
 10
0.0000
 20
0.0000
 30
0.0000
 40
0.4064
 41
0.4064
 70
0
  0
VERTEX
  8
16
 10
29.2100
 20
41.7068
 30
0.0000
  0
VERTEX
  8
16
 10
30.1752
 20
42.6720
 30
0.0000
  0
SEQEND
  8
0
  0
POLYLINE
  8
16
 66
1
 10
0.0000
 20
0.0000
 30
0.0000
 40
0.2032
 41
0.2032
 70
0
  0
VERTEX
  8
16
 10
30.2470
 20
42.6002
 30
0.0000
 42
1.0000
  0
VERTEX
  8
16
 10
30.1034
 20
42.7438
 30
0.0000
  0
SEQEND
  8
0
  0
POLYLINE
  8
16
 66
1
 10
0.0000
 20
0.0000
 30
0.0000
 40
0.2032
 41
0.2032
 70
0
  0
VERTEX
  8
16
 10
29.1382
 20
41.7786
 30
0.0000
 42
1.0000
  0
VERTEX
  8
16
 10
29.2818
 20
41.6350
 30
0.0000
  0
SEQEND
  8
0
  0
POLYLINE
  8
16
 66
1
 10
0.0000
 20
0.0000
 30
0.0000
 40
0.4064
 41
0.4064
 70
0
  0
VERTEX
  8
16
 10
30.1752
 20
42.6720
 30
0.0000
  0
VERTEX
  8
16
 10
32.0040
 20
42.6720
 30
0.0000
  0
SEQEND
  8
0
  0
POLYLINE
  8
16
 66
1
 10
0.0000
 20
0.0000
 30
0.0000
 40
0.2032
 41
0.2032
 70
0
  0
VERTEX
  8
16
 10
32.0040
 20
42.5704
 30
0.0000
 42
1.0000
  0
VERTEX
  8
16
 10
32.0040
 20
42.7736
 30
0.0000
  0
SEQEND
  8
0
  0
POLYLINE
  8
16
 66
1
 10
0.0000
 20
0.0000
 30
0.0000
 40
0.2032
 41
0.2032
 70
0
  0
VERTEX
  8
16
 10
30.1752
 20
42.7736
 30
0.0000
 42
1.0000
  0
VERTEX
  8
16
 10
30.1752
 20
42.5704
 30
0.0000
  0
SEQEND
  8
0
  0
POLYLINE
  8
16
 66
1
 10
0.0000
 20
0.0000
 30
0.0000
 40
0.4064
 41
0.4064
 70
0
  0
VERTEX
  8
16
 10
32.0040
 20
42.6720
 30
0.0000
  0
VERTEX
  8
16
 10
35.6616
 20
46.3296
 30
0.0000
  0
SEQEND
  8
0
  0
POLYLINE
  8
16
 66
1
 10
0.0000
 20
0.0000
 30
0.0000
 40
0.2032
 41
0.2032
 70
0
  0
VERTEX
  8
16
 10
35.7334
 20
46.2578
 30
0.0000
 42
1.0000
  0
VERTEX
  8
16
 10
35.5898
 20
46.4014
 30
0.0000
  0
SEQEND
  8
0
  0
POLYLINE
  8
16
 66
1
 10
0.0000
 20
0.0000
 30
0.0000
 40
0.2032
 41
0.2032
 70
0
  0
VERTEX
  8
16
 10
31.9322
 20
42.7438
 30
0.0000
 42
1.0000
  0
VERTEX
  8
16
 10
32.0758
 20
42.6002
 30
0.0000
  0
SEQEND
  8
0
  0
POLYLINE
  8
16
 66
1
 10
0.0000
 20
0.0000
 30
0.0000
 40
0.4064
 41
0.4064
 70
0
  0
VERTEX
  8
16
 10
35.6616
 20
46.3296
 30
0.0000
  0
VERTEX
  8
16
 10
37.1856
 20
46.3296
 30
0.0000
  0
SEQEND
  8
0
  0
POLYLINE
  8
16
 66
1
 10
0.0000
 20
0.0000
 30
0.0000
 40
0.2032
 41
0.2032
 70
0
  0
VERTEX
  8
16
 10
37.1856
 20
46.2280
 30
0.0000
 42
1.0000
  0
VERTEX
  8
16
 10
37.1856
 20
46.4312
 30
0.0000
  0
SEQEND
  8
0
  0
POLYLINE
  8
16
 66
1
 10
0.0000
 20
0.0000
 30
0.0000
 40
0.2032
 41
0.2032
 70
0
  0
VERTEX
  8
16
 10
35.6616
 20
46.4312
 30
0.0000
 42
1.0000
  0
VERTEX
  8
16
 10
35.6616
 20
46.2280
 30
0.0000
  0
SEQEND
  8
0
  0
POLYLINE
  8
16
 66
1
 10
0.0000
 20
0.0000
 30
0.0000
 40
0.4064
 41
0.4064
 70
0
  0
VERTEX
  8
16
 10
37.1856
 20
46.3296
 30
0.0000
  0
VERTEX
  8
16
 10
39.1160
 20
48.2600
 30
0.0000
  0
SEQEND
  8
0
  0
POLYLINE
  8
16
 66
1
 10
0.0000
 20
0.0000
 30
0.0000
 40
0.2032
 41
0.2032
 70
0
  0
VERTEX
  8
16
 10
39.1878
 20
48.1882
 30
0.0000
 42
1.0000
  0
VERTEX
  8
16
 10
39.0442
 20
48.3318
 30
0.0000
  0
SEQEND
  8
0
  0
POLYLINE
  8
16
 66
1
 10
0.0000
 20
0.0000
 30
0.0000
 40
0.2032
 41
0.2032
 70
0
  0
VERTEX
  8
16
 10
37.1138
 20
46.4014
 30
0.0000
 42
1.0000
  0
VERTEX
  8
16
 10
37.2574
 20
46.2578
 30
0.0000
  0
SEQEND
  8
0
  0
POLYLINE
  8
16
 66
1
 10
0.0000
 20
0.0000
 30
0.0000
 40
0.4064
 41
0.4064
 70
0
  0
VERTEX
  8
16
 10
39.1160
 20
48.2600
 30
0.0000
  0
VERTEX
  8
16
 10
39.1160
 20
50.8000
 30
0.0000
  0
SEQEND
  8
0
  0
POLYLINE
  8
16
 66
1
 10
0.0000
 20
0.0000
 30
0.0000
 40
0.2032
 41
0.2032
 70
0
  0
VERTEX
  8
16
 10
39.2176
 20
50.8000
 30
0.0000
 42
1.0000
  0
VERTEX
  8
16
 10
39.0144
 20
50.8000
 30
0.0000
  0
SEQEND
  8
0
  0
POLYLINE
  8
16
 66
1
 10
0.0000
 20
0.0000
 30
0.0000
 40
0.2032
 41
0.2032
 70
0
  0
VERTEX
  8
16
 10
39.0144
 20
48.2600
 30
0.0000
 42
1.0000
  0
VERTEX
  8
16
 10
39.2176
 20
48.2600
 30
0.0000
  0
SEQEND
  8
0
  0
POLYLINE
  8
16
 66
1
 10
0.0000
 20
0.0000
 30
0.0000
 40
0.4064
 41
0.4064
 70
0
  0
VERTEX
  8
16
 10
46.9900
 20
40.9956
 30
0.0000
  0
VERTEX
  8
16
 10
46.9900
 20
41.5036
 30
0.0000
  0
SEQEND
  8
0
  0
POLYLINE
  8
16
 66
1
 10
0.0000
 20
0.0000
 30
0.0000
 40
0.2032
 41
0.2032
 70
0
  0
VERTEX
  8
16
 10
47.0916
 20
41.5036
 30
0.0000
 42
1.0000
  0
VERTEX
  8
16
 10
46.8884
 20
41.5036
 30
0.0000
  0
SEQEND
  8
0
  0
POLYLINE
  8
16
 66
1
 10
0.0000
 20
0.0000
 30
0.0000
 40
0.2032
 41
0.2032
 70
0
  0
VERTEX
  8
16
 10
46.8884
 20
40.9956
 30
0.0000
 42
1.0000
  0
VERTEX
  8
16
 10
47.0916
 20
40.9956
 30
0.0000
  0
SEQEND
  8
0
  0
POLYLINE
  8
16
 66
1
 10
0.0000
 20
0.0000
 30
0.0000
 40
0.4064
 41
0.4064
 70
0
  0
VERTEX
  8
16
 10
46.9900
 20
41.5036
 30
0.0000
  0
VERTEX
  8
16
 10
48.1584
 20
42.6720
 30
0.0000
  0
SEQEND
  8
0
  0
POLYLINE
  8
16
 66
1
 10
0.0000
 20
0.0000
 30
0.0000
 40
0.2032
 41
0.2032
 70
0
  0
VERTEX
  8
16
 10
48.2302
 20
42.6002
 30
0.0000
 42
1.0000
  0
VERTEX
  8
16
 10
48.0866
 20
42.7438
 30
0.0000
  0
SEQEND
  8
0
  0
POLYLINE
  8
16
 66
1
 10
0.0000
 20
0.0000
 30
0.0000
 40
0.2032
 41
0.2032
 70
0
  0
VERTEX
  8
16
 10
46.9182
 20
41.5754
 30
0.0000
 42
1.0000
  0
VERTEX
  8
16
 10
47.0618
 20
41.4318
 30
0.0000
  0
SEQEND
  8
0
  0
POLYLINE
  8
16
 66
1
 10
0.0000
 20
0.0000
 30
0.0000
 40
0.4064
 41
0.4064
 70
0
  0
VERTEX
  8
16
 10
48.1584
 20
42.6720
 30
0.0000
  0
VERTEX
  8
16
 10
48.1584
 20
48.1584
 30
0.0000
  0
SEQEND
  8
0
  0
POLYLINE
  8
16
 66
1
 10
0.0000
 20
0.0000
 30
0.0000
 40
0.2032
 41
0.2032
 70
0
  0
VERTEX
  8
16
 10
48.2600
 20
48.1584
 30
0.0000
 42
1.0000
  0
VERTEX
  8
16
 10
48.0568
 20
48.1584
 30
0.0000
  0
SEQEND
  8
0
  0
POLYLINE
  8
16
 66
1
 10
0.0000
 20
0.0000
 30
0.0000
 40
0.2032
 41
0.2032
 70
0
  0
VERTEX
  8
16
 10
48.0568
 20
42.6720
 30
0.0000
 42
1.0000
  0
VERTEX
  8
16
 10
48.2600
 20
42.6720
 30
0.0000
  0
SEQEND
  8
0
  0
POLYLINE
  8
16
 66
1
 10
0.0000
 20
0.0000
 30
0.0000
 40
0.4064
 41
0.4064
 70
0
  0
VERTEX
  8
16
 10
48.1584
 20
48.1584
 30
0.0000
  0
VERTEX
  8
16
 10
48.2600
 20
48.2600
 30
0.0000
  0
SEQEND
  8
0
  0
POLYLINE
  8
16
 66
1
 10
0.0000
 20
0.0000
 30
0.0000
 40
0.2032
 41
0.2032
 70
0
  0
VERTEX
  8
16
 10
48.3318
 20
48.1882
 30
0.0000
 42
1.0000
  0
VERTEX
  8
16
 10
48.1882
 20
48.3318
 30
0.0000
  0
SEQEND
  8
0
  0
POLYLINE
  8
16
 66
1
 10
0.0000
 20
0.0000
 30
0.0000
 40
0.2032
 41
0.2032
 70
0
  0
VERTEX
  8
16
 10
48.0866
 20
48.2302
 30
0.0000
 42
1.0000
  0
VERTEX
  8
16
 10
48.2302
 20
48.0866
 30
0.0000
  0
SEQEND
  8
0
  0
LINE
  8
19
 10
48.2600
 20
48.2600
 30
0.0000
 11
48.2600
 21
50.8000
 31
0.0000
  0
POLYLINE
  8
16
 66
1
 10
0.0000
 20
0.0000
 30
0.0000
 40
1.2700
 41
1.2700
 70
0
  0
VERTEX
  8
16
 10
10.1600
 20
28.2956
 30
0.0000
  0
VERTEX
  8
16
 10
10.1600
 20
22.4536
 30
0.0000
  0
SEQEND
  8
0
  0
POLYLINE
  8
16
 66
1
 10
0.0000
 20
0.0000
 30
0.0000
 40
0.6350
 41
0.6350
 70
0
  0
VERTEX
  8
16
 10
9.8425
 20
22.4536
 30
0.0000
 42
1.0000
  0
VERTEX
  8
16
 10
10.4775
 20
22.4536
 30
0.0000
  0
SEQEND
  8
0
  0
POLYLINE
  8
16
 66
1
 10
0.0000
 20
0.0000
 30
0.0000
 40
0.6350
 41
0.6350
 70
0
  0
VERTEX
  8
16
 10
10.4775
 20
28.2956
 30
0.0000
 42
1.0000
  0
VERTEX
  8
16
 10
9.8425
 20
28.2956
 30
0.0000
  0
SEQEND
  8
0
  0
POLYLINE
  8
16
 66
1
 10
0.0000
 20
0.0000
 30
0.0000
 40
0.6096
 41
0.6096
 70
0
  0
VERTEX
  8
16
 10
30.4800
 20
2.5400
 30
0.0000
  0
VERTEX
  8
16
 10
30.4800
 20
5.0800
 30
0.0000
  0
SEQEND
  8
0
  0
POLYLINE
  8
16
 66
1
 10
0.0000
 20
0.0000
 30
0.0000
 40
0.3048
 41
0.3048
 70
0
  0
VERTEX
  8
16
 10
30.6324
 20
5.0800
 30
0.0000
 42
1.0000
  0
VERTEX
  8
16
 10
30.3276
 20
5.0800
 30
0.0000
  0
SEQEND
  8
0
  0
POLYLINE
  8
16
 66
1
 10
0.0000
 20
0.0000
 30
0.0000
 40
0.3048
 41
0.3048
 70
0
  0
VERTEX
  8
16
 10
30.3276
 20
2.5400
 30
0.0000
 42
1.0000
  0
VERTEX
  8
16
 10
30.6324
 20
2.5400
 30
0.0000
  0
SEQEND
  8
0
  0
POLYLINE
  8
16
 66
1
 10
0.0000
 20
0.0000
 30
0.0000
 40
0.6096
 41
0.6096
 70
0
  0
VERTEX
  8
16
 10
27.9400
 20
2.5400
 30
0.0000
  0
VERTEX
  8
16
 10
27.9400
 20
5.0800
 30
0.0000
  0
SEQEND
  8
0
  0
POLYLINE
  8
16
 66
1
 10
0.0000
 20
0.0000
 30
0.0000
 40
0.3048
 41
0.3048
 70
0
  0
VERTEX
  8
16
 10
28.0924
 20
5.0800
 30
0.0000
 42
1.0000
  0
VERTEX
  8
16
 10
27.7876
 20
5.0800
 30
0.0000
  0
SEQEND
  8
0
  0
POLYLINE
  8
16
 66
1
 10
0.0000
 20
0.0000
 30
0.0000
 40
0.3048
 41
0.3048
 70
0
  0
VERTEX
  8
16
 10
27.7876
 20
2.5400
 30
0.0000
 42
1.0000
  0
VERTEX
  8
16
 10
28.0924
 20
2.5400
 30
0.0000
  0
SEQEND
  8
0
  0
POLYLINE
  8
16
 66
1
 10
0.0000
 20
0.0000
 30
0.0000
 40
1.2700
 41
1.2700
 70
0
  0
VERTEX
  8
16
 10
12.7000
 20
28.2956
 30
0.0000
  0
VERTEX
  8
16
 10
12.7000
 20
22.4536
 30
0.0000
  0
SEQEND
  8
0
  0
POLYLINE
  8
16
 66
1
 10
0.0000
 20
0.0000
 30
0.0000
 40
0.6350
 41
0.6350
 70
0
  0
VERTEX
  8
16
 10
12.3825
 20
22.4536
 30
0.0000
 42
1.0000
  0
VERTEX
  8
16
 10
13.0175
 20
22.4536
 30
0.0000
  0
SEQEND
  8
0
  0
POLYLINE
  8
16
 66
1
 10
0.0000
 20
0.0000
 30
0.0000
 40
0.6350
 41
0.6350
 70
0
  0
VERTEX
  8
16
 10
13.0175
 20
28.2956
 30
0.0000
 42
1.0000
  0
VERTEX
  8
16
 10
12.3825
 20
28.2956
 30
0.0000
  0
SEQEND
  8
0
  0
POLYLINE
  8
16
 66
1
 10
0.0000
 20
0.0000
 30
0.0000
 40
1.2700
 41
1.2700
 70
0
  0
VERTEX
  8
16
 10
15.2400
 20
28.2956
 30
0.0000
  0
VERTEX
  8
16
 10
15.2400
 20
22.4536
 30
0.0000
  0
SEQEND
  8
0
  0
POLYLINE
  8
16
 66
1
 10
0.0000
 20
0.0000
 30
0.0000
 40
0.6350
 41
0.6350
 70
0
  0
VERTEX
  8
16
 10
14.9225
 20
22.4536
 30
0.0000
 42
1.0000
  0
VERTEX
  8
16
 10
15.5575
 20
22.4536
 30
0.0000
  0
SEQEND
  8
0
  0
POLYLINE
  8
16
 66
1
 10
0.0000
 20
0.0000
 30
0.0000
 40
0.6350
 41
0.6350
 70
0
  0
VERTEX
  8
16
 10
15.5575
 20
28.2956
 30
0.0000
 42
1.0000
  0
VERTEX
  8
16
 10
14.9225
 20
28.2956
 30
0.0000
  0
SEQEND
  8
0
  0
POLYLINE
  8
16
 66
1
 10
0.0000
 20
0.0000
 30
0.0000
 40
1.2700
 41
1.2700
 70
0
  0
VERTEX
  8
16
 10
17.7800
 20
28.2956
 30
0.0000
  0
VERTEX
  8
16
 10
17.7800
 20
22.4536
 30
0.0000
  0
SEQEND
  8
0
  0
POLYLINE
  8
16
 66
1
 10
0.0000
 20
0.0000
 30
0.0000
 40
0.6350
 41
0.6350
 70
0
  0
VERTEX
  8
16
 10
17.4625
 20
22.4536
 30
0.0000
 42
1.0000
  0
VERTEX
  8
16
 10
18.0975
 20
22.4536
 30
0.0000
  0
SEQEND
  8
0
  0
POLYLINE
  8
16
 66
1
 10
0.0000
 20
0.0000
 30
0.0000
 40
0.6350
 41
0.6350
 70
0
  0
VERTEX
  8
16
 10
18.0975
 20
28.2956
 30
0.0000
 42
1.0000
  0
VERTEX
  8
16
 10
17.4625
 20
28.2956
 30
0.0000
  0
SEQEND
  8
0
  0
POLYLINE
  8
16
 66
1
 10
0.0000
 20
0.0000
 30
0.0000
 40
1.2700
 41
1.2700
 70
0
  0
VERTEX
  8
16
 10
34.2900
 20
28.2956
 30
0.0000
  0
VERTEX
  8
16
 10
34.2900
 20
22.4536
 30
0.0000
  0
SEQEND
  8
0
  0
POLYLINE
  8
16
 66
1
 10
0.0000
 20
0.0000
 30
0.0000
 40
0.6350
 41
0.6350
 70
0
  0
VERTEX
  8
16
 10
33.9725
 20
22.4536
 30
0.0000
 42
1.0000
  0
VERTEX
  8
16
 10
34.6075
 20
22.4536
 30
0.0000
  0
SEQEND
  8
0
  0
POLYLINE
  8
16
 66
1
 10
0.0000
 20
0.0000
 30
0.0000
 40
0.6350
 41
0.6350
 70
0
  0
VERTEX
  8
16
 10
34.6075
 20
28.2956
 30
0.0000
 42
1.0000
  0
VERTEX
  8
16
 10
33.9725
 20
28.2956
 30
0.0000
  0
SEQEND
  8
0
  0
POLYLINE
  8
16
 66
1
 10
0.0000
 20
0.0000
 30
0.0000
 40
1.2700
 41
1.2700
 70
0
  0
VERTEX
  8
16
 10
36.8300
 20
28.2956
 30
0.0000
  0
VERTEX
  8
16
 10
36.8300
 20
22.4536
 30
0.0000
  0
SEQEND
  8
0
  0
POLYLINE
  8
16
 66
1
 10
0.0000
 20
0.0000
 30
0.0000
 40
0.6350
 41
0.6350
 70
0
  0
VERTEX
  8
16
 10
36.5125
 20
22.4536
 30
0.0000
 42
1.0000
  0
VERTEX
  8
16
 10
37.1475
 20
22.4536
 30
0.0000
  0
SEQEND
  8
0
  0
POLYLINE
  8
16
 66
1
 10
0.0000
 20
0.0000
 30
0.0000
 40
0.6350
 41
0.6350
 70
0
  0
VERTEX
  8
16
 10
37.1475
 20
28.2956
 30
0.0000
 42
1.0000
  0
VERTEX
  8
16
 10
36.5125
 20
28.2956
 30
0.0000
  0
SEQEND
  8
0
  0
POLYLINE
  8
16
 66
1
 10
0.0000
 20
0.0000
 30
0.0000
 40
1.2700
 41
1.2700
 70
0
  0
VERTEX
  8
16
 10
39.3700
 20
28.2956
 30
0.0000
  0
VERTEX
  8
16
 10
39.3700
 20
22.4536
 30
0.0000
  0
SEQEND
  8
0
  0
POLYLINE
  8
16
 66
1
 10
0.0000
 20
0.0000
 30
0.0000
 40
0.6350
 41
0.6350
 70
0
  0
VERTEX
  8
16
 10
39.0525
 20
22.4536
 30
0.0000
 42
1.0000
  0
VERTEX
  8
16
 10
39.6875
 20
22.4536
 30
0.0000
  0
SEQEND
  8
0
  0
POLYLINE
  8
16
 66
1
 10
0.0000
 20
0.0000
 30
0.0000
 40
0.6350
 41
0.6350
 70
0
  0
VERTEX
  8
16
 10
39.6875
 20
28.2956
 30
0.0000
 42
1.0000
  0
VERTEX
  8
16
 10
39.0525
 20
28.2956
 30
0.0000
  0
SEQEND
  8
0
  0
POLYLINE
  8
16
 66
1
 10
0.0000
 20
0.0000
 30
0.0000
 40
0.4064
 41
0.4064
 70
0
  0
VERTEX
  8
16
 10
43.1800
 20
2.5400
 30
0.0000
  0
VERTEX
  8
16
 10
43.1800
 20
5.0800
 30
0.0000
  0
SEQEND
  8
0
  0
POLYLINE
  8
16
 66
1
 10
0.0000
 20
0.0000
 30
0.0000
 40
0.2032
 41
0.2032
 70
0
  0
VERTEX
  8
16
 10
43.2816
 20
5.0800
 30
0.0000
 42
1.0000
  0
VERTEX
  8
16
 10
43.0784
 20
5.0800
 30
0.0000
  0
SEQEND
  8
0
  0
POLYLINE
  8
16
 66
1
 10
0.0000
 20
0.0000
 30
0.0000
 40
0.2032
 41
0.2032
 70
0
  0
VERTEX
  8
16
 10
43.0784
 20
2.5400
 30
0.0000
 42
1.0000
  0
VERTEX
  8
16
 10
43.2816
 20
2.5400
 30
0.0000
  0
SEQEND
  8
0
  0
POLYLINE
  8
16
 66
1
 10
0.0000
 20
0.0000
 30
0.0000
 40
0.6096
 41
0.6096
 70
0
  0
VERTEX
  8
16
 10
21.3360
 20
48.2600
 30
0.0000
  0
VERTEX
  8
16
 10
21.3360
 20
50.8000
 30
0.0000
  0
SEQEND
  8
0
  0
POLYLINE
  8
16
 66
1
 10
0.0000
 20
0.0000
 30
0.0000
 40
0.3048
 41
0.3048
 70
0
  0
VERTEX
  8
16
 10
21.4884
 20
50.8000
 30
0.0000
 42
1.0000
  0
VERTEX
  8
16
 10
21.1836
 20
50.8000
 30
0.0000
  0
SEQEND
  8
0
  0
POLYLINE
  8
16
 66
1
 10
0.0000
 20
0.0000
 30
0.0000
 40
0.3048
 41
0.3048
 70
0
  0
VERTEX
  8
16
 10
21.1836
 20
48.2600
 30
0.0000
 42
1.0000
  0
VERTEX
  8
16
 10
21.4884
 20
48.2600
 30
0.0000
  0
SEQEND
  8
0
  0
POLYLINE
  8
16
 66
1
 10
0.0000
 20
0.0000
 30
0.0000
 40
0.6096
 41
0.6096
 70
0
  0
VERTEX
  8
16
 10
18.7960
 20
48.2600
 30
0.0000
  0
VERTEX
  8
16
 10
18.7960
 20
50.8000
 30
0.0000
  0
SEQEND
  8
0
  0
POLYLINE
  8
16
 66
1
 10
0.0000
 20
0.0000
 30
0.0000
 40
0.3048
 41
0.3048
 70
0
  0
VERTEX
  8
16
 10
18.9484
 20
50.8000
 30
0.0000
 42
1.0000
  0
VERTEX
  8
16
 10
18.6436
 20
50.8000
 30
0.0000
  0
SEQEND
  8
0
  0
POLYLINE
  8
16
 66
1
 10
0.0000
 20
0.0000
 30
0.0000
 40
0.3048
 41
0.3048
 70
0
  0
VERTEX
  8
16
 10
18.6436
 20
48.2600
 30
0.0000
 42
1.0000
  0
VERTEX
  8
16
 10
18.9484
 20
48.2600
 30
0.0000
  0
SEQEND
  8
0
  0
POLYLINE
  8
16
 66
1
 10
0.0000
 20
0.0000
 30
0.0000
 40
0.6096
 41
0.6096
 70
0
  0
VERTEX
  8
16
 10
23.8760
 20
48.2600
 30
0.0000
  0
VERTEX
  8
16
 10
23.8760
 20
50.8000
 30
0.0000
  0
SEQEND
  8
0
  0
POLYLINE
  8
16
 66
1
 10
0.0000
 20
0.0000
 30
0.0000
 40
0.3048
 41
0.3048
 70
0
  0
VERTEX
  8
16
 10
24.0284
 20
50.8000
 30
0.0000
 42
1.0000
  0
VERTEX
  8
16
 10
23.7236
 20
50.8000
 30
0.0000
  0
SEQEND
  8
0
  0
POLYLINE
  8
16
 66
1
 10
0.0000
 20
0.0000
 30
0.0000
 40
0.3048
 41
0.3048
 70
0
  0
VERTEX
  8
16
 10
23.7236
 20
48.2600
 30
0.0000
 42
1.0000
  0
VERTEX
  8
16
 10
24.0284
 20
48.2600
 30
0.0000
  0
SEQEND
  8
0
  0
POLYLINE
  8
16
 66
1
 10
0.0000
 20
0.0000
 30
0.0000
 40
0.6096
 41
0.6096
 70
0
  0
VERTEX
  8
16
 10
35.5600
 20
2.5400
 30
0.0000
  0
VERTEX
  8
16
 10
35.5600
 20
5.0800
 30
0.0000
  0
SEQEND
  8
0
  0
POLYLINE
  8
16
 66
1
 10
0.0000
 20
0.0000
 30
0.0000
 40
0.3048
 41
0.3048
 70
0
  0
VERTEX
  8
16
 10
35.7124
 20
5.0800
 30
0.0000
 42
1.0000
  0
VERTEX
  8
16
 10
35.4076
 20
5.0800
 30
0.0000
  0
SEQEND
  8
0
  0
POLYLINE
  8
16
 66
1
 10
0.0000
 20
0.0000
 30
0.0000
 40
0.3048
 41
0.3048
 70
0
  0
VERTEX
  8
16
 10
35.4076
 20
2.5400
 30
0.0000
 42
1.0000
  0
VERTEX
  8
16
 10
35.7124
 20
2.5400
 30
0.0000
  0
SEQEND
  8
0
  0
POLYLINE
  8
16
 66
1
 10
0.0000
 20
0.0000
 30
0.0000
 40
0.6096
 41
0.6096
 70
0
  0
VERTEX
  8
16
 10
33.0200
 20
5.0800
 30
0.0000
  0
VERTEX
  8
16
 10
33.0200
 20
2.5400
 30
0.0000
  0
SEQEND
  8
0
  0
POLYLINE
  8
16
 66
1
 10
0.0000
 20
0.0000
 30
0.0000
 40
0.3048
 41
0.3048
 70
0
  0
VERTEX
  8
16
 10
32.8676
 20
2.5400
 30
0.0000
 42
1.0000
  0
VERTEX
  8
16
 10
33.1724
 20
2.5400
 30
0.0000
  0
SEQEND
  8
0
  0
POLYLINE
  8
16
 66
1
 10
0.0000
 20
0.0000
 30
0.0000
 40
0.3048
 41
0.3048
 70
0
  0
VERTEX
  8
16
 10
33.1724
 20
5.0800
 30
0.0000
 42
1.0000
  0
VERTEX
  8
16
 10
32.8676
 20
5.0800
 30
0.0000
  0
SEQEND
  8
0
  0
ENDSEC
  0
EOF
