  0
SECTION
  2
HEADER
  9
$ACADVER
  1
AC1015
  9
$ACADMAINTVER
 70
     6
  9
$DWGCODEPAGE
  3
DOS850
  9
$INSBASE
 10
0.0
 20
0.0
 30
0.0
  9
$EXTMIN
 10
-52.7881
 20
25.2119
 30
1.0
  9
$EXTMAX
 10
-8.2119
 20
69.7881
 30
1.0
  9
$LIMMIN
 10
0.0
 20
0.0
  9
$LIMMAX
 10
0.0
 20
0.0
  9
$ORTHOMODE
 70
     0
  9
$REGENMODE
 70
     1
  9
$FILLMODE
 70
     1
  9
$QTEXTMODE
 70
     0
  9
$MIRRTEXT
 70
     1
  9
$LTSCALE
 40
1.0
  9
$ATTMODE
 70
     1
  9
$TEXTSIZE
 40
0.2
  9
$TRACEWID
 40
0.05
  9
$TEXTSTYLE
  7
Standard
  9
$CLAYER
  8
0
  9
$CELTYPE
  6
Continuous
  9
$CECOLOR
 62
   256
  9
$CELTSCALE
 40
1.0
  9
$DISPSILH
 70
     0
  9
$DIMSCALE
 40
1.0
  9
$DIMASZ
 40
0.18
  9
$DIMEXO
 40
0.0625
  9
$DIMDLI
 40
0.38
  9
$DIMRND
 40
0.0
  9
$DIMDLE
 40
0.0
  9
$DIMEXE
 40
0.18
  9
$DIMTP
 40
0.0
  9
$DIMTM
 40
0.0
  9
$DIMTXT
 40
0.18
  9
$DIMCEN
 40
0.09
  9
$DIMTSZ
 40
0.0
  9
$DIMTOL
 70
     0
  9
$DIMLIM
 70
     0
  9
$DIMTIH
 70
     1
  9
$DIMTOH
 70
     1
  9
$DIMSE1
 70
     0
  9
$DIMSE2
 70
     0
  9
$DIMTAD
 70
     0
  9
$DIMZIN
 70
     0
  9
$DIMBLK
  1

  9
$DIMASO
 70
     1
  9
$DIMSHO
 70
     1
  9
$DIMPOST
  1

  9
$DIMAPOST
  1

  9
$DIMALT
 70
     0
  9
$DIMALTD
 70
     2
  9
$DIMALTF
 40
25.4
  9
$DIMLFAC
 40
1.0
  9
$DIMTOFL
 70
     0
  9
$DIMTVP
 40
0.0
  9
$DIMTIX
 70
     0
  9
$DIMSOXD
 70
     0
  9
$DIMSAH
 70
     0
  9
$DIMBLK1
  1

  9
$DIMBLK2
  1

  9
$DIMSTYLE
  2
Standard
  9
$DIMCLRD
 70
     0
  9
$DIMCLRE
 70
     0
  9
$DIMCLRT
 70
     0
  9
$DIMTFAC
 40
1.0
  9
$DIMGAP
 40
0.09
  9
$DIMJUST
 70
     0
  9
$DIMSD1
 70
     0
  9
$DIMSD2
 70
     0
  9
$DIMTOLJ
 70
     1
  9
$DIMTZIN
 70
     0
  9
$DIMALTZ
 70
     0
  9
$DIMALTTZ
 70
     0
  9
$DIMUPT
 70
     0
  9
$DIMDEC
 70
     4
  9
$DIMTDEC
 70
     4
  9
$DIMALTU
 70
     2
  9
$DIMALTTD
 70
     2
  9
$DIMTXSTY
  7
Standard
  9
$DIMAUNIT
 70
     0
  9
$DIMADEC
 70
     0
  9
$DIMALTRND
 40
0.0
  9
$DIMAZIN
 70
     0
  9
$DIMDSEP
 70
     0
  9
$DIMATFIT
 70
     3
  9
$DIMFRAC
 70
     0
  9
$DIMLDRBLK
  1

  9
$DIMLUNIT
 70
     2
  9
$DIMLWD
 70
     0
  9
$DIMLWE
 70
     0
  9
$DIMTMOVE
 70
     0
  9
$LUNITS
 70
     2
  9
$LUPREC
 70
     4
  9
$SKETCHINC
 40
0.1
  9
$FILLETRAD
 40
0.0
  9
$AUNITS
 70
     0
  9
$AUPREC
 70
     0
  9
$MENU
  1
acad
  9
$ELEVATION
 40
0.0
  9
$PELEVATION
 40
0.0
  9
$THICKNESS
 40
0.0
  9
$LIMCHECK
 70
     0
  9
$CHAMFERA
 40
0.0
  9
$CHAMFERB
 40
0.0
  9
$CHAMFERC
 40
0.0
  9
$CHAMFERD
 40
0.0
  9
$SKPOLY
 70
     0
  9
$TDCREATE
 40
0.000000000
  9
$TDUCREATE
 40
0.000000000
  9
$TDUPDATE
 40
0.000000000
  9
$TDUUPDATE
 40
0.000000000
  9
$TDINDWG
 40
0.0000000000
  9
$TDUSRTIMER
 40
0.0000000000
  9
$USRTIMER
 70
     1
  9
$ANGBASE
 50
0.0
  9
$ANGDIR
 70
     0
  9
$PDMODE
 70
     0
  9
$PDSIZE
 40
0.0
  9
$PLINEWID
 40
0.0
  9
$SPLFRAME
 70
     0
  9
$SPLINETYPE
 70
     6
  9
$SPLINESEGS
 70
     8
  9
$HANDSEED
  5
37
  9
$SURFTAB1
 70
     6
  9
$SURFTAB2
 70
     6
  9
$SURFTYPE
 70
     6
  9
$SURFU
 70
     6
  9
$SURFV
 70
     6
  9
$UCSBASE
  2

  9
$UCSNAME
  2

  9
$UCSORG
 10
0.0
 20
0.0
 30
0.0
  9
$UCSXDIR
 10
1.0
 20
0.0
 30
0.0
  9
$UCSYDIR
 10
0.0
 20
1.0
 30
0.0
  9
$UCSORTHOREF
  2

  9
$UCSORTHOVIEW
 70
     0
  9
$UCSORGTOP
 10
0.0
 20
0.0
 30
0.0
  9
$UCSORGBOTTOM
 10
0.0
 20
0.0
 30
0.0
  9
$UCSORGLEFT
 10
0.0
 20
0.0
 30
0.0
  9
$UCSORGRIGHT
 10
0.0
 20
0.0
 30
0.0
  9
$UCSORGFRONT
 10
0.0
 20
0.0
 30
0.0
  9
$UCSORGBACK
 10
0.0
 20
0.0
 30
0.0
  9
$PUCSBASE
  2

  9
$PUCSNAME
  2

  9
$PUCSORG
 10
0.0
 20
0.0
 30
0.0
  9
$PUCSXDIR
 10
1.0
 20
0.0
 30
0.0
  9
$PUCSYDIR
 10
0.0
 20
1.0
 30
0.0
  9
$PUCSORTHOREF
  2

  9
$PUCSORTHOVIEW
 70
     0
  9
$PUCSORGTOP
 10
0.0
 20
0.0
 30
0.0
  9
$PUCSORGBOTTOM
 10
0.0
 20
0.0
 30
0.0
  9
$PUCSORGLEFT
 10
0.0
 20
0.0
 30
0.0
  9
$PUCSORGRIGHT
 10
0.0
 20
0.0
 30
0.0
  9
$PUCSORGFRONT
 10
0.0
 20
0.0
 30
0.0
  9
$PUCSORGBACK
 10
0.0
 20
0.0
 30
0.0
  9
$USERI1
 70
     0
  9
$USERI2
 70
     0
  9
$USERI3
 70
     0
  9
$USERI4
 70
     0
  9
$USERI5
 70
     0
  9
$USERR1
 40
0.0
  9
$USERR2
 40
0.0
  9
$USERR3
 40
0.0
  9
$USERR4
 40
0.0
  9
$USERR5
 40
0.0
  9
$WORLDVIEW
 70
     1
  9
$SHADEDGE
 70
     3
  9
$SHADEDIF
 70
    70
  9
$TILEMODE
 70
     1
  9
$MAXACTVP
 70
    16
  9
$PINSBASE
 10
0.0
 20
0.0
 30
0.0
  9
$PLIMCHECK
 70
     0
  9
$PEXTMIN
 10
1.000000E+20
 20
1.000000E+20
 30
1.000000E+20
  9
$PEXTMAX
 10
-1.000000E+20
 20
-1.000000E+20
 30
-1.000000E+20
  9
$PLIMMIN
 10
0.0
 20
0.0
  9
$PLIMMAX
 10
12.0
 20
9.0
  9
$UNITMODE
 70
     0
  9
$VISRETAIN
 70
     0
  9
$PLINEGEN
 70
     1
  9
$PSLTSCALE
 70
     0
  9
$TREEDEPTH
 70
  3020
  9
$CMLSTYLE
  2
Standard
  9
$CMLJUST
 70
     0
  9
$CMLSCALE
 40
1.0
  9
$PROXYGRAPHICS
 70
     0
  9
$MEASUREMENT
 70
     0
  9
$CELWEIGHT
370
     0
  9
$ENDCAPS
280
     0
  9
$JOINSTYLE
280
     0
  9
$LWDISPLAY
290
     0
  9
$INSUNITS
 70
     4
  9
$HYPERLINKBASE
  1

  9
$XEDIT
290
     1
  9
$CEPSNTYPE
380
     0
  9
$PSTYLEMODE
290
     1
  9
$FINGERPRINTGUID
  2

  9
$VERSIONGUID
  2

  9
$EXTNAMES
290
     1
  9
$PSVPSCALE
 40
0.0
  0
ENDSEC
  0
SECTION
  2
CLASSES
  0
CLASS
  1
LWPOLYLINE
  2
AcDbPolyline
  3
AutoCAD 2000
 90
    32768
280
     0
281
     1
  0
CLASS
  1
IMAGE
  2
AcDbRasterImage
  3
ISM
 90
    32895
280
     0
281
     1
  0
CLASS
  1
OLE2FRAME
  2
AcDbOle2Frame
  3
AutoCAD 2000
 90
    32768
280
     0
281
     1
  0
CLASS
  1
HATCH
  2
AcDbHatch
  3
AutoCAD 2000
 90
    32768
280
     0
281
     1
  0
CLASS
  1
DICTIONARYVAR
  2
AcDbDictionaryVar
  3
AutoCAD 2000
 90
    32768
280
     0
281
     0
  0
CLASS
  1
RASTERVARIABLES
  2
AcDbRasterVariables
  3
ISM
 90
    32768
280
     0
281
     0
  0
CLASS
  1
IMAGEDEF
  2
AcDbRasterImageDef
  3
ISM
 90
    32768
280
     0
281
     0
  0
CLASS
  1
IMAGEDEF_REACTOR
  2
AcDbRasterImageDefReactor
  3
ISM
 90
    32769
280
     0
281
     0
  0
CLASS
  1
IDBUFFER
  2
AcDbIdBuffer
  3
AutoCAD 2000
 90
    32768
280
     0
281
     0
  0
CLASS
  1
SPATIAL_FILTER
  2
AcDbSpatialFilter
  3
AutoCAD 2000
 90
    32768
280
     0
281
     0
  0
CLASS
  1
XRECORD
  2
AcDbXrecord
  3
AutoCAD 2000
 90
    32768
280
     0
281
     0
  0
CLASS
  1
SORTENTSTABLE
  2
AcDbSortentsTable
  3
AutoCAD 2000
 90
    32768
280
     0
281
     0
  0
CLASS
  1
LAYER_INDEX
  2
AcDbLayerIndex
  3
AutoCAD 2000
 90
    32768
280
     0
281
     0
  0
CLASS
  1
SPATIAL_INDEX
  2
AcDbSpatialIndex
  3
AutoCAD 2000
 90
    32768
280
     0
281
     0
  0
CLASS
  1
OBJECT_PTR
  2
CAseDLPNTableRecord
  3
"ASE-LPNTableRecord"
 90
    32769
280
     0
281
     0
  0
CLASS
  1
LAYOUT
  2
AcDbLayout
  3
AutoCAD 2000
 90
        0
280
     0
281
     0
  0
CLASS
  1
PLOTSETTINGS
  2
AcDbPlotSettings
  3
AutoCAD 2000
 90
    32768
280
     0
281
     0
  0
CLASS
  1
ACDBDICTIONARYWDFLT
  2
AcDbDictionaryWithDefault
  3
AutoCAD 2000
 90
        0
280
     0
281
     0
  0
CLASS
  1
ACDBPLACEHOLDER
  2
AcDbPlaceHolder
  3
AutoCAD 2000
 90
        0
280
     0
281
     0
  0
CLASS
  1
VBA_PROJECT
  2
AcDbVbaProject
  3
acadvba
 90
    32768
280
     0
281
     0
  0
CLASS
  1
WIPEOUT
  2
AcDbWipeout
  3
WipeOut|AutoCAD Express Tool|expresstools@autodesk.com
 90
    32895
280
     0
281
     1
  0
CLASS
  1
WIPEOUTVARIABLES
  2
AcDbWipeoutVariables
  3
WipeOut|AutoCAD Express Tool|expresstools@autodesk.com
 90
        0
280
     0
281
     0
  0
CLASS
  1
RTEXT
  2
RText
  3
RText|AutoCAD Express Tool|expresstools@autodesk.com
 90
    32768
280
     0
281
     1
  0
CLASS
  1
ARCALIGNEDTEXT
  2
AcDbArcAlignedText
  3
ATEXT|AutoCAD Express Tool|expresstools@autodesk.com
 90
    32768
280
     0
281
     1
  0
ENDSEC
  0
SECTION
  2
TABLES
  0
TABLE
  2
VPORT
  5
7
100
AcDbSymbolTable
 70
     1
  0
VPORT
  5
15
100
AcDbSymbolTableRecord
100
AcDbViewportTableRecord
  2
*ACTIVE
 70
     0
 10
0.0
 20
0.0
 11
1.0
 21
1.0
 12
6.591288
 22
4.579184
 13
0.0
 23
0.0
 14
1.0
 24
1.0
 15
0.0
 25
0.0
 16
0.0
 26
0.0
 36
1.0
 17
0.0
 27
0.0
 37
0.0
 40
9.158369
 41
0.688564
 42
50.0
 43
0.0
 44
0.0
 50
0.0
 51
0.0
 71
     0
 72
   100
 73
     1
 74
     1
 75
     0
 76
     0
 77
     0
 78
     0
281
     0
 65
     0
110
0.0
120
0.0
130
0.0
111
1.0
121
0.0
131
0.0
112
0.0
122
1.0
132
0.0
345
0
346
0
 79
     0
146
0.0
  0
ENDTAB
  0
TABLE
  2
LTYPE
  5
4
100
AcDbSymbolTable
 70
     3
  0
LTYPE
  5
11
100
AcDbSymbolTableRecord
100
AcDbLinetypeTableRecord
  2
ByBlock
 70
    64
  3

 72
    65
 73
     0
 40
0.0
  0
LTYPE
  5
12
100
AcDbSymbolTableRecord
100
AcDbLinetypeTableRecord
  2
ByLayer
 70
    64
  3

 72
    65
 73
     0
 40
0.0
  0
LTYPE
  5
13
100
AcDbSymbolTableRecord
100
AcDbLinetypeTableRecord
  2
Continuous
 70
    64
  3
Solid line
 72
    65
 73
     0
 40
0.0
  0
ENDTAB
  0
TABLE
  2
LAYER
  5
2
100
AcDbSymbolTable
 70
     2
  0
LAYER
  5
14
100
AcDbSymbolTableRecord
100
AcDbLayerTableRecord
  2
0
 70
     0
 62
     7
  6
Continuous
290
     1
370
    -3
390
1D
  0
LAYER
  5
24
100
AcDbSymbolTableRecord
100
AcDbLayerTableRecord
  2
Ebene 1
 70
     0
 62
     7
  6
Continuous
290
     1
370
    -3
390
1F
  0
ENDTAB
  0
TABLE
  2
STYLE
  5
3
100
AcDbSymbolTable
 70
     1
  0
STYLE
  5
17
100
AcDbSymbolTableRecord
100
AcDbTextStyleTableRecord
  2
Standard
 70
     0
 40
0.0
 41
1.0
 50
0.0
 71
     0
 42
0.0
  3
txt
  4

  0
ENDTAB
  0
TABLE
  2
VIEW
  5
5
100
AcDbSymbolTable
 70
     0
  0
ENDTAB
  0
TABLE
  2
UCS
  5
6
100
AcDbSymbolTable
 70
     0
  0
ENDTAB
  0
TABLE
  2
APPID
  5
8
100
AcDbSymbolTable
 70
     1
  0
APPID
  5
16
100
AcDbSymbolTableRecord
100
AcDbRegAppTableRecord
  2
ACAD
 70
     0
  0
ENDTAB
  0
TABLE
  2
DIMSTYLE
  5
9
100
AcDbSymbolTable
 70
     1
100
AcDbDimStyleTable
 71
     0
  0
DIMSTYLE
105
18
100
AcDbSymbolTableRecord
100
AcDbDimStyleTableRecord
  2
Standard
 70
     0
  3

  4

 40
1.0
 41
0.18
 42
0.0625
 43
0.38
 44
0.18
 45
0.0
 46
0.0
 47
0.0
 48
0.0
 71
     0
 72
     0
 73
     1
 74
     1
 75
     0
 76
     0
 77
     0
 78
     0
 79
     0
140
0.18
141
0.09
142
0.0
143
25.4
144
1.0
145
0.0
146
1.0
147
0.09
148
0.0
170
     0
171
     2
172
     0
173
     0
174
     0
175
     0
176
     0
177
     0
178
     0
179
     0
271
     4
272
     4
273
     2
274
     2
275
     0
276
     0
277
     2
278
    46
279
     0
280
     0
281
     0
282
     0
283
     1
284
     0
285
     0
286
     0
288
     0
340
17
341
0
342
0
343
0
344
0
371
    -2
372
    -2
  0
ENDTAB
  0
TABLE
  2
BLOCK_RECORD
  5
1
100
AcDbSymbolTable
 70
     0
  0
BLOCK_RECORD
  5
A
100
AcDbSymbolTableRecord
100
AcDbBlockTableRecord
  2
*MODEL_SPACE
340
20
  0
BLOCK_RECORD
  5
B
100
AcDbSymbolTableRecord
100
AcDbBlockTableRecord
  2
*PAPER_SPACE
340
21
  0
ENDTAB
  0
ENDSEC
  0
SECTION
  2
BLOCKS
  0
BLOCK
  5
D
100
AcDbEntity
  8
0
100
AcDbBlockBegin
  2
*MODEL_SPACE
 70
     0
 10
0.0
 20
0.0
 30
0.0
  3
*MODEL_SPACE
  1

  0
ENDBLK
  5
E
100
AcDbEntity
  8
0
100
AcDbBlockEnd
  0
BLOCK
  5
F
100
AcDbEntity
 67
     1
  8
0
100
AcDbBlockBegin
  2
*PAPER_SPACE
 70
     0
 10
0.0
 20
0.0
 30
0.0
  3
*PAPER_SPACE
  1

  0
ENDBLK
  5
10
100
AcDbEntity
 67
     1
  8
0
100
AcDbBlockEnd
  0
ENDSEC
  0
SECTION
  2
ENTITIES
  0
ELLIPSE
  5
25
100
AcDbEntity
  8
Ebene 1
100
AcDbEllipse
 10
-30.5
 20
47.5
 30
0.0
 11
0.0
 21
12.0
 31
0.0
210
0.0
220
0.0
230
1.0
 40
1.0
 41
0.0
 42
6.2831853080000002
  0
SPLINE
  5
26
100
AcDbEntity
  8
Ebene 1
100
AcDbSpline
210
0.0
220
0.0
230
1.0
 70
     1
 71
     3
 72
    52
 73
    48
 74
     0
 42
0.0000000001
 43
0.0000000001
 40
0.0
 40
0.0
 40
0.0
 40
0.0
 40
0.0833333333333333
 40
0.0833333333333333
 40
0.0833333333333333
 40
0.0833333333333333
 40
0.1666666666666667
 40
0.1666666666666667
 40
0.1666666666666667
 40
0.1666666666666667
 40
0.25
 40
0.25
 40
0.25
 40
0.25
 40
0.3333333333333333
 40
0.3333333333333333
 40
0.3333333333333333
 40
0.3333333333333333
 40
0.4166666666666666
 40
0.4166666666666666
 40
0.4166666666666666
 40
0.4166666666666666
 40
0.4999999999999999
 40
0.4999999999999999
 40
0.4999999999999999
 40
0.4999999999999999
 40
0.5833333333333333
 40
0.5833333333333333
 40
0.5833333333333333
 40
0.5833333333333333
 40
0.6666666666666666
 40
0.6666666666666666
 40
0.6666666666666666
 40
0.6666666666666666
 40
0.75
 40
0.75
 40
0.75
 40
0.75
 40
0.8333333333333334
 40
0.8333333333333334
 40
0.8333333333333334
 40
0.8333333333333334
 40
0.9166666666666667
 40
0.9166666666666667
 40
0.9166666666666667
 40
0.9166666666666667
 40
1.0
 40
1.0
 40
1.0
 40
1.0
 10
-49.309699999999999
 20
47.618899999999996
 30
0.0
 10
-49.309699999999999
 20
48.007199999999997
 30
0.0
 10
-49.2699
 20
48.319800000000001
 30
0.0
 10
-49.189700000000002
 20
48.555999999999997
 30
0.0
 10
-49.189700000000002
 20
48.555999999999997
 30
0.0
 10
-49.110199999999999
 20
48.792900000000003
 30
0.0
 10
-48.990900000000003
 20
48.9756
 30
0.0
 10
-48.833500000000001
 20
49.103999999999999
 30
0.0
 10
-48.833500000000001
 20
49.103999999999999
 30
0.0
 10
-48.676000000000002
 20
49.232399999999998
 30
0.0
 10
-48.478099999999998
 20
49.296599999999998
 30
0.0
 10
-48.239600000000003
 20
49.296599999999998
 30
0.0
 10
-48.239600000000003
 20
49.296599999999998
 30
0.0
 10
-48.063000000000002
 20
49.296599999999998
 30
0.0
 10
-47.9086
 20
49.2607
 30
0.0
 10
-47.775599999999997
 20
49.189599999999999
 30
0.0
 10
-47.775599999999997
 20
49.189599999999999
 30
0.0
 10
-47.642600000000002
 20
49.119300000000003
 30
0.0
 10
-47.533299999999997
 20
49.0169
 30
0.0
 10
-47.446199999999997
 20
48.883099999999999
 30
0.0
 10
-47.446199999999997
 20
48.883099999999999
 30
0.0
 10
-47.3598
 20
48.749400000000001
 30
0.0
 10
-47.291800000000002
 20
48.586599999999997
 30
0.0
 10
-47.242899999999999
 20
48.3947
 30
0.0
 10
-47.242899999999999
 20
48.3947
 30
0.0
 10
-47.193199999999997
 20
48.2029
 30
0.0
 10
-47.168700000000001
 20
47.944499999999998
 30
0.0
 10
-47.168700000000001
 20
47.618899999999996
 30
0.0
 10
-47.168700000000001
 20
47.618899999999996
 30
0.0
 10
-47.168700000000001
 20
47.233699999999999
 30
0.0
 10
-47.208500000000001
 20
46.923299999999998
 30
0.0
 10
-47.287199999999999
 20
46.686399999999999
 30
0.0
 10
-47.287199999999999
 20
46.686399999999999
 30
0.0
 10
-47.366700000000002
 20
46.449399999999997
 30
0.0
 10
-47.485199999999999
 20
46.266800000000003
 30
0.0
 10
-47.642600000000002
 20
46.137599999999999
 30
0.0
 10
-47.642600000000002
 20
46.137599999999999
 30
0.0
 10
-47.8001
 20
46.008400000000002
 30
0.0
 10
-47.998800000000003
 20
45.944200000000002
 30
0.0
 10
-48.239600000000003
 20
45.944200000000002
 30
0.0
 10
-48.239600000000003
 20
45.944200000000002
 30
0.0
 10
-48.555999999999997
 20
45.944200000000002
 30
0.0
 10
-48.804400000000001
 20
46.057299999999998
 30
0.0
 10
-48.9848
 20
46.284300000000002
 30
0.0
 10
-48.9848
 20
46.284300000000002
 30
0.0
 10
-49.201099999999997
 20
46.557200000000002
 30
0.0
 10
-49.309699999999999
 20
47.002800000000001
 30
0.0
 10
-49.309699999999999
 20
47.618899999999996
 30
0.0
  0
SPLINE
  5
27
100
AcDbEntity
  8
Ebene 1
100
AcDbSpline
210
0.0
220
0.0
230
1.0
 70
     1
 71
     3
 72
    36
 73
    32
 74
     0
 42
0.0000000001
 43
0.0000000001
 40
0.0
 40
0.0
 40
0.0
 40
0.0
 40
0.125
 40
0.125
 40
0.125
 40
0.125
 40
0.25
 40
0.25
 40
0.25
 40
0.25
 40
0.375
 40
0.375
 40
0.375
 40
0.375
 40
0.5
 40
0.5
 40
0.5
 40
0.5
 40
0.625
 40
0.625
 40
0.625
 40
0.625
 40
0.75
 40
0.75
 40
0.75
 40
0.75
 40
0.875
 40
0.875
 40
0.875
 40
0.875
 40
1.0
 40
1.0
 40
1.0
 40
1.0
 10
-48.895400000000002
 20
47.618899999999996
 30
0.0
 10
-48.895400000000002
 20
47.079999999999998
 30
0.0
 10
-48.832000000000001
 20
46.721499999999999
 30
0.0
 10
-48.705800000000004
 20
46.542700000000004
 30
0.0
 10
-48.705800000000004
 20
46.542700000000004
 30
0.0
 10
-48.579700000000003
 20
46.364600000000003
 30
0.0
 10
-48.424599999999998
 20
46.275199999999998
 30
0.0
 10
-48.239600000000003
 20
46.275199999999998
 30
0.0
 10
-48.239600000000003
 20
46.275199999999998
 30
0.0
 10
-48.053800000000003
 20
46.275199999999998
 30
0.0
 10
-47.898699999999998
 20
46.365400000000001
 30
0.0
 10
-47.772599999999997
 20
46.544199999999996
 30
0.0
 10
-47.772599999999997
 20
46.544199999999996
 30
0.0
 10
-47.646500000000003
 20
46.723100000000002
 30
0.0
 10
-47.582999999999998
 20
47.081600000000002
 30
0.0
 10
-47.582999999999998
 20
47.618899999999996
 30
0.0
 10
-47.582999999999998
 20
47.618899999999996
 30
0.0
 10
-47.582999999999998
 20
48.159300000000002
 30
0.0
 10
-47.646500000000003
 20
48.518500000000003
 30
0.0
 10
-47.772599999999997
 20
48.695900000000002
 30
0.0
 10
-47.772599999999997
 20
48.695900000000002
 30
0.0
 10
-47.898699999999998
 20
48.874000000000002
 30
0.0
 10
-48.055399999999999
 20
48.962600000000002
 30
0.0
 10
-48.243400000000001
 20
48.962600000000002
 30
0.0
 10
-48.243400000000001
 20
48.962600000000002
 30
0.0
 10
-48.429099999999998
 20
48.962600000000002
 30
0.0
 10
-48.576700000000002
 20
48.883899999999997
 30
0.0
 10
-48.6875
 20
48.727200000000003
 30
0.0
 10
-48.6875
 20
48.727200000000003
 30
0.0
 10
-48.825800000000001
 20
48.527700000000003
 30
0.0
 10
-48.895400000000002
 20
48.157800000000002
 30
0.0
 10
-48.895400000000002
 20
47.618899999999996
 30
0.0
  0
SPLINE
  5
28
100
AcDbEntity
  8
Ebene 1
100
AcDbSpline
210
0.0
220
0.0
230
1.0
 70
     1
 71
     3
 72
    36
 73
    32
 74
     0
 42
0.0000000001
 43
0.0000000001
 40
0.0
 40
0.0
 40
0.0
 40
0.0
 40
0.125
 40
0.125
 40
0.125
 40
0.125
 40
0.25
 40
0.25
 40
0.25
 40
0.25
 40
0.375
 40
0.375
 40
0.375
 40
0.375
 40
0.5
 40
0.5
 40
0.5
 40
0.5
 40
0.625
 40
0.625
 40
0.625
 40
0.625
 40
0.75
 40
0.75
 40
0.75
 40
0.75
 40
0.875
 40
0.875
 40
0.875
 40
0.875
 40
1.0
 40
1.0
 40
1.0
 40
1.0
 10
-49.006900000000002
 20
60.0
 30
0.0
 10
-49.006900000000002
 20
60.0
 30
0.0
 10
-47.745699999999999
 20
63.282899999999998
 30
0.0
 10
-47.745699999999999
 20
63.282899999999998
 30
0.0
 10
-47.745699999999999
 20
63.282899999999998
 30
0.0
 10
-47.745699999999999
 20
63.282899999999998
 30
0.0
 10
-47.277900000000002
 20
63.282899999999998
 30
0.0
 10
-47.277900000000002
 20
63.282899999999998
 30
0.0
 10
-47.277900000000002
 20
63.282899999999998
 30
0.0
 10
-47.277900000000002
 20
63.282899999999998
 30
0.0
 10
-45.934199999999997
 20
60.0
 30
0.0
 10
-45.934199999999997
 20
60.0
 30
0.0
 10
-45.934199999999997
 20
60.0
 30
0.0
 10
-45.934199999999997
 20
60.0
 30
0.0
 10
-46.429499999999997
 20
60.0
 30
0.0
 10
-46.429499999999997
 20
60.0
 30
0.0
 10
-46.429499999999997
 20
60.0
 30
0.0
 10
-46.429499999999997
 20
60.0
 30
0.0
 10
-46.812399999999997
 20
60.994399999999999
 30
0.0
 10
-46.812399999999997
 20
60.994399999999999
 30
0.0
 10
-46.812399999999997
 20
60.994399999999999
 30
0.0
 10
-46.812399999999997
 20
60.994399999999999
 30
0.0
 10
-48.185200000000002
 20
60.994399999999999
 30
0.0
 10
-48.185200000000002
 20
60.994399999999999
 30
0.0
 10
-48.185200000000002
 20
60.994399999999999
 30
0.0
 10
-48.185200000000002
 20
60.994399999999999
 30
0.0
 10
-48.545200000000001
 20
60.0
 30
0.0
 10
-48.545200000000001
 20
60.0
 30
0.0
 10
-48.545200000000001
 20
60.0
 30
0.0
 10
-48.545200000000001
 20
60.0
 30
0.0
 10
-49.006900000000002
 20
60.0
 30
0.0
 10
-49.006900000000002
 20
60.0
 30
0.0
  0
SPLINE
  5
29
100
AcDbEntity
  8
Ebene 1
100
AcDbSpline
210
0.0
220
0.0
230
1.0
 70
     1
 71
     3
 72
    24
 73
    20
 74
     0
 42
0.0000000001
 43
0.0000000001
 40
0.0
 40
0.0
 40
0.0
 40
0.0
 40
0.2
 40
0.2
 40
0.2
 40
0.2
 40
0.4
 40
0.4
 40
0.4
 40
0.4
 40
0.6000000000000001
 40
0.6000000000000001
 40
0.6000000000000001
 40
0.6000000000000001
 40
0.8
 40
0.8
 40
0.8
 40
0.8
 40
1.0
 40
1.0
 40
1.0
 40
1.0
 10
-48.059800000000003
 20
61.348300000000002
 30
0.0
 10
-48.059800000000003
 20
61.348300000000002
 30
0.0
 10
-46.946199999999997
 20
61.348300000000002
 30
0.0
 10
-46.946199999999997
 20
61.348300000000002
 30
0.0
 10
-46.946199999999997
 20
61.348300000000002
 30
0.0
 10
-46.946199999999997
 20
61.348300000000002
 30
0.0
 10
-47.289400000000001
 20
62.257100000000001
 30
0.0
 10
-47.289400000000001
 20
62.257100000000001
 30
0.0
 10
-47.289400000000001
 20
62.257100000000001
 30
0.0
 10
-47.393300000000004
 20
62.533099999999997
 30
0.0
 10
-47.471299999999999
 20
62.760100000000001
 30
0.0
 10
-47.521700000000003
 20
62.938200000000002
 30
0.0
 10
-47.521700000000003
 20
62.938200000000002
 30
0.0
 10
-47.563800000000001
 20
62.727200000000003
 30
0.0
 10
-47.622599999999998
 20
62.518500000000003
 30
0.0
 10
-47.699100000000001
 20
62.310600000000001
 30
0.0
 10
-47.699100000000001
 20
62.310600000000001
 30
0.0
 10
-47.699100000000001
 20
62.310600000000001
 30
0.0
 10
-48.059800000000003
 20
61.348300000000002
 30
0.0
 10
-48.059800000000003
 20
61.348300000000002
 30
0.0
  0
SPLINE
  5
2A
100
AcDbEntity
  8
Ebene 1
100
AcDbSpline
210
0.0
220
0.0
230
1.0
 70
     1
 71
     3
 72
    72
 73
    68
 74
     0
 42
0.0000000001
 43
0.0000000001
 40
0.0
 40
0.0
 40
0.0
 40
0.0
 40
0.0588235294117647
 40
0.0588235294117647
 40
0.0588235294117647
 40
0.0588235294117647
 40
0.1176470588235294
 40
0.1176470588235294
 40
0.1176470588235294
 40
0.1176470588235294
 40
0.1764705882352941
 40
0.1764705882352941
 40
0.1764705882352941
 40
0.1764705882352941
 40
0.2352941176470588
 40
0.2352941176470588
 40
0.2352941176470588
 40
0.2352941176470588
 40
0.2941176470588235
 40
0.2941176470588235
 40
0.2941176470588235
 40
0.2941176470588235
 40
0.3529411764705883
 40
0.3529411764705883
 40
0.3529411764705883
 40
0.3529411764705883
 40
0.411764705882353
 40
0.411764705882353
 40
0.411764705882353
 40
0.411764705882353
 40
0.4705882352941177
 40
0.4705882352941177
 40
0.4705882352941177
 40
0.4705882352941177
 40
0.5294117647058824
 40
0.5294117647058824
 40
0.5294117647058824
 40
0.5294117647058824
 40
0.5882352941176471
 40
0.5882352941176471
 40
0.5882352941176471
 40
0.5882352941176471
 40
0.6470588235294118
 40
0.6470588235294118
 40
0.6470588235294118
 40
0.6470588235294118
 40
0.7058823529411765
 40
0.7058823529411765
 40
0.7058823529411765
 40
0.7058823529411765
 40
0.7647058823529412
 40
0.7647058823529412
 40
0.7647058823529412
 40
0.7647058823529412
 40
0.823529411764706
 40
0.823529411764706
 40
0.823529411764706
 40
0.823529411764706
 40
0.8823529411764707
 40
0.8823529411764707
 40
0.8823529411764707
 40
0.8823529411764707
 40
0.9411764705882354
 40
0.9411764705882354
 40
0.9411764705882354
 40
0.9411764705882354
 40
1.0
 40
1.0
 40
1.0
 40
1.0
 10
-43.433300000000003
 20
63.282899999999998
 30
0.0
 10
-43.433300000000003
 20
63.282899999999998
 30
0.0
 10
-42.998399999999997
 20
63.282899999999998
 30
0.0
 10
-42.998399999999997
 20
63.282899999999998
 30
0.0
 10
-42.998399999999997
 20
63.282899999999998
 30
0.0
 10
-42.998399999999997
 20
63.282899999999998
 30
0.0
 10
-42.998399999999997
 20
61.385800000000003
 30
0.0
 10
-42.998399999999997
 20
61.385800000000003
 30
0.0
 10
-42.998399999999997
 20
61.385800000000003
 30
0.0
 10
-42.998399999999997
 20
61.0563
 30
0.0
 10
-43.035800000000002
 20
60.794199999999996
 30
0.0
 10
-43.110700000000001
 20
60.600000000000001
 30
0.0
 10
-43.110700000000001
 20
60.600000000000001
 30
0.0
 10
-43.185600000000001
 20
60.405900000000003
 30
0.0
 10
-43.320099999999996
 20
60.248399999999997
 30
0.0
 10
-43.515099999999997
 20
60.126899999999999
 30
0.0
 10
-43.515099999999997
 20
60.126899999999999
 30
0.0
 10
-43.710000000000001
 20
60.004600000000003
 30
0.0
 10
-43.965299999999999
 20
59.944200000000002
 30
0.0
 10
-44.281700000000001
 20
59.944200000000002
 30
0.0
 10
-44.281700000000001
 20
59.944200000000002
 30
0.0
 10
-44.588999999999999
 20
59.944200000000002
 30
0.0
 10
-44.841200000000001
 20
59.996899999999997
 30
0.0
 10
-45.036099999999998
 20
60.103200000000001
 30
0.0
 10
-45.036099999999998
 20
60.103200000000001
 30
0.0
 10
-45.2318
 20
60.2087
 30
0.0
 10
-45.371699999999997
 20
60.362299999999998
 30
0.0
 10
-45.454999999999998
 20
60.563299999999998
 30
0.0
 10
-45.454999999999998
 20
60.563299999999998
 30
0.0
 10
-45.539099999999998
 20
60.764299999999999
 30
0.0
 10
-45.580300000000001
 20
61.037999999999997
 30
0.0
 10
-45.580300000000001
 20
61.385800000000003
 30
0.0
 10
-45.580300000000001
 20
61.385800000000003
 30
0.0
 10
-45.580300000000001
 20
61.385800000000003
 30
0.0
 10
-45.580300000000001
 20
63.282899999999998
 30
0.0
 10
-45.580300000000001
 20
63.282899999999998
 30
0.0
 10
-45.580300000000001
 20
63.282899999999998
 30
0.0
 10
-45.580300000000001
 20
63.282899999999998
 30
0.0
 10
-45.1462
 20
63.282899999999998
 30
0.0
 10
-45.1462
 20
63.282899999999998
 30
0.0
 10
-45.1462
 20
63.282899999999998
 30
0.0
 10
-45.1462
 20
63.282899999999998
 30
0.0
 10
-45.1462
 20
61.388100000000001
 30
0.0
 10
-45.1462
 20
61.388100000000001
 30
0.0
 10
-45.1462
 20
61.388100000000001
 30
0.0
 10
-45.1462
 20
61.103000000000002
 30
0.0
 10
-45.119399999999999
 20
60.892800000000001
 30
0.0
 10
-45.066699999999997
 20
60.758200000000002
 30
0.0
 10
-45.066699999999997
 20
60.758200000000002
 30
0.0
 10
-45.0139
 20
60.622900000000001
 30
0.0
 10
-44.922199999999997
 20
60.518999999999998
 30
0.0
 10
-44.793799999999997
 20
60.445599999999999
 30
0.0
 10
-44.793799999999997
 20
60.445599999999999
 30
0.0
 10
-44.6646
 20
60.372199999999999
 30
0.0
 10
-44.506399999999999
 20
60.335500000000003
 30
0.0
 10
-44.319899999999997
 20
60.335500000000003
 30
0.0
 10
-44.319899999999997
 20
60.335500000000003
 30
0.0
 10
-44.000399999999999
 20
60.335500000000003
 30
0.0
 10
-43.772599999999997
 20
60.408200000000001
 30
0.0
 10
-43.636600000000001
 20
60.553400000000003
 30
0.0
 10
-43.636600000000001
 20
60.553400000000003
 30
0.0
 10
-43.501300000000001
 20
60.697899999999997
 30
0.0
 10
-43.433300000000003
 20
60.976100000000002
 30
0.0
 10
-43.433300000000003
 20
61.388100000000001
 30
0.0
 10
-43.433300000000003
 20
61.388100000000001
 30
0.0
 10
-43.433300000000003
 20
61.388100000000001
 30
0.0
 10
-43.433300000000003
 20
63.282899999999998
 30
0.0
 10
-43.433300000000003
 20
63.282899999999998
 30
0.0
  0
SPLINE
  5
2B
100
AcDbEntity
  8
Ebene 1
100
AcDbSpline
210
0.0
220
0.0
230
1.0
 70
     1
 71
     3
 72
    44
 73
    40
 74
     0
 42
0.0000000001
 43
0.0000000001
 40
0.0
 40
0.0
 40
0.0
 40
0.0
 40
0.1
 40
0.1
 40
0.1
 40
0.1
 40
0.2
 40
0.2
 40
0.2
 40
0.2
 40
0.3
 40
0.3
 40
0.3
 40
0.3
 40
0.4
 40
0.4
 40
0.4
 40
0.4
 40
0.5
 40
0.5
 40
0.5
 40
0.5
 40
0.6
 40
0.6
 40
0.6
 40
0.6
 40
0.7
 40
0.7
 40
0.7
 40
0.7
 40
0.7999999999999999
 40
0.7999999999999999
 40
0.7999999999999999
 40
0.7999999999999999
 40
0.8999999999999999
 40
0.8999999999999999
 40
0.8999999999999999
 40
0.8999999999999999
 40
1.0
 40
1.0
 40
1.0
 40
1.0
 10
-42.253100000000003
 20
60.0
 30
0.0
 10
-42.253100000000003
 20
60.0
 30
0.0
 10
-42.253100000000003
 20
63.282899999999998
 30
0.0
 10
-42.253100000000003
 20
63.282899999999998
 30
0.0
 10
-42.253100000000003
 20
63.282899999999998
 30
0.0
 10
-42.253100000000003
 20
63.282899999999998
 30
0.0
 10
-40.0381
 20
63.282899999999998
 30
0.0
 10
-40.0381
 20
63.282899999999998
 30
0.0
 10
-40.0381
 20
63.282899999999998
 30
0.0
 10
-40.0381
 20
63.282899999999998
 30
0.0
 10
-40.0381
 20
62.895400000000002
 30
0.0
 10
-40.0381
 20
62.895400000000002
 30
0.0
 10
-40.0381
 20
62.895400000000002
 30
0.0
 10
-40.0381
 20
62.895400000000002
 30
0.0
 10
-41.818199999999997
 20
62.895400000000002
 30
0.0
 10
-41.818199999999997
 20
62.895400000000002
 30
0.0
 10
-41.818199999999997
 20
62.895400000000002
 30
0.0
 10
-41.818199999999997
 20
62.895400000000002
 30
0.0
 10
-41.818199999999997
 20
61.878799999999998
 30
0.0
 10
-41.818199999999997
 20
61.878799999999998
 30
0.0
 10
-41.818199999999997
 20
61.878799999999998
 30
0.0
 10
-41.818199999999997
 20
61.878799999999998
 30
0.0
 10
-40.278100000000002
 20
61.878799999999998
 30
0.0
 10
-40.278100000000002
 20
61.878799999999998
 30
0.0
 10
-40.278100000000002
 20
61.878799999999998
 30
0.0
 10
-40.278100000000002
 20
61.878799999999998
 30
0.0
 10
-40.278100000000002
 20
61.491199999999999
 30
0.0
 10
-40.278100000000002
 20
61.491199999999999
 30
0.0
 10
-40.278100000000002
 20
61.491199999999999
 30
0.0
 10
-40.278100000000002
 20
61.491199999999999
 30
0.0
 10
-41.818199999999997
 20
61.491199999999999
 30
0.0
 10
-41.818199999999997
 20
61.491199999999999
 30
0.0
 10
-41.818199999999997
 20
61.491199999999999
 30
0.0
 10
-41.818199999999997
 20
61.491199999999999
 30
0.0
 10
-41.818199999999997
 20
60.0
 30
0.0
 10
-41.818199999999997
 20
60.0
 30
0.0
 10
-41.818199999999997
 20
60.0
 30
0.0
 10
-41.818199999999997
 20
60.0
 30
0.0
 10
-42.253100000000003
 20
60.0
 30
0.0
 10
-42.253100000000003
 20
60.0
 30
0.0
  0
SPLINE
  5
2C
100
AcDbEntity
  8
Ebene 1
100
AcDbSpline
210
0.0
220
0.0
230
1.0
 70
     1
 71
     3
 72
    52
 73
    48
 74
     0
 42
0.0000000001
 43
0.0000000001
 40
0.0
 40
0.0
 40
0.0
 40
0.0
 40
0.0833333333333333
 40
0.0833333333333333
 40
0.0833333333333333
 40
0.0833333333333333
 40
0.1666666666666667
 40
0.1666666666666667
 40
0.1666666666666667
 40
0.1666666666666667
 40
0.25
 40
0.25
 40
0.25
 40
0.25
 40
0.3333333333333333
 40
0.3333333333333333
 40
0.3333333333333333
 40
0.3333333333333333
 40
0.4166666666666666
 40
0.4166666666666666
 40
0.4166666666666666
 40
0.4166666666666666
 40
0.4999999999999999
 40
0.4999999999999999
 40
0.4999999999999999
 40
0.4999999999999999
 40
0.5833333333333333
 40
0.5833333333333333
 40
0.5833333333333333
 40
0.5833333333333333
 40
0.6666666666666666
 40
0.6666666666666666
 40
0.6666666666666666
 40
0.6666666666666666
 40
0.75
 40
0.75
 40
0.75
 40
0.75
 40
0.8333333333333334
 40
0.8333333333333334
 40
0.8333333333333334
 40
0.8333333333333334
 40
0.9166666666666667
 40
0.9166666666666667
 40
0.9166666666666667
 40
0.9166666666666667
 40
1.0
 40
1.0
 40
1.0
 40
1.0
 10
-32.908299999999997
 20
63.0
 30
0.0
 10
-32.908299999999997
 20
63.0
 30
0.0
 10
-32.908299999999997
 20
63.402799999999999
 30
0.0
 10
-32.908299999999997
 20
63.402799999999999
 30
0.0
 10
-32.908299999999997
 20
63.402799999999999
 30
0.0
 10
-32.908299999999997
 20
63.402799999999999
 30
0.0
 10
-31.226700000000001
 20
65.505499999999998
 30
0.0
 10
-31.226700000000001
 20
65.505499999999998
 30
0.0
 10
-31.226700000000001
 20
65.505499999999998
 30
0.0
 10
-31.1067
 20
65.6554
 30
0.0
 10
-30.993600000000001
 20
65.785300000000007
 30
0.0
 10
-30.8858
 20
65.895399999999995
 30
0.0
 10
-30.8858
 20
65.895399999999995
 30
0.0
 10
-30.8858
 20
65.895399999999995
 30
0.0
 10
-32.718000000000004
 20
65.895399999999995
 30
0.0
 10
-32.718000000000004
 20
65.895399999999995
 30
0.0
 10
-32.718000000000004
 20
65.895399999999995
 30
0.0
 10
-32.718000000000004
 20
65.895399999999995
 30
0.0
 10
-32.718000000000004
 20
66.282899999999998
 30
0.0
 10
-32.718000000000004
 20
66.282899999999998
 30
0.0
 10
-32.718000000000004
 20
66.282899999999998
 30
0.0
 10
-32.718000000000004
 20
66.282899999999998
 30
0.0
 10
-30.366800000000001
 20
66.282899999999998
 30
0.0
 10
-30.366800000000001
 20
66.282899999999998
 30
0.0
 10
-30.366800000000001
 20
66.282899999999998
 30
0.0
 10
-30.366800000000001
 20
66.282899999999998
 30
0.0
 10
-30.366800000000001
 20
65.895399999999995
 30
0.0
 10
-30.366800000000001
 20
65.895399999999995
 30
0.0
 10
-30.366800000000001
 20
65.895399999999995
 30
0.0
 10
-30.366800000000001
 20
65.895399999999995
 30
0.0
 10
-32.209699999999998
 20
63.618400000000001
 30
0.0
 10
-32.209699999999998
 20
63.618400000000001
 30
0.0
 10
-32.209699999999998
 20
63.618400000000001
 30
0.0
 10
-32.209699999999998
 20
63.618400000000001
 30
0.0
 10
-32.409199999999998
 20
63.387500000000003
 30
0.0
 10
-32.409199999999998
 20
63.387500000000003
 30
0.0
 10
-32.409199999999998
 20
63.387500000000003
 30
0.0
 10
-32.409199999999998
 20
63.387500000000003
 30
0.0
 10
-30.3125
 20
63.387500000000003
 30
0.0
 10
-30.3125
 20
63.387500000000003
 30
0.0
 10
-30.3125
 20
63.387500000000003
 30
0.0
 10
-30.3125
 20
63.387500000000003
 30
0.0
 10
-30.3125
 20
63.0
 30
0.0
 10
-30.3125
 20
63.0
 30
0.0
 10
-30.3125
 20
63.0
 30
0.0
 10
-30.3125
 20
63.0
 30
0.0
 10
-32.908299999999997
 20
63.0
 30
0.0
 10
-32.908299999999997
 20
63.0
 30
0.0
  0
SPLINE
  5
2D
100
AcDbEntity
  8
Ebene 1
100
AcDbSpline
210
0.0
220
0.0
230
1.0
 70
     1
 71
     3
 72
    72
 73
    68
 74
     0
 42
0.0000000001
 43
0.0000000001
 40
0.0
 40
0.0
 40
0.0
 40
0.0
 40
0.0588235294117647
 40
0.0588235294117647
 40
0.0588235294117647
 40
0.0588235294117647
 40
0.1176470588235294
 40
0.1176470588235294
 40
0.1176470588235294
 40
0.1176470588235294
 40
0.1764705882352941
 40
0.1764705882352941
 40
0.1764705882352941
 40
0.1764705882352941
 40
0.2352941176470588
 40
0.2352941176470588
 40
0.2352941176470588
 40
0.2352941176470588
 40
0.2941176470588235
 40
0.2941176470588235
 40
0.2941176470588235
 40
0.2941176470588235
 40
0.3529411764705883
 40
0.3529411764705883
 40
0.3529411764705883
 40
0.3529411764705883
 40
0.411764705882353
 40
0.411764705882353
 40
0.411764705882353
 40
0.411764705882353
 40
0.4705882352941177
 40
0.4705882352941177
 40
0.4705882352941177
 40
0.4705882352941177
 40
0.5294117647058824
 40
0.5294117647058824
 40
0.5294117647058824
 40
0.5294117647058824
 40
0.5882352941176471
 40
0.5882352941176471
 40
0.5882352941176471
 40
0.5882352941176471
 40
0.6470588235294118
 40
0.6470588235294118
 40
0.6470588235294118
 40
0.6470588235294118
 40
0.7058823529411765
 40
0.7058823529411765
 40
0.7058823529411765
 40
0.7058823529411765
 40
0.7647058823529412
 40
0.7647058823529412
 40
0.7647058823529412
 40
0.7647058823529412
 40
0.823529411764706
 40
0.823529411764706
 40
0.823529411764706
 40
0.823529411764706
 40
0.8823529411764707
 40
0.8823529411764707
 40
0.8823529411764707
 40
0.8823529411764707
 40
0.9411764705882354
 40
0.9411764705882354
 40
0.9411764705882354
 40
0.9411764705882354
 40
1.0
 40
1.0
 40
1.0
 40
1.0
 10
-27.690899999999999
 20
66.282899999999998
 30
0.0
 10
-27.690899999999999
 20
66.282899999999998
 30
0.0
 10
-27.256
 20
66.282899999999998
 30
0.0
 10
-27.256
 20
66.282899999999998
 30
0.0
 10
-27.256
 20
66.282899999999998
 30
0.0
 10
-27.256
 20
66.282899999999998
 30
0.0
 10
-27.256
 20
64.385800000000003
 30
0.0
 10
-27.256
 20
64.385800000000003
 30
0.0
 10
-27.256
 20
64.385800000000003
 30
0.0
 10
-27.256
 20
64.056299999999993
 30
0.0
 10
-27.293399999999998
 20
63.794199999999996
 30
0.0
 10
-27.368300000000001
 20
63.600000000000001
 30
0.0
 10
-27.368300000000001
 20
63.600000000000001
 30
0.0
 10
-27.443200000000001
 20
63.405900000000003
 30
0.0
 10
-27.5777
 20
63.248399999999997
 30
0.0
 10
-27.7727
 20
63.126899999999999
 30
0.0
 10
-27.7727
 20
63.126899999999999
 30
0.0
 10
-27.967600000000001
 20
63.004600000000003
 30
0.0
 10
-28.222899999999999
 20
62.944200000000002
 30
0.0
 10
-28.539300000000001
 20
62.944200000000002
 30
0.0
 10
-28.539300000000001
 20
62.944200000000002
 30
0.0
 10
-28.846599999999999
 20
62.944200000000002
 30
0.0
 10
-29.098800000000001
 20
62.996899999999997
 30
0.0
 10
-29.293700000000001
 20
63.103200000000001
 30
0.0
 10
-29.293700000000001
 20
63.103200000000001
 30
0.0
 10
-29.4894
 20
63.2087
 30
0.0
 10
-29.629300000000001
 20
63.362299999999998
 30
0.0
 10
-29.712599999999998
 20
63.563299999999998
 30
0.0
 10
-29.712599999999998
 20
63.563299999999998
 30
0.0
 10
-29.796700000000001
 20
63.764299999999999
 30
0.0
 10
-29.837900000000001
 20
64.037999999999997
 30
0.0
 10
-29.837900000000001
 20
64.385800000000003
 30
0.0
 10
-29.837900000000001
 20
64.385800000000003
 30
0.0
 10
-29.837900000000001
 20
64.385800000000003
 30
0.0
 10
-29.837900000000001
 20
66.282899999999998
 30
0.0
 10
-29.837900000000001
 20
66.282899999999998
 30
0.0
 10
-29.837900000000001
 20
66.282899999999998
 30
0.0
 10
-29.837900000000001
 20
66.282899999999998
 30
0.0
 10
-29.4038
 20
66.282899999999998
 30
0.0
 10
-29.4038
 20
66.282899999999998
 30
0.0
 10
-29.4038
 20
66.282899999999998
 30
0.0
 10
-29.4038
 20
66.282899999999998
 30
0.0
 10
-29.4038
 20
64.388099999999994
 30
0.0
 10
-29.4038
 20
64.388099999999994
 30
0.0
 10
-29.4038
 20
64.388099999999994
 30
0.0
 10
-29.4038
 20
64.102999999999994
 30
0.0
 10
-29.376999999999999
 20
63.892800000000001
 30
0.0
 10
-29.324300000000001
 20
63.758200000000002
 30
0.0
 10
-29.324300000000001
 20
63.758200000000002
 30
0.0
 10
-29.2715
 20
63.622900000000001
 30
0.0
 10
-29.1798
 20
63.518999999999998
 30
0.0
 10
-29.051400000000001
 20
63.445599999999999
 30
0.0
 10
-29.051400000000001
 20
63.445599999999999
 30
0.0
 10
-28.9222
 20
63.372199999999999
 30
0.0
 10
-28.763999999999999
 20
63.335500000000003
 30
0.0
 10
-28.577500000000001
 20
63.335500000000003
 30
0.0
 10
-28.577500000000001
 20
63.335500000000003
 30
0.0
 10
-28.257999999999999
 20
63.335500000000003
 30
0.0
 10
-28.030200000000001
 20
63.408200000000001
 30
0.0
 10
-27.894200000000001
 20
63.553400000000003
 30
0.0
 10
-27.894200000000001
 20
63.553400000000003
 30
0.0
 10
-27.758900000000001
 20
63.697899999999997
 30
0.0
 10
-27.690899999999999
 20
63.976100000000002
 30
0.0
 10
-27.690899999999999
 20
64.388099999999994
 30
0.0
 10
-27.690899999999999
 20
64.388099999999994
 30
0.0
 10
-27.690899999999999
 20
64.388099999999994
 30
0.0
 10
-27.690899999999999
 20
66.282899999999998
 30
0.0
 10
-27.690899999999999
 20
66.282899999999998
 30
0.0
  0
SPLINE
  5
2E
100
AcDbEntity
  8
Ebene 1
100
AcDbSpline
210
0.0
220
0.0
230
1.0
 70
     1
 71
     3
 72
    36
 73
    32
 74
     0
 42
0.0000000001
 43
0.0000000001
 40
0.0
 40
0.0
 40
0.0
 40
0.0
 40
0.125
 40
0.125
 40
0.125
 40
0.125
 40
0.25
 40
0.25
 40
0.25
 40
0.25
 40
0.375
 40
0.375
 40
0.375
 40
0.375
 40
0.5
 40
0.5
 40
0.5
 40
0.5
 40
0.625
 40
0.625
 40
0.625
 40
0.625
 40
0.75
 40
0.75
 40
0.75
 40
0.75
 40
0.875
 40
0.875
 40
0.875
 40
0.875
 40
1.0
 40
1.0
 40
1.0
 40
1.0
 10
-22.506900000000002
 20
60.0
 30
0.0
 10
-22.506900000000002
 20
60.0
 30
0.0
 10
-21.245699999999999
 20
63.282899999999998
 30
0.0
 10
-21.245699999999999
 20
63.282899999999998
 30
0.0
 10
-21.245699999999999
 20
63.282899999999998
 30
0.0
 10
-21.245699999999999
 20
63.282899999999998
 30
0.0
 10
-20.777899999999999
 20
63.282899999999998
 30
0.0
 10
-20.777899999999999
 20
63.282899999999998
 30
0.0
 10
-20.777899999999999
 20
63.282899999999998
 30
0.0
 10
-20.777899999999999
 20
63.282899999999998
 30
0.0
 10
-19.434200000000001
 20
60.0
 30
0.0
 10
-19.434200000000001
 20
60.0
 30
0.0
 10
-19.434200000000001
 20
60.0
 30
0.0
 10
-19.434200000000001
 20
60.0
 30
0.0
 10
-19.929500000000001
 20
60.0
 30
0.0
 10
-19.929500000000001
 20
60.0
 30
0.0
 10
-19.929500000000001
 20
60.0
 30
0.0
 10
-19.929500000000001
 20
60.0
 30
0.0
 10
-20.3124
 20
60.994399999999999
 30
0.0
 10
-20.3124
 20
60.994399999999999
 30
0.0
 10
-20.3124
 20
60.994399999999999
 30
0.0
 10
-20.3124
 20
60.994399999999999
 30
0.0
 10
-21.685199999999998
 20
60.994399999999999
 30
0.0
 10
-21.685199999999998
 20
60.994399999999999
 30
0.0
 10
-21.685199999999998
 20
60.994399999999999
 30
0.0
 10
-21.685199999999998
 20
60.994399999999999
 30
0.0
 10
-22.045200000000001
 20
60.0
 30
0.0
 10
-22.045200000000001
 20
60.0
 30
0.0
 10
-22.045200000000001
 20
60.0
 30
0.0
 10
-22.045200000000001
 20
60.0
 30
0.0
 10
-22.506900000000002
 20
60.0
 30
0.0
 10
-22.506900000000002
 20
60.0
 30
0.0
  0
SPLINE
  5
2F
100
AcDbEntity
  8
Ebene 1
100
AcDbSpline
210
0.0
220
0.0
230
1.0
 70
     1
 71
     3
 72
    24
 73
    20
 74
     0
 42
0.0000000001
 43
0.0000000001
 40
0.0
 40
0.0
 40
0.0
 40
0.0
 40
0.2
 40
0.2
 40
0.2
 40
0.2
 40
0.4
 40
0.4
 40
0.4
 40
0.4
 40
0.6000000000000001
 40
0.6000000000000001
 40
0.6000000000000001
 40
0.6000000000000001
 40
0.8
 40
0.8
 40
0.8
 40
0.8
 40
1.0
 40
1.0
 40
1.0
 40
1.0
 10
-21.559799999999999
 20
61.348300000000002
 30
0.0
 10
-21.559799999999999
 20
61.348300000000002
 30
0.0
 10
-20.446200000000001
 20
61.348300000000002
 30
0.0
 10
-20.446200000000001
 20
61.348300000000002
 30
0.0
 10
-20.446200000000001
 20
61.348300000000002
 30
0.0
 10
-20.446200000000001
 20
61.348300000000002
 30
0.0
 10
-20.789400000000001
 20
62.257100000000001
 30
0.0
 10
-20.789400000000001
 20
62.257100000000001
 30
0.0
 10
-20.789400000000001
 20
62.257100000000001
 30
0.0
 10
-20.8933
 20
62.533099999999997
 30
0.0
 10
-20.971299999999999
 20
62.760100000000001
 30
0.0
 10
-21.021699999999999
 20
62.938200000000002
 30
0.0
 10
-21.021699999999999
 20
62.938200000000002
 30
0.0
 10
-21.063800000000001
 20
62.727200000000003
 30
0.0
 10
-21.122599999999998
 20
62.518500000000003
 30
0.0
 10
-21.199100000000001
 20
62.310600000000001
 30
0.0
 10
-21.199100000000001
 20
62.310600000000001
 30
0.0
 10
-21.199100000000001
 20
62.310600000000001
 30
0.0
 10
-21.559799999999999
 20
61.348300000000002
 30
0.0
 10
-21.559799999999999
 20
61.348300000000002
 30
0.0
  0
SPLINE
  5
30
100
AcDbEntity
  8
Ebene 1
100
AcDbSpline
210
0.0
220
0.0
230
1.0
 70
     1
 71
     3
 72
    72
 73
    68
 74
     0
 42
0.0000000001
 43
0.0000000001
 40
0.0
 40
0.0
 40
0.0
 40
0.0
 40
0.0588235294117647
 40
0.0588235294117647
 40
0.0588235294117647
 40
0.0588235294117647
 40
0.1176470588235294
 40
0.1176470588235294
 40
0.1176470588235294
 40
0.1176470588235294
 40
0.1764705882352941
 40
0.1764705882352941
 40
0.1764705882352941
 40
0.1764705882352941
 40
0.2352941176470588
 40
0.2352941176470588
 40
0.2352941176470588
 40
0.2352941176470588
 40
0.2941176470588235
 40
0.2941176470588235
 40
0.2941176470588235
 40
0.2941176470588235
 40
0.3529411764705883
 40
0.3529411764705883
 40
0.3529411764705883
 40
0.3529411764705883
 40
0.411764705882353
 40
0.411764705882353
 40
0.411764705882353
 40
0.411764705882353
 40
0.4705882352941177
 40
0.4705882352941177
 40
0.4705882352941177
 40
0.4705882352941177
 40
0.5294117647058824
 40
0.5294117647058824
 40
0.5294117647058824
 40
0.5294117647058824
 40
0.5882352941176471
 40
0.5882352941176471
 40
0.5882352941176471
 40
0.5882352941176471
 40
0.6470588235294118
 40
0.6470588235294118
 40
0.6470588235294118
 40
0.6470588235294118
 40
0.7058823529411765
 40
0.7058823529411765
 40
0.7058823529411765
 40
0.7058823529411765
 40
0.7647058823529412
 40
0.7647058823529412
 40
0.7647058823529412
 40
0.7647058823529412
 40
0.823529411764706
 40
0.823529411764706
 40
0.823529411764706
 40
0.823529411764706
 40
0.8823529411764707
 40
0.8823529411764707
 40
0.8823529411764707
 40
0.8823529411764707
 40
0.9411764705882354
 40
0.9411764705882354
 40
0.9411764705882354
 40
0.9411764705882354
 40
1.0
 40
1.0
 40
1.0
 40
1.0
 10
-16.933299999999999
 20
63.282899999999998
 30
0.0
 10
-16.933299999999999
 20
63.282899999999998
 30
0.0
 10
-16.4984
 20
63.282899999999998
 30
0.0
 10
-16.4984
 20
63.282899999999998
 30
0.0
 10
-16.4984
 20
63.282899999999998
 30
0.0
 10
-16.4984
 20
63.282899999999998
 30
0.0
 10
-16.4984
 20
61.385800000000003
 30
0.0
 10
-16.4984
 20
61.385800000000003
 30
0.0
 10
-16.4984
 20
61.385800000000003
 30
0.0
 10
-16.4984
 20
61.0563
 30
0.0
 10
-16.535799999999998
 20
60.794199999999996
 30
0.0
 10
-16.610700000000001
 20
60.600000000000001
 30
0.0
 10
-16.610700000000001
 20
60.600000000000001
 30
0.0
 10
-16.685600000000001
 20
60.405900000000003
 30
0.0
 10
-16.8201
 20
60.248399999999997
 30
0.0
 10
-17.0151
 20
60.126899999999999
 30
0.0
 10
-17.0151
 20
60.126899999999999
 30
0.0
 10
-17.210000000000001
 20
60.004600000000003
 30
0.0
 10
-17.465299999999999
 20
59.944200000000002
 30
0.0
 10
-17.781700000000001
 20
59.944200000000002
 30
0.0
 10
-17.781700000000001
 20
59.944200000000002
 30
0.0
 10
-18.088999999999999
 20
59.944200000000002
 30
0.0
 10
-18.341200000000001
 20
59.996899999999997
 30
0.0
 10
-18.536100000000001
 20
60.103200000000001
 30
0.0
 10
-18.536100000000001
 20
60.103200000000001
 30
0.0
 10
-18.7318
 20
60.2087
 30
0.0
 10
-18.871700000000001
 20
60.362299999999998
 30
0.0
 10
-18.954999999999998
 20
60.563299999999998
 30
0.0
 10
-18.954999999999998
 20
60.563299999999998
 30
0.0
 10
-19.039100000000001
 20
60.764299999999999
 30
0.0
 10
-19.080300000000001
 20
61.037999999999997
 30
0.0
 10
-19.080300000000001
 20
61.385800000000003
 30
0.0
 10
-19.080300000000001
 20
61.385800000000003
 30
0.0
 10
-19.080300000000001
 20
61.385800000000003
 30
0.0
 10
-19.080300000000001
 20
63.282899999999998
 30
0.0
 10
-19.080300000000001
 20
63.282899999999998
 30
0.0
 10
-19.080300000000001
 20
63.282899999999998
 30
0.0
 10
-19.080300000000001
 20
63.282899999999998
 30
0.0
 10
-18.6462
 20
63.282899999999998
 30
0.0
 10
-18.6462
 20
63.282899999999998
 30
0.0
 10
-18.6462
 20
63.282899999999998
 30
0.0
 10
-18.6462
 20
63.282899999999998
 30
0.0
 10
-18.6462
 20
61.388100000000001
 30
0.0
 10
-18.6462
 20
61.388100000000001
 30
0.0
 10
-18.6462
 20
61.388100000000001
 30
0.0
 10
-18.6462
 20
61.103000000000002
 30
0.0
 10
-18.619399999999999
 20
60.892800000000001
 30
0.0
 10
-18.566700000000001
 20
60.758200000000002
 30
0.0
 10
-18.566700000000001
 20
60.758200000000002
 30
0.0
 10
-18.5139
 20
60.622900000000001
 30
0.0
 10
-18.4222
 20
60.518999999999998
 30
0.0
 10
-18.293800000000001
 20
60.445599999999999
 30
0.0
 10
-18.293800000000001
 20
60.445599999999999
 30
0.0
 10
-18.1646
 20
60.372199999999999
 30
0.0
 10
-18.006399999999999
 20
60.335500000000003
 30
0.0
 10
-17.819900000000001
 20
60.335500000000003
 30
0.0
 10
-17.819900000000001
 20
60.335500000000003
 30
0.0
 10
-17.500399999999999
 20
60.335500000000003
 30
0.0
 10
-17.272600000000001
 20
60.408200000000001
 30
0.0
 10
-17.136600000000001
 20
60.553400000000003
 30
0.0
 10
-17.136600000000001
 20
60.553400000000003
 30
0.0
 10
-17.001300000000001
 20
60.697899999999997
 30
0.0
 10
-16.933299999999999
 20
60.976100000000002
 30
0.0
 10
-16.933299999999999
 20
61.388100000000001
 30
0.0
 10
-16.933299999999999
 20
61.388100000000001
 30
0.0
 10
-16.933299999999999
 20
61.388100000000001
 30
0.0
 10
-16.933299999999999
 20
63.282899999999998
 30
0.0
 10
-16.933299999999999
 20
63.282899999999998
 30
0.0
  0
SPLINE
  5
31
100
AcDbEntity
  8
Ebene 1
100
AcDbSpline
210
0.0
220
0.0
230
1.0
 70
     1
 71
     3
 72
    36
 73
    32
 74
     0
 42
0.0000000001
 43
0.0000000001
 40
0.0
 40
0.0
 40
0.0
 40
0.0
 40
0.125
 40
0.125
 40
0.125
 40
0.125
 40
0.25
 40
0.25
 40
0.25
 40
0.25
 40
0.375
 40
0.375
 40
0.375
 40
0.375
 40
0.5
 40
0.5
 40
0.5
 40
0.5
 40
0.625
 40
0.625
 40
0.625
 40
0.625
 40
0.75
 40
0.75
 40
0.75
 40
0.75
 40
0.875
 40
0.875
 40
0.875
 40
0.875
 40
1.0
 40
1.0
 40
1.0
 40
1.0
 10
-14.9399
 20
60.0
 30
0.0
 10
-14.9399
 20
60.0
 30
0.0
 10
-14.9399
 20
62.895400000000002
 30
0.0
 10
-14.9399
 20
62.895400000000002
 30
0.0
 10
-14.9399
 20
62.895400000000002
 30
0.0
 10
-14.9399
 20
62.895400000000002
 30
0.0
 10
-16.0214
 20
62.895400000000002
 30
0.0
 10
-16.0214
 20
62.895400000000002
 30
0.0
 10
-16.0214
 20
62.895400000000002
 30
0.0
 10
-16.0214
 20
62.895400000000002
 30
0.0
 10
-16.0214
 20
63.282899999999998
 30
0.0
 10
-16.0214
 20
63.282899999999998
 30
0.0
 10
-16.0214
 20
63.282899999999998
 30
0.0
 10
-16.0214
 20
63.282899999999998
 30
0.0
 10
-13.419600000000001
 20
63.282899999999998
 30
0.0
 10
-13.419600000000001
 20
63.282899999999998
 30
0.0
 10
-13.419600000000001
 20
63.282899999999998
 30
0.0
 10
-13.419600000000001
 20
63.282899999999998
 30
0.0
 10
-13.419600000000001
 20
62.895400000000002
 30
0.0
 10
-13.419600000000001
 20
62.895400000000002
 30
0.0
 10
-13.419600000000001
 20
62.895400000000002
 30
0.0
 10
-13.419600000000001
 20
62.895400000000002
 30
0.0
 10
-14.505699999999999
 20
62.895400000000002
 30
0.0
 10
-14.505699999999999
 20
62.895400000000002
 30
0.0
 10
-14.505699999999999
 20
62.895400000000002
 30
0.0
 10
-14.505699999999999
 20
62.895400000000002
 30
0.0
 10
-14.505699999999999
 20
60.0
 30
0.0
 10
-14.505699999999999
 20
60.0
 30
0.0
 10
-14.505699999999999
 20
60.0
 30
0.0
 10
-14.505699999999999
 20
60.0
 30
0.0
 10
-14.9399
 20
60.0
 30
0.0
 10
-14.9399
 20
60.0
 30
0.0
  0
SPLINE
  5
32
100
AcDbEntity
  8
Ebene 1
100
AcDbSpline
210
0.0
220
0.0
230
1.0
 70
     1
 71
     3
 72
    48
 73
    44
 74
     0
 42
0.0000000001
 43
0.0000000001
 40
0.0
 40
0.0
 40
0.0
 40
0.0
 40
0.0909090909090909
 40
0.0909090909090909
 40
0.0909090909090909
 40
0.0909090909090909
 40
0.1818181818181818
 40
0.1818181818181818
 40
0.1818181818181818
 40
0.1818181818181818
 40
0.2727272727272727
 40
0.2727272727272727
 40
0.2727272727272727
 40
0.2727272727272727
 40
0.3636363636363637
 40
0.3636363636363637
 40
0.3636363636363637
 40
0.3636363636363637
 40
0.4545454545454546
 40
0.4545454545454546
 40
0.4545454545454546
 40
0.4545454545454546
 40
0.5454545454545455
 40
0.5454545454545455
 40
0.5454545454545455
 40
0.5454545454545455
 40
0.6363636363636365
 40
0.6363636363636365
 40
0.6363636363636365
 40
0.6363636363636365
 40
0.7272727272727274
 40
0.7272727272727274
 40
0.7272727272727274
 40
0.7272727272727274
 40
0.8181818181818183
 40
0.8181818181818183
 40
0.8181818181818183
 40
0.8181818181818183
 40
0.9090909090909093
 40
0.9090909090909093
 40
0.9090909090909093
 40
0.9090909090909093
 40
1.0
 40
1.0
 40
1.0
 40
1.0
 10
-13.188700000000001
 20
61.598999999999997
 30
0.0
 10
-13.188700000000001
 20
62.143999999999998
 30
0.0
 10
-13.0427
 20
62.570500000000003
 30
0.0
 10
-12.75
 20
62.878500000000003
 30
0.0
 10
-12.75
 20
62.878500000000003
 30
0.0
 10
-12.4573
 20
63.186599999999999
 30
0.0
 10
-12.079700000000001
 20
63.341000000000001
 30
0.0
 10
-11.6165
 20
63.341000000000001
 30
0.0
 10
-11.6165
 20
63.341000000000001
 30
0.0
 10
-11.313800000000001
 20
63.341000000000001
 30
0.0
 10
-11.0402
 20
63.2684
 30
0.0
 10
-10.7971
 20
63.123899999999999
 30
0.0
 10
-10.7971
 20
63.123899999999999
 30
0.0
 10
-10.554
 20
62.978700000000003
 30
0.0
 10
-10.3683
 20
62.776899999999998
 30
0.0
 10
-10.240600000000001
 20
62.517800000000001
 30
0.0
 10
-10.240600000000001
 20
62.517800000000001
 30
0.0
 10
-10.113
 20
62.259399999999999
 30
0.0
 10
-10.0496
 20
61.9651
 30
0.0
 10
-10.0496
 20
61.6372
 30
0.0
 10
-10.0496
 20
61.6372
 30
0.0
 10
-10.0496
 20
61.304000000000002
 30
0.0
 10
-10.116099999999999
 20
61.005899999999997
 30
0.0
 10
-10.2506
 20
60.743699999999997
 30
0.0
 10
-10.2506
 20
60.743699999999997
 30
0.0
 10
-10.3851
 20
60.480800000000002
 30
0.0
 10
-10.5754
 20
60.281999999999996
 30
0.0
 10
-10.8215
 20
60.146799999999999
 30
0.0
 10
-10.8215
 20
60.146799999999999
 30
0.0
 10
-11.0684
 20
60.011499999999998
 30
0.0
 10
-11.3337
 20
59.944200000000002
 30
0.0
 10
-11.6188
 20
59.944200000000002
 30
0.0
 10
-11.6188
 20
59.944200000000002
 30
0.0
 10
-11.9283
 20
59.944200000000002
 30
0.0
 10
-12.2043
 20
60.018300000000004
 30
0.0
 10
-12.4473
 20
60.168199999999999
 30
0.0
 10
-12.4473
 20
60.168199999999999
 30
0.0
 10
-12.6911
 20
60.3172
 30
0.0
 10
-12.875400000000001
 20
60.521299999999997
 30
0.0
 10
-13.0007
 20
60.779600000000002
 30
0.0
 10
-13.0007
 20
60.779600000000002
 30
0.0
 10
-13.126099999999999
 20
61.037199999999999
 30
0.0
 10
-13.188700000000001
 20
61.310899999999997
 30
0.0
 10
-13.188700000000001
 20
61.598999999999997
 30
0.0
  0
SPLINE
  5
33
100
AcDbEntity
  8
Ebene 1
100
AcDbSpline
210
0.0
220
0.0
230
1.0
 70
     1
 71
     3
 72
    40
 73
    36
 74
     0
 42
0.0000000001
 43
0.0000000001
 40
0.0
 40
0.0
 40
0.0
 40
0.0
 40
0.1111111111111111
 40
0.1111111111111111
 40
0.1111111111111111
 40
0.1111111111111111
 40
0.2222222222222222
 40
0.2222222222222222
 40
0.2222222222222222
 40
0.2222222222222222
 40
0.3333333333333333
 40
0.3333333333333333
 40
0.3333333333333333
 40
0.3333333333333333
 40
0.4444444444444444
 40
0.4444444444444444
 40
0.4444444444444444
 40
0.4444444444444444
 40
0.5555555555555556
 40
0.5555555555555556
 40
0.5555555555555556
 40
0.5555555555555556
 40
0.6666666666666667
 40
0.6666666666666667
 40
0.6666666666666667
 40
0.6666666666666667
 40
0.7777777777777779
 40
0.7777777777777779
 40
0.7777777777777779
 40
0.7777777777777779
 40
0.8888888888888891
 40
0.8888888888888891
 40
0.8888888888888891
 40
0.8888888888888891
 40
1.0
 40
1.0
 40
1.0
 40
1.0
 10
-12.7408
 20
61.592100000000002
 30
0.0
 10
-12.7408
 20
61.196199999999997
 30
0.0
 10
-12.634600000000001
 20
60.885100000000001
 30
0.0
 10
-12.4221
 20
60.657299999999999
 30
0.0
 10
-12.4221
 20
60.657299999999999
 30
0.0
 10
-12.2088
 20
60.429600000000001
 30
0.0
 10
-11.9421
 20
60.3157
 30
0.0
 10
-11.6211
 20
60.3157
 30
0.0
 10
-11.6211
 20
60.3157
 30
0.0
 10
-11.293900000000001
 20
60.3157
 30
0.0
 10
-11.024900000000001
 20
60.430300000000003
 30
0.0
 10
-10.8139
 20
60.660400000000003
 30
0.0
 10
-10.8139
 20
60.660400000000003
 30
0.0
 10
-10.6029
 20
60.890500000000003
 30
0.0
 10
-10.496700000000001
 20
61.216799999999999
 30
0.0
 10
-10.496700000000001
 20
61.639499999999998
 30
0.0
 10
-10.496700000000001
 20
61.639499999999998
 30
0.0
 10
-10.496700000000001
 20
61.906300000000002
 30
0.0
 10
-10.5426
 20
62.139400000000002
 30
0.0
 10
-10.6328
 20
62.338900000000002
 30
0.0
 10
-10.6328
 20
62.338900000000002
 30
0.0
 10
-10.722899999999999
 20
62.538400000000003
 30
0.0
 10
-10.8552
 20
62.692799999999998
 30
0.0
 10
-11.028700000000001
 20
62.802900000000001
 30
0.0
 10
-11.028700000000001
 20
62.802900000000001
 30
0.0
 10
-11.202999999999999
 20
62.912199999999999
 30
0.0
 10
-11.3979
 20
62.967199999999998
 30
0.0
 10
-11.6142
 20
62.967199999999998
 30
0.0
 10
-11.6142
 20
62.967199999999998
 30
0.0
 10
-11.9222
 20
62.967199999999998
 30
0.0
 10
-12.1867
 20
62.861699999999999
 30
0.0
 10
-12.408300000000001
 20
62.649999999999999
 30
0.0
 10
-12.408300000000001
 20
62.649999999999999
 30
0.0
 10
-12.630000000000001
 20
62.439
 30
0.0
 10
-12.7408
 20
62.085900000000002
 30
0.0
 10
-12.7408
 20
61.592100000000002
 30
0.0
  0
SPLINE
  5
34
100
AcDbEntity
  8
Ebene 1
100
AcDbSpline
210
0.0
220
0.0
230
1.0
 70
     1
 71
     3
 72
    36
 73
    32
 74
     0
 42
0.0000000001
 43
0.0000000001
 40
0.0
 40
0.0
 40
0.0
 40
0.0
 40
0.125
 40
0.125
 40
0.125
 40
0.125
 40
0.25
 40
0.25
 40
0.25
 40
0.25
 40
0.375
 40
0.375
 40
0.375
 40
0.375
 40
0.5
 40
0.5
 40
0.5
 40
0.5
 40
0.625
 40
0.625
 40
0.625
 40
0.625
 40
0.75
 40
0.75
 40
0.75
 40
0.75
 40
0.875
 40
0.875
 40
0.875
 40
0.875
 40
1.0
 40
1.0
 40
1.0
 40
1.0
 10
-49.412500000000001
 20
69.75
 30
0.0
 10
-49.412500000000001
 20
69.75
 30
0.0
 10
-11.5875
 20
69.75
 30
0.0
 10
-11.5875
 20
69.75
 30
0.0
 10
-11.5875
 20
69.75
 30
0.0
 10
-9.7517999999999994
 20
69.75
 30
0.0
 10
-8.25
 20
68.248199999999997
 30
0.0
 10
-8.25
 20
66.412499999999994
 30
0.0
 10
-8.25
 20
66.412499999999994
 30
0.0
 10
-8.25
 20
66.412499999999994
 30
0.0
 10
-8.25
 20
28.587499999999999
 30
0.0
 10
-8.25
 20
28.587499999999999
 30
0.0
 10
-8.25
 20
28.587499999999999
 30
0.0
 10
-8.25
 20
26.751799999999999
 30
0.0
 10
-9.7517999999999994
 20
25.25
 30
0.0
 10
-11.5875
 20
25.25
 30
0.0
 10
-11.5875
 20
25.25
 30
0.0
 10
-11.5875
 20
25.25
 30
0.0
 10
-49.412500000000001
 20
25.25
 30
0.0
 10
-49.412500000000001
 20
25.25
 30
0.0
 10
-49.412500000000001
 20
25.25
 30
0.0
 10
-51.248199999999997
 20
25.25
 30
0.0
 10
-52.75
 20
26.751799999999999
 30
0.0
 10
-52.75
 20
28.587499999999999
 30
0.0
 10
-52.75
 20
28.587499999999999
 30
0.0
 10
-52.75
 20
28.587499999999999
 30
0.0
 10
-52.75
 20
66.412499999999994
 30
0.0
 10
-52.75
 20
66.412499999999994
 30
0.0
 10
-52.75
 20
66.412499999999994
 30
0.0
 10
-52.75
 20
68.248199999999997
 30
0.0
 10
-51.248199999999997
 20
69.75
 30
0.0
 10
-49.412500000000001
 20
69.75
 30
0.0
  0
SPLINE
  5
35
100
AcDbEntity
  8
Ebene 1
100
AcDbSpline
210
0.0
220
0.0
230
1.0
 70
     0
 71
     3
 72
     8
 73
     4
 74
     0
 42
0.0000000001
 43
0.0000000001
 40
0.0
 40
0.0
 40
0.0
 40
0.0
 40
1.0
 40
1.0
 40
1.0
 40
1.0
 10
-41.5
 20
47.5
 30
0.0
 10
-41.5
 20
47.5
 30
0.0
 10
-42.453200000000002
 20
48.531199999999998
 30
0.0
 10
-42.453200000000002
 20
48.531199999999998
 30
0.0
  0
SPLINE
  5
36
100
AcDbEntity
  8
Ebene 1
100
AcDbSpline
210
0.0
220
0.0
230
1.0
 70
     0
 71
     3
 72
     8
 73
     4
 74
     0
 42
0.0000000001
 43
0.0000000001
 40
0.0
 40
0.0
 40
0.0
 40
0.0
 40
1.0
 40
1.0
 40
1.0
 40
1.0
 10
-41.5
 20
47.5
 30
0.0
 10
-41.5
 20
47.5
 30
0.0
 10
-42.453200000000002
 20
46.468800000000002
 30
0.0
 10
-42.453200000000002
 20
46.468800000000002
 30
0.0
  0
ENDSEC
  0
SECTION
  2
OBJECTS
  0
DICTIONARY
  5
19
100
AcDbDictionary
280
     0
281
     1
  3
ACAD_GROUP
350
1A
  3
ACAD_MLINESTYLE
350
1B
  3
ACAD_LAYOUT
350
1E
  3
ACAD_PLOTSETTINGS
350
22
  3
ACAD_PLOTSTYLENAME
350
1F
  3
ACAD_WIPEOUT_VARS
350
23
  0
DICTIONARY
  5
1A
102
{ACAD_REACTORS
330
19
102
}
100
AcDbDictionary
280
     0
281
     1
  0
DICTIONARY
  5
1B
102
{ACAD_REACTORS
330
19
102
}
100
AcDbDictionary
280
     0
281
     1
  3
Standard
350
1C
  0
MLINESTYLE
  5
1C
102
{ACAD_REACTORS
330
1B
102
}
100
AcDbMlineStyle
  2
Standard
 70
     0
  3

 62
     0
 51
90.0
 52
90.0
 71
     2
 49
0.5
 62
   256
  6
BYLAYER
 49
-0.5
 62
   256
  6
BYLAYER
  0
ACDBDICTIONARYWDFLT
  5
1F
102
{ACAD_REACTORS
330
19
102
}
100
AcDbDictionary
281
     1
  3
Normal
350
1D
100
AcDbDictionaryWithDefault
340
1D
  0
ACDBPLACEHOLDER
  5
1D
102
{ACAD_REACTORS
330
1F
102
}
  0
LAYOUT
  5
20
102
{ACAD_REACTORS
330
1E
102
}
100
AcDbPlotSettings
  1

  2

  4

  6

 40
0.0
 41
0.0
 42
0.0
 43
0.0
 44
0.0
 45
0.0
 46
0.0
 47
0.0
 48
0.0
 49
0.0
140
0.0
141
0.0
142
1.0
143
1.0
 70
  1024
 72
     0
 73
     0
 74
     0
  7

 75
     0
147
1.0
148
0.0
149
0.0
100
AcDbLayout
  1
Model
 70
     0
 71
     0
 10
0.0
 20
0.0
 11
0.0
 21
0.0
 12
0.0
 22
0.0
 32
0.0
 14
0.0
 24
0.0
 34
0.0
 15
0.0
 25
0.0
 35
0.0
146
0.0
 13
0.0
 23
0.0
 33
0.0
 16
0.0
 26
0.0
 36
0.0
 17
0.0
 27
0.0
 37
0.0
 76
     0
330
A
331
0
345
0
346
0
  0
LAYOUT
  5
21
102
{ACAD_REACTORS
330
1E
102
}
100
AcDbPlotSettings
  1

  2

  4

  6

 40
0.0
 41
0.0
 42
0.0
 43
0.0
 44
0.0
 45
0.0
 46
0.0
 47
0.0
 48
0.0
 49
0.0
140
0.0
141
0.0
142
1.0
143
1.0
 70
     0
 72
     0
 73
     0
 74
     0
  7

 75
     0
147
1.0
148
0.0
149
0.0
100
AcDbLayout
  1
Layout1
 70
     0
 71
     0
 10
0.0
 20
0.0
 11
0.0
 21
0.0
 12
0.0
 22
0.0
 32
0.0
 14
0.0
 24
0.0
 34
0.0
 15
0.0
 25
0.0
 35
0.0
146
0.0
 13
0.0
 23
0.0
 33
0.0
 16
0.0
 26
0.0
 36
0.0
 17
0.0
 27
0.0
 37
0.0
 76
     0
330
B
331
0
345
0
346
0
  0
DICTIONARY
  5
1E
102
{ACAD_REACTORS
330
19
102
}
100
AcDbDictionary
280
     0
281
     1
  3
Layout1
350
21
  3
Model
350
20
  0
DICTIONARY
  5
22
102
{ACAD_REACTORS
330
19
102
}
100
AcDbDictionary
280
     0
281
     1
  0
WIPEOUTVARIABLES
  5
23
100
AcDbWipeoutVariables
 70
     1
  0
ENDSEC
  0
EOF
