  0
SECTION
  2
HEADER
  9
$ACADVER
  1
AC1018
  9
$ACADMAINTVER
 70
     0
  9
$DWGCODEPAGE
  3
ANSI_1252
  9
$INSBASE
 10
0.0
 20
0.0
 30
0.0
  9
$EXTMIN
 10
0.0
 20
-37.56639534883734
 30
-37.56639534883832
  9
$EXTMAX
 10
30.0
 20
37.56639534883726
 30
37.56639534883723
  9
$LIMMIN
 10
0.0
 20
0.0
  9
$LIMMAX
 10
12.0
 20
9.0
  9
$ORTHOMODE
 70
     0
  9
$REGENMODE
 70
     1
  9
$FILLMODE
 70
     1
  9
$QTEXTMODE
 70
     0
  9
$MIRRTEXT
 70
     1
  9
$LTSCALE
 40
1.0
  9
$ATTMODE
 70
     1
  9
$TEXTSIZE
 40
0.2
  9
$TRACEWID
 40
0.05
  9
$TEXTSTYLE
  7
Standard
  9
$CLAYER
  8
STANDARD
  9
$CELTYPE
  6
ByLayer
  9
$CECOLOR
 62
   256
  9
$CELTSCALE
 40
1.0
  9
$DISPSILH
 70
     0
  9
$DIMSCALE
 40
1.0
  9
$DIMASZ
 40
0.18
  9
$DIMEXO
 40
0.0625
  9
$DIMDLI
 40
0.38
  9
$DIMRND
 40
0.0
  9
$DIMDLE
 40
0.0
  9
$DIMEXE
 40
0.18
  9
$DIMTP
 40
0.0
  9
$DIMTM
 40
0.0
  9
$DIMTXT
 40
0.18
  9
$DIMCEN
 40
0.09
  9
$DIMTSZ
 40
0.0
  9
$DIMTOL
 70
     0
  9
$DIMLIM
 70
     0
  9
$DIMTIH
 70
     1
  9
$DIMTOH
 70
     1
  9
$DIMSE1
 70
     0
  9
$DIMSE2
 70
     0
  9
$DIMTAD
 70
     0
  9
$DIMZIN
 70
     0
  9
$DIMBLK
  1

  9
$DIMASO
 70
     1
  9
$DIMSHO
 70
     1
  9
$DIMPOST
  1

  9
$DIMAPOST
  1

  9
$DIMALT
 70
     0
  9
$DIMALTD
 70
     2
  9
$DIMALTF
 40
25.4
  9
$DIMLFAC
 40
1.0
  9
$DIMTOFL
 70
     0
  9
$DIMTVP
 40
0.0
  9
$DIMTIX
 70
     0
  9
$DIMSOXD
 70
     0
  9
$DIMSAH
 70
     0
  9
$DIMBLK1
  1

  9
$DIMBLK2
  1

  9
$DIMSTYLE
  2
Standard
  9
$DIMCLRD
 70
     0
  9
$DIMCLRE
 70
     0
  9
$DIMCLRT
 70
     0
  9
$DIMTFAC
 40
1.0
  9
$DIMGAP
 40
0.09
  9
$DIMJUST
 70
     0
  9
$DIMSD1
 70
     0
  9
$DIMSD2
 70
     0
  9
$DIMTOLJ
 70
     1
  9
$DIMTZIN
 70
     0
  9
$DIMALTZ
 70
     0
  9
$DIMALTTZ
 70
     0
  9
$DIMUPT
 70
     0
  9
$DIMDEC
 70
     4
  9
$DIMTDEC
 70
     4
  9
$DIMALTU
 70
     2
  9
$DIMALTTD
 70
     2
  9
$DIMTXSTY
  7
Standard
  9
$DIMAUNIT
 70
     0
  9
$DIMADEC
 70
     0
  9
$DIMALTRND
 40
0.0
  9
$DIMAZIN
 70
     0
  9
$DIMDSEP
 70
    46
  9
$DIMATFIT
 70
     3
  9
$DIMFRAC
 70
     0
  9
$DIMLDRBLK
  1

  9
$DIMLUNIT
 70
     2
  9
$DIMLWD
 70
    -2
  9
$DIMLWE
 70
    -2
  9
$DIMTMOVE
 70
     0
  9
$LUNITS
 70
     2
  9
$LUPREC
 70
     3
  9
$SKETCHINC
 40
0.1
  9
$FILLETRAD
 40
0.5
  9
$AUNITS
 70
     0
  9
$AUPREC
 70
     0
  9
$MENU
  1
.
  9
$ELEVATION
 40
0.0
  9
$PELEVATION
 40
0.0
  9
$THICKNESS
 40
0.0
  9
$LIMCHECK
 70
     0
  9
$CHAMFERA
 40
0.5
  9
$CHAMFERB
 40
0.5
  9
$CHAMFERC
 40
1.0
  9
$CHAMFERD
 40
0.0
  9
$SKPOLY
 70
     0
  9
$TDCREATE
 40
2457593.464258716
  9
$TDUCREATE
 40
2457593.380925382
  9
$TDUPDATE
 40
2457593.464258727
  9
$TDUUPDATE
 40
2457593.380925394
  9
$TDINDWG
 40
0.0000000116
  9
$TDUSRTIMER
 40
0.0000000116
  9
$USRTIMER
 70
     1
  9
$ANGBASE
 50
0.0
  9
$ANGDIR
 70
     0
  9
$PDMODE
 70
     0
  9
$PDSIZE
 40
0.0
  9
$PLINEWID
 40
0.0
  9
$SPLFRAME
 70
     0
  9
$SPLINETYPE
 70
     6
  9
$SPLINESEGS
 70
     8
  9
$HANDSEED
  5
229
  9
$SURFTAB1
 70
     6
  9
$SURFTAB2
 70
     6
  9
$SURFTYPE
 70
     6
  9
$SURFU
 70
     6
  9
$SURFV
 70
     6
  9
$UCSBASE
  2

  9
$UCSNAME
  2

  9
$UCSORG
 10
0.0
 20
0.0
 30
0.0
  9
$UCSXDIR
 10
1.0
 20
0.0
 30
0.0
  9
$UCSYDIR
 10
0.0
 20
1.0
 30
0.0
  9
$UCSORTHOREF
  2

  9
$UCSORTHOVIEW
 70
     0
  9
$UCSORGTOP
 10
0.0
 20
0.0
 30
0.0
  9
$UCSORGBOTTOM
 10
0.0
 20
0.0
 30
0.0
  9
$UCSORGLEFT
 10
0.0
 20
0.0
 30
0.0
  9
$UCSORGRIGHT
 10
0.0
 20
0.0
 30
0.0
  9
$UCSORGFRONT
 10
0.0
 20
0.0
 30
0.0
  9
$UCSORGBACK
 10
0.0
 20
0.0
 30
0.0
  9
$PUCSBASE
  2

  9
$PUCSNAME
  2

  9
$PUCSORG
 10
0.0
 20
0.0
 30
0.0
  9
$PUCSXDIR
 10
1.0
 20
0.0
 30
0.0
  9
$PUCSYDIR
 10
0.0
 20
1.0
 30
0.0
  9
$PUCSORTHOREF
  2

  9
$PUCSORTHOVIEW
 70
     0
  9
$PUCSORGTOP
 10
0.0
 20
0.0
 30
0.0
  9
$PUCSORGBOTTOM
 10
0.0
 20
0.0
 30
0.0
  9
$PUCSORGLEFT
 10
0.0
 20
0.0
 30
0.0
  9
$PUCSORGRIGHT
 10
0.0
 20
0.0
 30
0.0
  9
$PUCSORGFRONT
 10
0.0
 20
0.0
 30
0.0
  9
$PUCSORGBACK
 10
0.0
 20
0.0
 30
0.0
  9
$USERI1
 70
     0
  9
$USERI2
 70
     0
  9
$USERI3
 70
     0
  9
$USERI4
 70
     0
  9
$USERI5
 70
     0
  9
$USERR1
 40
0.0
  9
$USERR2
 40
0.0
  9
$USERR3
 40
0.0
  9
$USERR4
 40
0.0
  9
$USERR5
 40
0.0
  9
$WORLDVIEW
 70
     1
  9
$SHADEDGE
 70
     3
  9
$SHADEDIF
 70
    70
  9
$TILEMODE
 70
     1
  9
$MAXACTVP
 70
    64
  9
$PINSBASE
 10
0.0
 20
0.0
 30
0.0
  9
$PLIMCHECK
 70
     0
  9
$PEXTMIN
 10
1.000000000000000E+20
 20
1.000000000000000E+20
 30
1.000000000000000E+20
  9
$PEXTMAX
 10
-1.000000000000000E+20
 20
-1.000000000000000E+20
 30
-1.000000000000000E+20
  9
$PLIMMIN
 10
0.0
 20
0.0
  9
$PLIMMAX
 10
12.0
 20
9.0
  9
$UNITMODE
 70
     0
  9
$VISRETAIN
 70
     1
  9
$PLINEGEN
 70
     0
  9
$PSLTSCALE
 70
     1
  9
$TREEDEPTH
 70
  3020
  9
$CMLSTYLE
  2
Standard
  9
$CMLJUST
 70
     0
  9
$CMLSCALE
 40
1.0
  9
$PROXYGRAPHICS
 70
     1
  9
$MEASUREMENT
 70
     0
  9
$CELWEIGHT
370
    -1
  9
$ENDCAPS
280
     0
  9
$JOINSTYLE
280
     0
  9
$LWDISPLAY
290
     0
  9
$INSUNITS
 70
     4
  9
$HYPERLINKBASE
  1

  9
$STYLESHEET
  1

  9
$XEDIT
290
     1
  9
$CEPSNTYPE
380
     0
  9
$PSTYLEMODE
290
     1
  9
$FINGERPRINTGUID
  2
{D7049340-4F8D-4DE0-B379-2851041BF940}
  9
$VERSIONGUID
  2
{FAEB1C32-E019-11D5-929B-00C0DF256EC4}
  9
$EXTNAMES
290
     1
  9
$PSVPSCALE
 40
0.0
  9
$OLESTARTUP
290
     0
  9
$SORTENTS
280
   127
  9
$INDEXCTL
280
     0
  9
$HIDETEXT
280
     1
  9
$XCLIPFRAME
290
     0
  9
$HALOGAP
280
     0
  9
$OBSCOLOR
 70
   257
  9
$OBSLTYPE
280
     0
  9
$INTERSECTIONDISPLAY
280
     0
  9
$INTERSECTIONCOLOR
 70
   257
  9
$DIMASSOC
280
     2
  9
$PROJECTNAME
  1

  0
ENDSEC
  0
SECTION
  2
CLASSES
  0
CLASS
  1
ACDBDICTIONARYWDFLT
  2
AcDbDictionaryWithDefault
  3
ObjectDBX Classes
 90
        0
 91
        3
280
     0
281
     0
  0
ENDSEC
  0
SECTION
  2
TABLES
  0
TABLE
  2
VPORT
  5
8
330
0
100
AcDbSymbolTable
 70
     1
  0
VPORT
  5
29
330
8
100
AcDbSymbolTableRecord
100
AcDbViewportTableRecord
  2
*Active
 70
     0
 10
0.0
 20
0.0
 11
1.0
 21
1.0
 12
0.0
 22
0.0
 13
0.0
 23
0.0
 14
0.5
 24
0.5
 15
0.5
 25
0.5
 16
0.0
 26
0.0
 36
1.0
 17
15.0
 27
-0.0000000000000355
 37
0.0
 40
76.6354465116281
 41
0.3992930346580154
 42
50.0
 43
0.0
 44
0.0
 50
0.0
 51
0.0
 71
     0
 72
   100
 73
     1
 74
     3
 75
     0
 76
     0
 77
     0
 78
     0
281
     0
 65
     1
110
0.0
120
0.0
130
0.0
111
1.0
121
0.0
131
0.0
112
0.0
122
1.0
132
0.0
 79
     0
146
0.0
  0
ENDTAB
  0
TABLE
  2
LTYPE
  5
5
330
0
100
AcDbSymbolTable
 70
     1
  0
LTYPE
  5
14
330
5
100
AcDbSymbolTableRecord
100
AcDbLinetypeTableRecord
  2
ByBlock
 70
     0
  3

 72
    65
 73
     0
 40
0.0
  0
LTYPE
  5
15
330
5
100
AcDbSymbolTableRecord
100
AcDbLinetypeTableRecord
  2
ByLayer
 70
     0
  3

 72
    65
 73
     0
 40
0.0
  0
LTYPE
  5
16
330
5
100
AcDbSymbolTableRecord
100
AcDbLinetypeTableRecord
  2
Continuous
 70
     0
  3
Solid line
 72
    65
 73
     0
 40
0.0
  0
ENDTAB
  0
TABLE
  2
LAYER
  5
2
330
0
100
AcDbSymbolTable
 70
     2
  0
LAYER
  5
10
330
2
100
AcDbSymbolTableRecord
100
AcDbLayerTableRecord
  2
0
 70
     0
 62
     7
  6
Continuous
370
    -3
390
F
  0
LAYER
  5
2A
330
2
100
AcDbSymbolTableRecord
100
AcDbLayerTableRecord
  2
STANDARD
 70
     0
 62
     7
  6
Continuous
370
    -3
390
F
  0
ENDTAB
  0
TABLE
  2
STYLE
  5
3
330
0
100
AcDbSymbolTable
 70
     1
  0
STYLE
  5
11
330
3
100
AcDbSymbolTableRecord
100
AcDbTextStyleTableRecord
  2
Standard
 70
     0
 40
0.0
 41
1.0
 50
0.0
 71
     0
 42
0.2
  3
txt
  4

  0
ENDTAB
  0
TABLE
  2
VIEW
  5
6
330
0
100
AcDbSymbolTable
 70
     0
  0
ENDTAB
  0
TABLE
  2
UCS
  5
7
330
0
100
AcDbSymbolTable
 70
     0
  0
ENDTAB
  0
TABLE
  2
APPID
  5
9
330
0
100
AcDbSymbolTable
 70
     1
  0
APPID
  5
12
330
9
100
AcDbSymbolTableRecord
100
AcDbRegAppTableRecord
  2
ACAD
 70
     0
  0
ENDTAB
  0
TABLE
  2
DIMSTYLE
  5
A
330
0
100
AcDbSymbolTable
 70
     1
100
AcDbDimStyleTable
  0
DIMSTYLE
105
27
330
A
100
AcDbSymbolTableRecord
100
AcDbDimStyleTableRecord
  2
Standard
 70
     0
340
11
  0
ENDTAB
  0
TABLE
  2
BLOCK_RECORD
  5
1
330
0
100
AcDbSymbolTable
 70
     1
  0
BLOCK_RECORD
  5
1F
330
1
100
AcDbSymbolTableRecord
100
AcDbBlockTableRecord
  2
*Model_Space
340
22
  0
BLOCK_RECORD
  5
1B
330
1
100
AcDbSymbolTableRecord
100
AcDbBlockTableRecord
  2
*Paper_Space
340
1E
  0
BLOCK_RECORD
  5
23
330
1
100
AcDbSymbolTableRecord
100
AcDbBlockTableRecord
  2
*Paper_Space0
340
26
  0
ENDTAB
  0
ENDSEC
  0
SECTION
  2
BLOCKS
  0
BLOCK
  5
20
330
1F
100
AcDbEntity
  8
0
100
AcDbBlockBegin
  2
*Model_Space
 70
     0
 71
     0
 10
0.0
 20
0.0
 30
0.0
  3
*Model_Space
  1

  0
ENDBLK
  5
21
330
1F
100
AcDbEntity
  8
0
100
AcDbBlockEnd
  0
BLOCK
  5
1C
330
1B
100
AcDbEntity
 67
     1
  8
0
100
AcDbBlockBegin
  2
*Paper_Space
 70
     0
 71
     0
 10
0.0
 20
0.0
 30
0.0
  3
*Paper_Space
  1

  0
ENDBLK
  5
1D
330
1B
100
AcDbEntity
 67
     1
  8
0
100
AcDbBlockEnd
  0
BLOCK
  5
24
330
23
100
AcDbEntity
  8
0
100
AcDbBlockBegin
  2
*Paper_Space0
 70
     0
 71
     0
 10
0.0
 20
0.0
 30
0.0
  3
*Paper_Space0
  1

  0
ENDBLK
  5
25
330
23
100
AcDbEntity
  8
0
100
AcDbBlockEnd
  0
ENDSEC
  0
SECTION
  2
ENTITIES
  0
SPLINE
  5
2B
330
1F
100
AcDbEntity
  8
STANDARD
100
AcDbSpline
210
1.0
220
-1.968705806445407E-18
230
7.051781573288407E-17
 70
    12
 71
     2
 72
     8
 73
     5
 74
     0
 42
0.0000000001
 43
0.0000000001
 40
-6.480120051123082
 40
-6.480120051123082
 40
-6.480120051123082
 40
-3.240060025561541
 40
-3.240060025561541
 40
0.0
 40
0.0
 40
0.0
 10
0.0000000000000003
 20
37.56639534883726
 30
-2.099182101405463
 41
1.0
 10
0.0
 20
35.52500000000057
 30
-2.042190732136425
 41
0.7169054947286951
 10
0.0
 20
35.5250000000005
 30
-0.0000000000000666
 41
1.0
 10
0.0
 20
35.52500000000042
 30
2.042190732136291
 41
0.7169054947286951
 10
0.0
 20
37.5663953488372
 30
2.099182101405709
 41
1.0
  0
SPLINE
  5
2C
330
1F
100
AcDbEntity
  8
STANDARD
100
AcDbSpline
210
-1.0
220
-4.231849860872715E-14
230
3.183192345040386E-15
 70
    12
 71
     2
 72
     6
 73
     3
 74
     0
 42
0.0000000001
 43
0.0000000001
 40
0.0
 40
0.0
 40
0.0
 40
0.7245556322814172
 40
0.7245556322814172
 40
0.7245556322814172
 10
0.0
 20
37.51900787541462
 30
-2.822175232790207
 41
1.0
 10
0.0
 20
37.54618244225793
 30
-2.460906812757939
 41
0.9999536449435805
 10
0.0000000000000003
 20
37.56639534883726
 30
-2.099182101405463
 41
1.0
  0
SPLINE
  5
2D
330
1F
100
AcDbEntity
  8
STANDARD
100
AcDbSpline
210
-1.0
220
0.0
230
0.0
 70
    12
 71
     2
 72
     8
 73
     5
 74
     0
 42
0.0000000001
 43
0.0000000001
 40
-6.480120051122991
 40
-6.480120051122991
 40
-6.480120051122991
 40
-3.240060025561495
 40
-3.240060025561495
 40
0.0
 40
0.0
 40
0.0
 10
0.0
 20
36.97101138246866
 30
-6.984621847843544
 41
1.0
 10
0.0
 20
34.95451932025228
 30
-6.661662485939186
 41
0.7169054947287052
 10
0.0
 20
35.22107870030509
 30
-4.63694297861742
 41
1.0
 10
0.0
 20
35.48763808035788
 30
-2.612223471295654
 41
0.7169054947287052
 10
0.0
 20
37.51900787541462
 30
-2.822175232790207
 41
1.0
  0
SPLINE
  5
2E
330
1F
100
AcDbEntity
  8
STANDARD
100
AcDbSpline
210
-1.0
220
0.0
230
0.0
 70
    12
 71
     2
 72
     6
 73
     3
 74
     0
 42
0.0000000001
 43
0.0000000001
 40
0.0
 40
0.0
 40
0.0
 40
0.7245556322801155
 40
0.7245556322801155
 40
0.7245556322801155
 10
0.0
 20
36.82965977500951
 30
-7.695244366298295
 41
1.0
 10
0.0
 20
36.9037568509024
 30
-7.340613640416592
 41
0.9999536449435807
 10
0.0
 20
36.97101138246866
 30
-6.984621847843544
 41
1.0
  0
SPLINE
  5
2F
330
1F
100
AcDbEntity
  8
STANDARD
100
AcDbSpline
210
-1.0
220
-1.634972994788727E-17
230
-6.862451798679196E-17
 70
    12
 71
     2
 72
     8
 73
     5
 74
     0
 42
0.0000000001
 43
0.0000000001
 40
-6.480120051122175
 40
-6.480120051122175
 40
-6.480120051122175
 40
-3.240060025561088
 40
-3.240060025561088
 40
0.0
 40
0.0
 40
0.0
 10
0.0000000000000003
 20
35.74304316104499
 30
-11.75055277796146
 41
1.0
 10
0.0
 20
33.78595712371079
 30
-11.16715134764502
 41
0.7169054947287704
 10
0.0
 20
34.31451497891975
 30
-9.194546577266843
 41
1.0
 10
0.0
 20
34.8430728341287
 30
-7.221941806888666
 41
0.7169054947287704
 10
0.0
 20
36.82965977500951
 30
-7.695244366298295
 41
1.0
  0
SPLINE
  5
30
330
1F
100
AcDbEntity
  8
STANDARD
100
AcDbSpline
210
-1.0
220
-6.021033477270472E-14
230
2.065441211776200E-14
 70
    12
 71
     2
 72
     6
 73
     3
 74
     0
 42
0.0000000001
 43
0.0000000001
 40
0.0
 40
0.0
 40
0.0
 40
0.7245556322801155
 40
0.7245556322801155
 40
0.7245556322801155
 10
0.0000000000000001
 20
35.51014598474319
 30
-12.4366457351742
 41
1.0
 10
0.0
 20
35.62989774817358
 30
-12.09472053348445
 41
0.9999536449435807
 10
0.0000000000000003
 20
35.74304316104499
 30
-11.75055277796146
 41
1.0
  0
SPLINE
  5
31
330
1F
100
AcDbEntity
  8
STANDARD
100
AcDbSpline
210
-1.0
220
6.699419783679572E-17
230
-2.774990534431160E-17
 70
    12
 71
     2
 72
     8
 73
     5
 74
     0
 42
0.0000000001
 43
0.0000000001
 40
-6.480120051126216
 40
-6.480120051126216
 40
-6.480120051126216
 40
-3.240060025563108
 40
-3.240060025563108
 40
0.0
 40
0.0
 40
0.0
 10
0.0000000000000001
 20
33.90350156129207
 30
-16.31542849218035
 41
1.0
 10
0.0
 20
32.03930783354323
 30
-15.48156715367533
 41
0.716905494728435
 10
0.0
 20
32.82082039246222
 30
-13.59482893476902
 41
1.0
 10
0.0
 20
33.6023329513812
 30
-11.70809071586271
 41
0.716905494728435
 10
0.0000000000000001
 20
35.51014598474319
 30
-12.4366457351742
 41
1.0
  0
SPLINE
  5
32
330
1F
100
AcDbEntity
  8
STANDARD
100
AcDbSpline
210
-1.0
220
-1.893951986890696E-14
230
9.567737277641805E-15
 70
    12
 71
     2
 72
     6
 73
     3
 74
     0
 42
0.0000000001
 43
0.0000000001
 40
0.0
 40
0.0
 40
0.0
 40
0.724555632278597
 40
0.724555632278597
 40
0.724555632278597
 10
0.0
 20
33.58304375140548
 30
-16.96525264743167
 41
1.0
 10
0.0
 20
33.74640121649925
 30
-16.64188340493505
 41
0.999953644943581
 10
0.0000000000000001
 20
33.90350156129207
 30
-16.31542849218035
 41
1.0
  0
SPLINE
  5
33
330
1F
100
AcDbEntity
  8
STANDARD
100
AcDbSpline
210
-1.0
220
0.0
230
0.0
 70
    12
 71
     2
 72
     8
 73
     5
 74
     0
 42
0.0000000001
 43
0.0000000001
 40
-6.480120051122563
 40
-6.480120051122563
 40
-6.480120051122563
 40
-3.240060025561282
 40
-3.240060025561282
 40
0.0
 40
0.0
 40
0.0
 10
0.0
 20
31.48386164999954
 30
-20.60114270140553
 41
1.0
 10
0.0
 20
29.74445710337442
 30
-19.53108905340281
 41
0.7169054947287382
 10
0.0
 20
30.76555246944273
 30
-17.76249999999994
 41
1.0
 10
0.0
 20
31.78664783551104
 30
-15.99391094659707
 41
0.7169054947287382
 10
0.0
 20
33.58304375140548
 30
-16.96525264743167
 41
1.0
  0
SPLINE
  5
34
330
1F
100
AcDbEntity
  8
STANDARD
100
AcDbSpline
210
-1.0
220
0.0
230
0.0
 70
    12
 71
     2
 72
     6
 73
     3
 74
     0
 42
0.0000000001
 43
0.0000000001
 40
0.0
 40
0.0
 40
0.0
 40
0.7245556322803325
 40
0.7245556322803325
 40
0.7245556322803325
 10
0.0
 20
31.08132632850238
 30
-21.20357938323492
 41
1.0
 10
0.0
 20
31.28549440374136
 30
-20.90429903732397
 41
0.9999536449435807
 10
0.0
 20
31.48386164999954
 30
-20.60114270140553
 41
1.0
  0
SPLINE
  5
35
330
1F
100
AcDbEntity
  8
STANDARD
100
AcDbSpline
210
-1.0
220
-4.136664694857251E-17
230
-5.714401682170217E-17
 70
    12
 71
     2
 72
     8
 73
     5
 74
     0
 42
0.0000000001
 43
0.0000000001
 40
-6.480120051126496
 40
-6.480120051126496
 40
-6.480120051126496
 40
-3.240060025563248
 40
-3.240060025563248
 40
0.0
 40
0.0
 40
0.0
 10
0.0000000000000003
 20
28.52552413689928
 30
-24.53436564729497
 41
1.0
 10
0.0
 20
26.94067046544017
 30
-23.24642860438722
 41
0.7169054947284118
 10
0.0
 20
28.18387741384502
 30
-21.62624976553383
 41
1.0
 10
0.0
 20
29.42708436224989
 30
-20.00607092668045
 41
0.7169054947284118
 10
0.0
 20
31.08132632850238
 30
-21.20357938323492
 41
1.0
  0
SPLINE
  5
36
330
1F
100
AcDbEntity
  8
STANDARD
100
AcDbSpline
210
-1.0
220
-3.163571750614046E-14
230
2.828726596589134E-14
 70
    12
 71
     2
 72
     6
 73
     3
 74
     0
 42
0.0000000001
 43
0.0000000001
 40
0.0
 40
0.0
 40
0.0
 40
0.7245556322788139
 40
0.7245556322788139
 40
0.7245556322788139
 10
0.0
 20
28.04779879474697
 30
-25.07910699704819
 41
1.0
 10
0.0
 20
28.28928410775676
 30
-24.80903631741901
 41
0.9999536449435809
 10
0.0000000000000003
 20
28.52552413689928
 30
-24.53436564729497
 41
1.0
  0
SPLINE
  5
37
330
1F
100
AcDbEntity
  8
STANDARD
100
AcDbSpline
210
-1.0
220
5.129456738184924E-17
230
-1.510218187802391E-16
 70
    12
 71
     2
 72
     8
 73
     5
 74
     0
 42
0.0000000001
 43
0.0000000001
 40
-6.480120051125986
 40
-6.480120051125986
 40
-6.480120051125986
 40
-3.240060025562993
 40
-3.240060025562993
 40
0.0
 40
0.0
 40
0.0
 10
0.0000000000000003
 20
25.07910699704831
 30
-28.04779879474647
 41
1.0
 10
0.0
 20
23.67592148648012
 30
-26.56401531682148
 41
0.7169054947284541
 10
0.0
 20
25.11996840165136
 30
-25.11996840165084
 41
1.0
 10
0.0
 20
26.56401531682259
 30
-23.6759214864802
 41
0.7169054947284541
 10
0.0
 20
28.04779879474697
 30
-25.07910699704819
 41
1.0
  0
SPLINE
  5
38
330
1F
100
AcDbEntity
  8
STANDARD
100
AcDbSpline
210
-1.0
220
-2.767284044174884E-14
230
3.217455422755820E-14
 70
    12
 71
     2
 72
     6
 73
     3
 74
     0
 42
0.0000000001
 43
0.0000000001
 40
0.0
 40
0.0
 40
0.0
 40
0.7245556322822848
 40
0.7245556322822848
 40
0.7245556322822848
 10
0.0
 20
24.53436564729446
 30
-28.5255241368999
 41
1.0
 10
0.0
 20
24.80903631741887
 30
-28.28928410775692
 41
0.9999536449435804
 10
0.0000000000000003
 20
25.07910699704831
 30
-28.04779879474647
 41
1.0
  0
SPLINE
  5
39
330
1F
100
AcDbEntity
  8
STANDARD
100
AcDbSpline
210
-1.0
220
0.0
230
0.0
 70
    12
 71
     2
 72
     8
 73
     5
 74
     0
 42
0.0000000001
 43
0.0000000001
 40
-6.480120051125636
 40
-6.480120051125636
 40
-6.480120051125636
 40
-3.240060025562818
 40
-3.240060025562818
 40
0.0
 40
0.0
 40
0.0
 10
0.0
 20
21.20357938323516
 30
-31.08132632850166
 41
1.0
 10
0.0
 20
20.00607092668076
 30
-29.42708436224849
 41
0.7169054947284832
 10
0.0
 20
21.62624976553435
 30
-28.18387741384458
 41
1.0
 10
0.0
 20
23.24642860438793
 30
-26.94067046544067
 41
0.7169054947284832
 10
0.0
 20
24.53436564729446
 30
-28.5255241368999
 41
1.0
  0
SPLINE
  5
3A
330
1F
100
AcDbEntity
  8
STANDARD
100
AcDbSpline
210
-1.0
220
0.0
230
0.0
 70
    12
 71
     2
 72
     6
 73
     3
 74
     0
 42
0.0000000001
 43
0.0000000001
 40
0.0
 40
0.0
 40
0.0
 40
0.7245556322829357
 40
0.7245556322829357
 40
0.7245556322829357
 10
0.0
 20
20.60114270140554
 30
-31.48386164999972
 41
1.0
 10
0.0
 20
20.90429903732423
 30
-31.2854944037412
 41
0.9999536449435805
 10
0.0
 20
21.20357938323516
 30
-31.08132632850166
 41
0.9999999999999998
  0
SPLINE
  5
3B
330
1F
100
AcDbEntity
  8
STANDARD
100
AcDbSpline
210
-1.0
220
1.045942445612423E-17
230
-1.591518860416903E-16
 70
    12
 71
     2
 72
     8
 73
     5
 74
     0
 42
0.0000000001
 43
0.0000000001
 40
-6.480120051126688
 40
-6.480120051126688
 40
-6.480120051126688
 40
-3.240060025563344
 40
-3.240060025563344
 40
0.0
 40
0.0
 40
0.0
 10
0.0000000000000003
 20
16.96525264743138
 30
-33.58304375140551
 41
1.0
 10
0.0
 20
15.99391094659449
 30
-31.78664783550983
 41
0.7169054947283958
 10
0.0
 20
17.76249999999927
 30
-30.76555246944084
 41
1.0
 10
0.0
 20
19.53108905340407
 30
-29.74445710337186
 41
0.7169054947283958
 10
0.0
 20
20.60114270140554
 30
-31.48386164999972
 41
1.0
  0
SPLINE
  5
3C
330
1F
100
AcDbEntity
  8
STANDARD
100
AcDbSpline
210
-1.0
220
-2.797026114593607E-14
230
5.718001088629935E-14
 70
    12
 71
     2
 72
     6
 73
     3
 74
     0
 42
0.0000000001
 43
0.0000000001
 40
0.0
 40
0.0
 40
0.0
 40
0.7245556322801155
 40
0.7245556322801155
 40
0.7245556322801155
 10
0.0000000000000001
 20
16.31542849217972
 30
-33.90350156129259
 41
1.0
 10
0.0
 20
16.64188340493378
 30
-33.74640121649989
 41
0.9999536449435807
 10
0.0000000000000003
 20
16.96525264743138
 30
-33.58304375140551
 41
1.0
  0
SPLINE
  5
3D
330
1F
100
AcDbEntity
  8
STANDARD
100
AcDbSpline
210
-1.0
220
2.254813182445620E-17
230
-1.465719720573365E-16
 70
    12
 71
     2
 72
     8
 73
     5
 74
     0
 42
0.0000000001
 43
0.0000000001
 40
-6.480120051127173
 40
-6.480120051127173
 40
-6.480120051127173
 40
-3.240060025563587
 40
-3.240060025563587
 40
0.0
 40
0.0
 40
0.0
 10
0.0000000000000003
 20
12.43664573517468
 30
-35.51014598474311
 41
1.0
 10
0.0
 20
11.70809071586227
 30
-33.60233295138116
 41
0.7169054947283555
 10
0.0
 20
13.59482893476908
 30
-32.82082039246215
 41
1.0
 10
0.0
 20
15.48156715367589
 30
-32.03930783354314
 41
0.7169054947283555
 10
0.0000000000000001
 20
16.31542849217972
 30
-33.90350156129259
 41
1.0
  0
SPLINE
  5
3E
330
1F
100
AcDbEntity
  8
STANDARD
100
AcDbSpline
210
-1.0
220
-1.325370204466113E-14
230
4.031534968417473E-14
 70
    12
 71
     2
 72
     6
 73
     3
 74
     0
 42
0.0000000001
 43
0.0000000001
 40
0.0
 40
0.0
 40
0.0
 40
0.7245556322822848
 40
0.7245556322822848
 40
0.7245556322822848
 10
0.0
 20
11.75055277796137
 30
-35.74304316104529
 41
1.0
 10
0.0
 20
12.09472053348493
 30
-35.62989774817343
 41
0.9999536449435804
 10
0.0000000000000003
 20
12.43664573517468
 30
-35.51014598474311
 41
1.0
  0
SPLINE
  5
3F
330
1F
100
AcDbEntity
  8
STANDARD
100
AcDbSpline
210
-1.0
220
0.0
230
0.0
 70
    12
 71
     2
 72
     8
 73
     5
 74
     0
 42
0.0000000001
 43
0.0000000001
 40
-6.480120051126462
 40
-6.480120051126462
 40
-6.480120051126462
 40
-3.240060025563231
 40
-3.240060025563231
 40
0.0
 40
0.0
 40
0.0
 10
0.0
 20
7.695244366298716
 30
-36.82965977500928
 41
1.0
 10
0.0
 20
7.221941806886523
 30
-34.84307283412664
 41
0.7169054947284146
 10
0.0
 20
9.194546577266864
 30
-34.31451497891769
 41
1.0
 10
0.0
 20
11.1671513476472
 30
-33.78595712370874
 41
0.7169054947284146
 10
0.0
 20
11.75055277796137
 30
-35.74304316104529
 41
1.0
  0
SPLINE
  5
40
330
1F
100
AcDbEntity
  8
STANDARD
100
AcDbSpline
210
-1.0
220
0.0
230
0.0
 70
    12
 71
     2
 72
     6
 73
     3
 74
     0
 42
0.0000000001
 43
0.0000000001
 40
0.0
 40
0.0
 40
0.0
 40
0.7245556322822848
 40
0.7245556322822848
 40
0.7245556322822848
 10
0.0
 20
6.984621847843337
 30
-36.9710113824687
 41
1.0
 10
0.0
 20
7.340613640417038
 30
-36.90375685090232
 41
0.9999536449435804
 10
0.0
 20
7.695244366298716
 30
-36.82965977500928
 41
1.0
  0
SPLINE
  5
41
330
1F
100
AcDbEntity
  8
STANDARD
100
AcDbSpline
210
-1.0
220
0.0
230
0.0
 70
    12
 71
     2
 72
     8
 73
     5
 74
     0
 42
0.0000000001
 43
0.0000000001
 40
-6.480120051126821
 40
-6.480120051126821
 40
-6.480120051126821
 40
-3.240060025563411
 40
-3.240060025563411
 40
0.0
 40
0.0
 40
0.0
 10
0.0
 20
2.822175232790888
 30
-37.51900787541457
 41
1.0
 10
0.0
 20
2.612223471293483
 30
-35.48763808035626
 41
0.7169054947283847
 10
0.0
 20
4.636942978617099
 30
-35.2210787003032
 41
1.0
 10
0.0
 20
6.661662485940716
 30
-34.95451932025013
 41
0.7169054947283847
 10
0.0
 20
6.984621847843337
 30
-36.9710113824687
 41
1.0
  0
SPLINE
  5
42
330
1F
100
AcDbEntity
  8
STANDARD
100
AcDbSpline
210
-1.0
220
0.0
230
0.0
 70
    12
 71
     2
 72
     6
 73
     3
 74
     0
 42
0.0000000001
 43
0.0000000001
 40
0.0
 40
0.0
 40
0.0
 40
0.7245556322829357
 40
0.7245556322829357
 40
0.7245556322829357
 10
0.0
 20
2.09918210140571
 30
-37.5663953488372
 41
1.0
 10
0.0
 20
2.46090681275881
 30
-37.54618244225789
 41
0.9999536449435805
 10
0.0
 20
2.822175232790888
 30
-37.51900787541457
 41
0.9999999999999998
  0
SPLINE
  5
43
330
1F
100
AcDbEntity
  8
STANDARD
100
AcDbSpline
210
1.0
220
0.0
230
0.0
 70
    12
 71
     2
 72
     8
 73
     5
 74
     0
 42
0.0000000001
 43
0.0000000001
 40
-6.480120051125359
 40
-6.480120051125359
 40
-6.480120051125359
 40
-3.24006002556268
 40
-3.24006002556268
 40
0.0
 40
0.0
 40
0.0
 10
0.0
 20
-2.09918210140558
 30
-37.56639534883796
 41
1.0
 10
0.0
 20
-2.042190732138573
 30
-35.52500000000149
 41
0.7169054947285061
 10
0.0
 20
-0.0000000000011071
 30
-35.5250000000004
 41
1.0
 10
0.0
 20
2.042190732136359
 30
-35.52499999999932
 41
0.7169054947285061
 10
0.0
 20
2.09918210140571
 30
-37.5663953488372
 41
1.0
  0
SPLINE
  5
44
330
1F
100
AcDbEntity
  8
STANDARD
100
AcDbSpline
210
-1.0
220
0.0
230
0.0
 70
    12
 71
     2
 72
     6
 73
     3
 74
     0
 42
0.0000000001
 43
0.0000000001
 40
0.0
 40
0.0
 40
0.0
 40
0.7245556322812002
 40
0.7245556322812002
 40
0.7245556322812002
 10
0.0
 20
-2.822175232790205
 30
-37.51900787541462
 41
1.0
 10
0.0
 20
-2.460906812758048
 30
-37.54618244225792
 41
0.9999536449435806
 10
0.0
 20
-2.09918210140558
 30
-37.56639534883796
 41
1.0
  0
SPLINE
  5
45
330
1F
100
AcDbEntity
  8
STANDARD
100
AcDbSpline
210
-1.0
220
0.0
230
0.0
 70
    12
 71
     2
 72
     8
 73
     5
 74
     0
 42
0.0000000001
 43
0.0000000001
 40
-6.480120051123161
 40
-6.480120051123161
 40
-6.480120051123161
 40
-3.240060025561581
 40
-3.240060025561581
 40
0.0
 40
0.0
 40
0.0
 10
0.0
 20
-6.984621847843549
 30
-36.97101138246873
 41
1.0
 10
0.0
 20
-6.661662485939375
 30
-34.95451932025236
 41
0.7169054947286886
 10
0.0
 20
-4.63694297861751
 30
-35.22107870030508
 41
1.0
 10
0.0
 20
-2.612223471295643
 30
-35.48763808035779
 41
0.7169054947286886
 10
0.0
 20
-2.822175232790205
 30
-37.51900787541462
 41
1.0
  0
SPLINE
  5
46
330
1F
100
AcDbEntity
  8
STANDARD
100
AcDbSpline
210
-1.0
220
7.878105704055770E-15
230
4.170040153949427E-14
 70
    12
 71
     2
 72
     6
 73
     3
 74
     0
 42
0.0000000001
 43
0.0000000001
 40
0.0
 40
0.0
 40
0.0
 40
0.7245556322801155
 40
0.7245556322801155
 40
0.7245556322801155
 10
0.0000000000000003
 20
-7.695244366298295
 30
-36.82965977500952
 41
1.0
 10
0.0
 20
-7.340613640416592
 30
-36.9037568509024
 41
0.9999536449435807
 10
0.0
 20
-6.984621847843549
 30
-36.97101138246873
 41
1.0
  0
SPLINE
  5
47
330
1F
100
AcDbEntity
  8
STANDARD
100
AcDbSpline
210
-1.0
220
3.108851096125171E-17
230
-1.564360152804416E-16
 70
    12
 71
     2
 72
     8
 73
     5
 74
     0
 42
0.0000000001
 43
0.0000000001
 40
-6.480120051122372
 40
-6.480120051122372
 40
-6.480120051122372
 40
-3.240060025561186
 40
-3.240060025561186
 40
0.0
 40
0.0
 40
0.0
 10
0.0
 20
-11.75055277796148
 30
-35.74304316104504
 41
1.0
 10
0.0
 20
-11.16715134764522
 30
-33.78595712371082
 41
0.7169054947287541
 10
0.0
 20
-9.194546577266927
 30
-34.31451497891972
 41
1.0
 10
0.0
 20
-7.221941806888632
 30
-34.84307283412861
 41
0.7169054947287541
 10
0.0000000000000003
 20
-7.695244366298295
 30
-36.82965977500952
 41
1.0
  0
SPLINE
  5
48
330
1F
100
AcDbEntity
  8
STANDARD
100
AcDbSpline
210
-1.0
220
1.325370204415774E-14
230
4.031534968271391E-14
 70
    12
 71
     2
 72
     6
 73
     3
 74
     0
 42
0.0000000001
 43
0.0000000001
 40
0.0
 40
0.0
 40
0.0
 40
0.7245556322801155
 40
0.7245556322801155
 40
0.7245556322801155
 10
0.0000000000000003
 20
-12.4366457351742
 30
-35.51014598474319
 41
1.0
 10
0.0
 20
-12.09472053348445
 30
-35.62989774817358
 41
0.9999536449435807
 10
0.0
 20
-11.75055277796148
 30
-35.74304316104504
 41
1.0
  0
SPLINE
  5
49
330
1F
100
AcDbEntity
  8
STANDARD
100
AcDbSpline
210
-1.0
220
1.040354703968748E-17
230
-1.591555484411068E-16
 70
    12
 71
     2
 72
     8
 73
     5
 74
     0
 42
0.0000000001
 43
0.0000000001
 40
-6.480120051123931
 40
-6.480120051123931
 40
-6.480120051123931
 40
-3.240060025561966
 40
-3.240060025561966
 40
0.0
 40
0.0
 40
0.0
 10
0.0
 20
-16.31542849218052
 30
-33.90350156129256
 41
1.0
 10
0.0
 20
-15.48156715367599
 30
-32.03930783354585
 41
0.7169054947286272
 10
0.0
 20
-13.59482893477043
 30
-32.82082039246372
 41
1.0
 10
0.0
 20
-11.70809071586486
 30
-33.60233295138157
 41
0.7169054947286272
 10
0.0000000000000003
 20
-12.4366457351742
 30
-35.51014598474319
 41
1.0
  0
SPLINE
  5
4A
330
1F
100
AcDbEntity
  8
STANDARD
100
AcDbSpline
210
-1.0
220
1.840252386942965E-14
230
3.824049101968531E-14
 70
    12
 71
     2
 72
     6
 73
     3
 74
     0
 42
0.0000000001
 43
0.0000000001
 40
0.0
 40
0.0
 40
0.0
 40
0.724555632278597
 40
0.724555632278597
 40
0.724555632278597
 10
0.0000000000000003
 20
-16.96525264743167
 30
-33.58304375140548
 41
1.0
 10
0.0
 20
-16.64188340493505
 30
-33.74640121649925
 41
0.999953644943581
 10
0.0
 20
-16.31542849218052
 30
-33.90350156129256
 41
1.0
  0
SPLINE
  5
4B
330
1F
100
AcDbEntity
  8
STANDARD
100
AcDbSpline
210
-1.0
220
-1.045942445611287E-17
230
-1.591518860417249E-16
 70
    12
 71
     2
 72
     8
 73
     5
 74
     0
 42
0.0000000001
 43
0.0000000001
 40
-6.480120051124984
 40
-6.480120051124984
 40
-6.480120051124984
 40
-3.240060025562492
 40
-3.240060025562492
 40
0.0
 40
0.0
 40
0.0
 10
0.0
 20
-20.60114270140567
 30
-31.48386165000041
 41
1.0
 10
0.0
 20
-19.53108905340545
 30
-29.74445710337425
 41
0.7169054947285373
 10
0.0
 20
-17.76250000000099
 30
-30.76555246944212
 41
1.0
 10
0.0
 20
-15.99391094659651
 30
-31.78664783551
 41
0.7169054947285373
 10
0.0000000000000003
 20
-16.96525264743167
 30
-33.58304375140548
 41
1.0
  0
SPLINE
  5
4C
330
1F
100
AcDbEntity
  8
STANDARD
100
AcDbSpline
210
-1.0
220
2.323647340885783E-14
230
3.551132695109116E-14
 70
    12
 71
     2
 72
     6
 73
     3
 74
     0
 42
0.0000000001
 43
0.0000000001
 40
0.0
 40
0.0
 40
0.0
 40
0.7245556322814172
 40
0.7245556322814172
 40
0.7245556322814172
 10
0.0000000000000003
 20
-21.20357938323491
 30
-31.08132632850239
 41
1.0
 10
0.0
 20
-20.90429903732353
 30
-31.28549440374167
 41
0.9999536449435805
 10
0.0
 20
-20.60114270140567
 30
-31.48386165000041
 41
1.0
  0
SPLINE
  5
4D
330
1F
100
AcDbEntity
  8
STANDARD
100
AcDbSpline
210
-1.0
220
-3.114343229968882E-17
230
-1.564250907469881E-16
 70
    12
 71
     2
 72
     8
 73
     5
 74
     0
 42
0.0000000001
 43
0.0000000001
 40
-6.480120051122363
 40
-6.480120051122363
 40
-6.480120051122363
 40
-3.240060025561181
 40
-3.240060025561181
 40
0.0
 40
0.0
 40
0.0
 10
0.0
 20
-24.53436564729495
 30
-28.52552413689931
 41
1.0
 10
0.0
 20
-23.24642860438684
 30
-26.94067046544309
 41
0.7169054947287548
 10
0.0
 20
-21.62624976553505
 30
-28.18387741384672
 41
1.0
 10
0.0
 20
-20.00607092668325
 30
-29.42708436225033
 41
0.7169054947287548
 10
0.0000000000000003
 20
-21.20357938323491
 30
-31.08132632850239
 41
1.0
  0
SPLINE
  5
4E
330
1F
100
AcDbEntity
  8
STANDARD
100
AcDbSpline
210
-1.0
220
2.767284044267156E-14
230
3.217455422864960E-14
 70
    12
 71
     2
 72
     6
 73
     3
 74
     0
 42
0.0000000001
 43
0.0000000001
 40
0.0
 40
0.0
 40
0.0
 40
0.724555632278597
 40
0.724555632278597
 40
0.724555632278597
 10
0.0000000000000003
 20
-25.07910699704819
 30
-28.04779879474698
 41
1.0
 10
0.0
 20
-24.8090363174191
 30
-28.28928410775669
 41
0.999953644943581
 10
0.0
 20
-24.53436564729495
 30
-28.52552413689931
 41
1.0
  0
SPLINE
  5
4F
330
1F
100
AcDbEntity
  8
STANDARD
100
AcDbSpline
210
-1.0
220
-7.692242284446757E-17
230
-1.267860485436420E-16
 70
    12
 71
     2
 72
     8
 73
     5
 74
     0
 42
0.0000000001
 43
0.0000000001
 40
-6.480120051123161
 40
-6.480120051123161
 40
-6.480120051123161
 40
-3.240060025561581
 40
-3.240060025561581
 40
0.0
 40
0.0
 40
0.0
 10
0.0000000000000001
 20
-28.04779879474749
 30
-25.07910699704768
 41
1.0
 10
0.0
 20
-26.56401531682251
 30
-23.67592148648248
 41
0.7169054947286886
 10
0.0
 20
-25.1199684016525
 30
-25.11996840165241
 41
1.0
 10
0.0
 20
-23.67592148648248
 30
-26.56401531682232
 41
0.7169054947286886
 10
0.0000000000000003
 20
-25.07910699704819
 30
-28.04779879474698
 41
1.0
  0
SPLINE
  5
50
330
1F
100
AcDbEntity
  8
STANDARD
100
AcDbSpline
210
1.0
220
-1.608727711460853E-14
230
-1.383642022158760E-14
 70
    12
 71
     2
 72
     6
 73
     3
 74
     0
 42
0.0000000001
 43
0.0000000001
 40
0.0
 40
0.0
 40
0.0
 40
0.724555632278597
 40
0.724555632278597
 40
0.724555632278597
 10
0.0
 20
-28.52552413689988
 30
-24.53436564729449
 41
1.0
 10
0.0
 20
-28.28928410775812
 30
-24.80903631741747
 41
0.999953644943581
 10
0.0000000000000001
 20
-28.04779879474749
 30
-25.07910699704768
 41
1.0
  0
SPLINE
  5
51
330
1F
100
AcDbEntity
  8
STANDARD
100
AcDbSpline
210
1.0
220
0.0
230
0.0
 70
    12
 71
     2
 72
     8
 73
     5
 74
     0
 42
0.0000000001
 43
0.0000000001
 40
-6.480120051123366
 40
-6.480120051123366
 40
-6.480120051123366
 40
-3.240060025561683
 40
-3.240060025561683
 40
0.0
 40
0.0
 40
0.0
 10
0.0
 20
-31.08132632850256
 30
-21.20357938323486
 41
1.0
 10
0.0
 20
-29.42708436225048
 30
-20.00607092668276
 41
0.7169054947286715
 10
0.0
 20
-28.18387741384659
 30
-21.62624976553497
 41
1.0
 10
0.0
 20
-26.94067046544271
 30
-23.24642860438718
 41
0.7169054947286715
 10
0.0
 20
-28.52552413689988
 30
-24.53436564729449
 41
1.0
  0
SPLINE
  5
52
330
1F
100
AcDbEntity
  8
STANDARD
100
AcDbSpline
210
1.0
220
0.0
230
0.0
 70
    12
 71
     2
 72
     6
 73
     3
 74
     0
 42
0.0000000001
 43
0.0000000001
 40
0.0
 40
0.0
 40
0.0
 40
0.7245556322803325
 40
0.7245556322803325
 40
0.7245556322803325
 10
0.0
 20
-31.48386164999971
 30
-20.60114270140555
 41
1.0
 10
0.0
 20
-31.28549440374159
 30
-20.90429903732364
 41
0.9999536449435807
 10
0.0
 20
-31.08132632850256
 30
-21.20357938323486
 41
1.0
  0
SPLINE
  5
53
330
1F
100
AcDbEntity
  8
STANDARD
100
AcDbSpline
210
1.0
220
0.0
230
0.0
 70
    12
 71
     2
 72
     8
 73
     5
 74
     0
 42
0.0000000001
 43
0.0000000001
 40
-6.480120051123963
 40
-6.480120051123963
 40
-6.480120051123963
 40
-3.240060025561982
 40
-3.240060025561982
 40
0.0
 40
0.0
 40
0.0
 10
0.0
 20
-33.58304375140622
 30
-16.96525264743097
 41
1.0
 10
0.0
 20
-31.78664783551174
 30
-15.99391094659648
 41
0.716905494728622
 10
0.0
 20
-30.76555246944287
 30
-17.7624999999998
 41
1.0
 10
0.0
 20
-29.74445710337399
 30
-19.53108905340312
 41
0.716905494728622
 10
0.0
 20
-31.48386164999971
 30
-20.60114270140555
 41
1.0
  0
SPLINE
  5
54
330
1F
100
AcDbEntity
  8
STANDARD
100
AcDbSpline
210
1.0
220
0.0
230
0.0
 70
    12
 71
     2
 72
     6
 73
     3
 74
     0
 42
0.0000000001
 43
0.0000000001
 40
0.0
 40
0.0
 40
0.0
 40
0.7245556322777293
 40
0.7245556322777293
 40
0.7245556322777293
 10
0.0
 20
-33.90350156129259
 30
-16.31542849217972
 41
1.0
 10
0.0
 20
-33.74640121650041
 30
-16.64188340493271
 41
0.9999536449435811
 10
0.0
 20
-33.58304375140622
 30
-16.96525264743097
 41
1.0
  0
SPLINE
  5
55
330
1F
100
AcDbEntity
  8
STANDARD
100
AcDbSpline
210
1.0
220
0.0
230
0.0
 70
    12
 71
     2
 72
     8
 73
     5
 74
     0
 42
0.0000000001
 43
0.0000000001
 40
-6.480120051123504
 40
-6.480120051123504
 40
-6.480120051123504
 40
-3.240060025561752
 40
-3.240060025561752
 40
0.0
 40
0.0
 40
0.0
 10
0.0
 20
-35.51014598474335
 30
-12.4366457351743
 41
1.0
 10
0.0
 20
-33.60233295138244
 30
-11.70809071586465
 41
0.71690549472866
 10
0.0
 20
-32.820820392464
 30
-13.59482893476976
 41
1.0
 10
0.0
 20
-32.03930783354556
 30
-15.48156715367487
 41
0.71690549472866
 10
0.0
 20
-33.90350156129259
 30
-16.31542849217972
 41
1.0
  0
SPLINE
  5
56
330
1F
100
AcDbEntity
  8
STANDARD
100
AcDbSpline
210
1.0
220
0.0
230
0.0
 70
    12
 71
     2
 72
     6
 73
     3
 74
     0
 42
0.0000000001
 43
0.0000000001
 40
0.0
 40
0.0
 40
0.0
 40
0.7245556322807662
 40
0.7245556322807662
 40
0.7245556322807662
 10
0.0
 20
-35.74304316104529
 30
-11.75055277796137
 41
1.0
 10
0.0
 20
-35.62989774817367
 30
-12.09472053348421
 41
0.9999536449435806
 10
0.0
 20
-35.51014598474335
 30
-12.4366457351743
 41
1.0
  0
SPLINE
  5
57
330
1F
100
AcDbEntity
  8
STANDARD
100
AcDbSpline
210
1.0
220
0.0
230
0.0
 70
    12
 71
     2
 72
     8
 73
     5
 74
     0
 42
0.0000000001
 43
0.0000000001
 40
-6.480120051123838
 40
-6.480120051123838
 40
-6.480120051123838
 40
-3.240060025561919
 40
-3.240060025561919
 40
0.0
 40
0.0
 40
0.0
 10
0.0
 20
-36.82965977500973
 30
-7.695244366298736
 41
1.0
 10
0.0
 20
-34.84307283412902
 30
-7.221941806887838
 41
0.7169054947286324
 10
0.0
 20
-34.31451497891977
 30
-9.194546577266774
 41
1.0
 10
0.0
 20
-33.78595712371052
 30
-11.16715134764571
 41
0.7169054947286324
 10
0.0
 20
-35.74304316104529
 30
-11.75055277796137
 41
1.0
  0
SPLINE
  5
58
330
1F
100
AcDbEntity
  8
STANDARD
100
AcDbSpline
210
1.0
220
0.0
230
0.0
 70
    12
 71
     2
 72
     6
 73
     3
 74
     0
 42
0.0000000001
 43
0.0000000001
 40
0.0
 40
0.0
 40
0.0
 40
0.7245556322818509
 40
0.7245556322818509
 40
0.7245556322818509
 10
0.0
 20
-36.97101138246869
 30
-6.984621847843345
 41
1.0
 10
0.0
 20
-36.90375685090236
 30
-7.340613640416825
 41
0.9999536449435805
 10
0.0
 20
-36.82965977500973
 30
-7.695244366298736
 41
1.0
  0
SPLINE
  5
59
330
1F
100
AcDbEntity
  8
STANDARD
100
AcDbSpline
210
1.0
220
0.0
230
0.0
 70
    12
 71
     2
 72
     8
 73
     5
 74
     0
 42
0.0000000001
 43
0.0000000001
 40
-6.480120051123223
 40
-6.480120051123223
 40
-6.480120051123223
 40
-3.240060025561612
 40
-3.240060025561612
 40
0.0
 40
0.0
 40
0.0
 10
0.0
 20
-37.51900787541465
 30
-2.822175232790968
 41
1.0
 10
0.0
 20
-35.48763808035807
 30
-2.61222347129543
 41
0.7169054947286834
 10
0.0
 20
-35.22107870030511
 30
-4.636942978617295
 41
1.0
 10
0.0
 20
-34.95451932025215
 30
-6.66166248593916
 41
0.7169054947286834
 10
0.0
 20
-36.97101138246869
 30
-6.984621847843345
 41
1.0
  0
SPLINE
  5
5A
330
1F
100
AcDbEntity
  8
STANDARD
100
AcDbSpline
210
1.0
220
-4.231849860883738E-14
230
-3.183192345039942E-15
 70
    12
 71
     2
 72
     6
 73
     3
 74
     0
 42
0.0000000001
 43
0.0000000001
 40
0.0
 40
0.0
 40
0.0
 40
0.7245556322829357
 40
0.7245556322829357
 40
0.7245556322829357
 10
0.0000000000000003
 20
-37.5663953488372
 30
-2.09918210140571
 41
1.0
 10
0.0
 20
-37.54618244225788
 30
-2.460906812758842
 41
0.9999536449435805
 10
0.0
 20
-37.51900787541465
 30
-2.822175232790968
 41
0.9999999999999998
  0
SPLINE
  5
5B
330
1F
100
AcDbEntity
  8
STANDARD
100
AcDbSpline
210
-1.0
220
-1.430592886004503E-16
230
-7.051781573288744E-17
 70
    12
 71
     2
 72
     8
 73
     5
 74
     0
 42
0.0000000001
 43
0.0000000001
 40
-6.480120051123215
 40
-6.480120051123215
 40
-6.480120051123215
 40
-3.240060025561608
 40
-3.240060025561608
 40
0.0
 40
0.0
 40
0.0
 10
0.0
 20
-37.5663953488373
 30
2.099182101405466
 41
1.0
 10
0.0
 20
-35.52500000000064
 30
2.042190732136559
 41
0.716905494728684
 10
0.0
 20
-35.5250000000005
 30
0.0000000000001358
 41
1.0
 10
0.0
 20
-35.52500000000035
 30
-2.042190732136288
 41
0.716905494728684
 10
0.0000000000000003
 20
-37.5663953488372
 30
-2.09918210140571
 41
1.0
  0
SPLINE
  5
5C
330
1F
100
AcDbEntity
  8
STANDARD
100
AcDbSpline
210
1.0
220
0.0
230
0.0
 70
    12
 71
     2
 72
     6
 73
     3
 74
     0
 42
0.0000000001
 43
0.0000000001
 40
0.0
 40
0.0
 40
0.0
 40
0.7245556322814172
 40
0.7245556322814172
 40
0.7245556322814172
 10
0.0
 20
-37.51900787541462
 30
2.8221752327902
 41
1.0
 10
0.0
 20
-37.54618244225793
 30
2.460906812757929
 41
0.9999536449435805
 10
0.0
 20
-37.5663953488373
 30
2.099182101405466
 41
1.0
  0
SPLINE
  5
5D
330
1F
100
AcDbEntity
  8
STANDARD
100
AcDbSpline
210
1.0
220
0.0
230
0.0
 70
    12
 71
     2
 72
     8
 73
     5
 74
     0
 42
0.0000000001
 43
0.0000000001
 40
-6.480120051123534
 40
-6.480120051123534
 40
-6.480120051123534
 40
-3.240060025561767
 40
-3.240060025561767
 40
0.0
 40
0.0
 40
0.0
 10
0.0
 20
-36.97101138246884
 30
6.984621847843565
 41
1.0
 10
0.0
 20
-34.95451932025247
 30
6.661662485939744
 41
0.71690549472866
 10
0.0
 20
-35.22107870030505
 30
4.636942978617679
 41
1.0
 10
0.0
 20
-35.48763808035763
 30
2.612223471295616
 41
0.71690549472866
 10
0.0
 20
-37.51900787541462
 30
2.8221752327902
 41
1.0
  0
SPLINE
  5
5E
330
1F
100
AcDbEntity
  8
STANDARD
100
AcDbSpline
210
1.0
220
0.0
230
0.0
 70
    12
 71
     2
 72
     6
 73
     3
 74
     0
 42
0.0000000001
 43
0.0000000001
 40
0.0
 40
0.0
 40
0.0
 40
0.7245556322801155
 40
0.7245556322801155
 40
0.7245556322801155
 10
0.0
 20
-36.82965977500951
 30
7.695244366298278
 41
1.0
 10
0.0
 20
-36.9037568509024
 30
7.340613640416572
 41
0.9999536449435807
 10
0.0
 20
-36.97101138246884
 30
6.984621847843565
 41
1.0
  0
SPLINE
  5
5F
330
1F
100
AcDbEntity
  8
STANDARD
100
AcDbSpline
210
1.0
220
0.0
230
0.0
 70
    12
 71
     2
 72
     8
 73
     5
 74
     0
 42
0.0000000001
 43
0.0000000001
 40
-6.480120051122518
 40
-6.480120051122518
 40
-6.480120051122518
 40
-3.240060025561259
 40
-3.240060025561259
 40
0.0
 40
0.0
 40
0.0
 10
0.0
 20
-35.74304316104509
 30
11.75055277796148
 41
1.0
 10
0.0
 20
-33.78595712371086
 30
11.16715134764537
 41
0.716905494728742
 10
0.0
 20
-34.3145149789197
 30
9.19454657726699
 41
1.0
 10
0.0
 20
-34.84307283412853
 30
7.221941806888609
 41
0.716905494728742
 10
0.0
 20
-36.82965977500951
 30
7.695244366298278
 41
1.0
  0
SPLINE
  5
60
330
1F
100
AcDbEntity
  8
STANDARD
100
AcDbSpline
210
1.0
220
0.0
230
0.0
 70
    12
 71
     2
 72
     6
 73
     3
 74
     0
 42
0.0000000001
 43
0.0000000001
 40
0.0
 40
0.0
 40
0.0
 40
0.7245556322801155
 40
0.7245556322801155
 40
0.7245556322801155
 10
0.0
 20
-35.51014598474319
 30
12.43664573517421
 41
1.0
 10
0.0
 20
-35.62989774817358
 30
12.09472053348445
 41
0.9999536449435807
 10
0.0
 20
-35.74304316104509
 30
11.75055277796148
 41
1.0
  0
SPLINE
  5
61
330
1F
100
AcDbEntity
  8
STANDARD
100
AcDbSpline
210
1.0
220
0.0
230
0.0
 70
    12
 71
     2
 72
     8
 73
     5
 74
     0
 42
0.0000000001
 43
0.0000000001
 40
-6.480120051122351
 40
-6.480120051122351
 40
-6.480120051122351
 40
-3.240060025561176
 40
-3.240060025561176
 40
0.0
 40
0.0
 40
0.0
 10
0.0
 20
-33.90350156129252
 30
16.31542849217941
 41
1.0
 10
0.0
 20
-32.03930783354575
 30
15.48156715367429
 41
0.7169054947287559
 10
0.0
 20
-32.82082039246402
 30
13.59482893476972
 41
1.0
 10
0.0
 20
-33.60233295138229
 30
11.70809071586514
 41
0.7169054947287559
 10
0.0
 20
-35.51014598474319
 30
12.43664573517421
 41
1.0
  0
SPLINE
  5
62
330
1F
100
AcDbEntity
  8
STANDARD
100
AcDbSpline
210
1.0
220
0.0
230
0.0
 70
    12
 71
     2
 72
     6
 73
     3
 74
     0
 42
0.0000000001
 43
0.0000000001
 40
0.0
 40
0.0
 40
0.0
 40
0.7245556322814172
 40
0.7245556322814172
 40
0.7245556322814172
 10
0.0
 20
-33.58304375140548
 30
16.96525264743162
 41
1.0
 10
0.0
 20
-33.74640121649993
 30
16.64188340493372
 41
0.9999536449435805
 10
0.0
 20
-33.90350156129252
 30
16.31542849217941
 41
1.0
  0
SPLINE
  5
63
330
1F
100
AcDbEntity
  8
STANDARD
100
AcDbSpline
210
1.0
220
0.0
230
0.0
 70
    12
 71
     2
 72
     8
 73
     5
 74
     0
 42
0.0000000001
 43
0.0000000001
 40
-6.480120051122381
 40
-6.480120051122381
 40
-6.480120051122381
 40
-3.240060025561191
 40
-3.240060025561191
 40
0.0
 40
0.0
 40
0.0
 10
0.0
 20
-31.48386164999949
 30
20.60114270140551
 41
1.0
 10
0.0
 20
-29.74445710337444
 30
19.53108905340263
 41
0.7169054947287559
 10
0.0
 20
-30.76555246944275
 30
17.76249999999988
 41
1.0
 10
0.0
 20
-31.78664783551105
 30
15.99391094659713
 41
0.7169054947287559
 10
0.0
 20
-33.58304375140548
 30
16.96525264743162
 41
1.0
  0
SPLINE
  5
64
330
1F
100
AcDbEntity
  8
STANDARD
100
AcDbSpline
210
1.0
220
0.0
230
0.0
 70
    12
 71
     2
 72
     6
 73
     3
 74
     0
 42
0.0000000001
 43
0.0000000001
 40
0.0
 40
0.0
 40
0.0
 40
0.7245556322803325
 40
0.7245556322803325
 40
0.7245556322803325
 10
0.0
 20
-31.0813263285024
 30
21.20357938323489
 41
1.0
 10
0.0
 20
-31.28549440374136
 30
20.90429903732397
 41
0.9999536449435807
 10
0.0
 20
-31.48386164999949
 30
20.60114270140551
 41
1.0
  0
SPLINE
  5
65
330
1F
100
AcDbEntity
  8
STANDARD
100
AcDbSpline
210
1.0
220
0.0
230
0.0
 70
    12
 71
     2
 72
     8
 73
     5
 74
     0
 42
0.0000000001
 43
0.0000000001
 40
-6.480120051118026
 40
-6.480120051118026
 40
-6.480120051118026
 40
-3.240060025559013
 40
-3.240060025559013
 40
0.0
 40
0.0
 40
0.0
 10
0.0
 20
-28.52552413689961
 30
24.53436564729524
 41
1.0
 10
0.0
 20
-26.94067046544678
 30
23.24642860438764
 41
0.7169054947291148
 10
0.0
 20
-28.18387741384863
 30
21.62624976553715
 41
1.0
 10
0.0
 20
-29.42708436225048
 30
20.00607092668664
 41
0.7169054947291148
 10
0.0
 20
-31.0813263285024
 30
21.20357938323489
 41
1.0
  0
SPLINE
  5
66
330
1F
100
AcDbEntity
  8
STANDARD
100
AcDbSpline
210
1.0
220
0.0
230
0.0
 70
    12
 71
     2
 72
     6
 73
     3
 74
     0
 42
0.0000000001
 43
0.0000000001
 40
0.0
 40
0.0
 40
0.0
 40
0.7245556322781632
 40
0.7245556322781632
 40
0.7245556322781632
 10
0.0
 20
-28.04779879474697
 30
25.07910699704819
 41
1.0
 10
0.0
 20
-28.28928410775654
 30
24.80903631741926
 41
0.999953644943581
 10
0.0
 20
-28.52552413689961
 30
24.53436564729524
 41
1.0
  0
SPLINE
  5
67
330
1F
100
AcDbEntity
  8
STANDARD
100
AcDbSpline
210
1.0
220
-4.847154047321185E-17
230
-5.125571092514459E-17
 70
    12
 71
     2
 72
     8
 73
     5
 74
     0
 42
0.0000000001
 43
0.0000000001
 40
-6.480120051117549
 40
-6.480120051117549
 40
-6.480120051117549
 40
-3.240060025558774
 40
-3.240060025558774
 40
0.0
 40
0.0
 40
0.0
 10
0.0000000000000003
 20
-25.07910699704795
 30
28.04779879474733
 41
1.0
 10
0.0
 20
-23.67592148648651
 30
26.5640153168227
 41
0.7169054947291543
 10
0.0
 20
-25.11996840165444
 30
25.11996840165456
 41
1.0
 10
0.0
 20
-26.56401531682237
 30
23.67592148648642
 41
0.7169054947291543
 10
0.0
 20
-28.04779879474697
 30
25.07910699704819
 41
1.0
  0
SPLINE
  5
68
330
1F
100
AcDbEntity
  8
STANDARD
100
AcDbSpline
210
1.0
220
-2.767284044342565E-14
230
3.217455422950711E-14
 70
    12
 71
     2
 72
     6
 73
     3
 74
     0
 42
0.0000000001
 43
0.0000000001
 40
0.0
 40
0.0
 40
0.0
 40
0.7245556322792479
 40
0.7245556322792479
 40
0.7245556322792479
 10
0.0
 20
-24.53436564729449
 30
28.52552413689988
 41
1.0
 10
0.0
 20
-24.80903631741772
 30
28.2892841077579
 41
0.9999536449435809
 10
0.0000000000000003
 20
-25.07910699704795
 30
28.04779879474733
 41
1.0
  0
SPLINE
  5
69
330
1F
100
AcDbEntity
  8
STANDARD
100
AcDbSpline
210
1.0
220
0.0
230
0.0
 70
    12
 71
     2
 72
     8
 73
     5
 74
     0
 42
0.0000000001
 43
0.0000000001
 40
-6.480120051118201
 40
-6.480120051118201
 40
-6.480120051118201
 40
-3.2400600255591
 40
-3.2400600255591
 40
0.0
 40
0.0
 40
0.0
 10
0.0
 20
-21.2035793832356
 30
31.08132632850225
 41
1.0
 10
0.0
 20
-20.0060709266865
 30
29.42708436225151
 41
0.7169054947291003
 10
0.0
 20
-21.62624976553657
 30
28.18387741384895
 41
1.0
 10
0.0
 20
-23.24642860438663
 30
26.94067046544639
 41
0.7169054947291003
 10
0.0
 20
-24.53436564729449
 30
28.52552413689988
 41
1.0
  0
SPLINE
  5
6A
330
1F
100
AcDbEntity
  8
STANDARD
100
AcDbSpline
210
1.0
220
0.0
230
0.0
 70
    12
 71
     2
 72
     6
 73
     3
 74
     0
 42
0.0000000001
 43
0.0000000001
 40
0.0
 40
0.0
 40
0.0
 40
0.7245556322822848
 40
0.7245556322822848
 40
0.7245556322822848
 10
0.0
 20
-20.60114270140558
 30
31.48386164999972
 41
1.0
 10
0.0
 20
-20.90429903732452
 30
31.285494403741
 41
0.9999536449435804
 10
0.0
 20
-21.2035793832356
 30
31.08132632850225
 41
1.0
  0
SPLINE
  5
6B
330
1F
100
AcDbEntity
  8
STANDARD
100
AcDbSpline
210
1.0
220
1.045942445625116E-17
230
-1.591518860418906E-16
 70
    12
 71
     2
 72
     8
 73
     5
 74
     0
 42
0.0000000001
 43
0.0000000001
 40
-6.480120051118097
 40
-6.480120051118097
 40
-6.480120051118097
 40
-3.240060025559048
 40
-3.240060025559048
 40
0.0
 40
0.0
 40
0.0
 10
0.0000000000000003
 20
-16.9652526474318
 30
33.58304375140575
 41
1.0
 10
0.0
 20
-15.99391094660048
 30
31.78664783551273
 41
0.7169054947291089
 10
0.0
 20
-17.76250000000136
 30
30.76555246944533
 41
1.0
 10
0.0
 20
-19.53108905340225
 30
29.74445710337794
 41
0.7169054947291089
 10
0.0
 20
-20.60114270140558
 30
31.48386164999972
 41
1.0
  0
SPLINE
  5
6C
330
1F
100
AcDbEntity
  8
STANDARD
100
AcDbSpline
210
1.0
220
-1.840252386924327E-14
230
3.824049101938714E-14
 70
    12
 71
     2
 72
     6
 73
     3
 74
     0
 42
0.0000000001
 43
0.0000000001
 40
0.0
 40
0.0
 40
0.0
 40
0.7245556322803325
 40
0.7245556322803325
 40
0.7245556322803325
 10
0.0
 20
-16.31542849217973
 30
33.90350156129259
 41
1.0
 10
0.0
 20
-16.64188340493388
 30
33.74640121649984
 41
0.9999536449435807
 10
0.0000000000000003
 20
-16.9652526474318
 30
33.58304375140575
 41
1.0
  0
SPLINE
  5
6D
330
1F
100
AcDbEntity
  8
STANDARD
100
AcDbSpline
210
1.0
220
0.0
230
0.0
 70
    12
 71
     2
 72
     8
 73
     5
 74
     0
 42
0.0000000001
 43
0.0000000001
 40
-6.480120051117241
 40
-6.480120051117241
 40
-6.480120051117241
 40
-3.24006002555862
 40
-3.24006002555862
 40
0.0
 40
0.0
 40
0.0
 10
0.0
 20
-12.43664573517484
 30
35.51014598474296
 41
1.0
 10
0.0
 20
-11.70809071586881
 30
33.60233295138354
 41
0.71690549472918
 10
0.0
 20
-13.59482893477121
 30
32.8208203924665
 41
1.0
 10
0.0
 20
-15.4815671536736
 30
32.03930783354947
 41
0.71690549472918
 10
0.0
 20
-16.31542849217973
 30
33.90350156129259
 41
1.0
  0
SPLINE
  5
6E
330
1F
100
AcDbEntity
  8
STANDARD
100
AcDbSpline
210
1.0
220
0.0
230
0.0
 70
    12
 71
     2
 72
     6
 73
     3
 74
     0
 42
0.0000000001
 43
0.0000000001
 40
0.0
 40
0.0
 40
0.0
 40
0.7245556322822848
 40
0.7245556322822848
 40
0.7245556322822848
 10
0.0
 20
-11.75055277796137
 30
35.74304316104529
 41
1.0
 10
0.0
 20
-12.09472053348493
 30
35.62989774817343
 41
0.9999536449435804
 10
0.0
 20
-12.43664573517484
 30
35.51014598474296
 41
1.0
  0
SPLINE
  5
6F
330
1F
100
AcDbEntity
  8
STANDARD
100
AcDbSpline
210
1.0
220
0.0
230
0.0
 70
    12
 71
     2
 72
     8
 73
     5
 74
     0
 42
0.0000000001
 43
0.0000000001
 40
-6.480120051117582
 40
-6.480120051117582
 40
-6.480120051117582
 40
-3.240060025558791
 40
-3.240060025558791
 40
0.0
 40
0.0
 40
0.0
 10
0.0
 20
-7.695244366298235
 30
36.8296597750097
 41
1.0
 10
0.0
 20
-7.221941806891755
 30
34.84307283413078
 41
0.7169054947291515
 10
0.0
 20
-9.194546577267804
 30
34.31451497892251
 41
1.0
 10
0.0
 20
-11.16715134764386
 30
33.78595712371425
 41
0.7169054947291515
 10
0.0
 20
-11.75055277796137
 30
35.74304316104529
 41
1.0
  0
SPLINE
  5
70
330
1F
100
AcDbEntity
  8
STANDARD
100
AcDbSpline
210
1.0
220
0.0
230
0.0
 70
    12
 71
     2
 72
     6
 73
     3
 74
     0
 42
0.0000000001
 43
0.0000000001
 40
0.0
 40
0.0
 40
0.0
 40
0.7245556322801155
 40
0.7245556322801155
 40
0.7245556322801155
 10
0.0
 20
-6.984621847843343
 30
36.9710113824687
 41
1.0
 10
0.0
 20
-7.340613640415973
 30
36.90375685090252
 41
0.9999536449435807
 10
0.0
 20
-7.695244366298235
 30
36.8296597750097
 41
1.0
  0
SPLINE
  5
71
330
1F
100
AcDbEntity
  8
STANDARD
100
AcDbSpline
210
1.0
220
0.0
230
0.0
 70
    12
 71
     2
 72
     8
 73
     5
 74
     0
 42
0.0000000001
 43
0.0000000001
 40
-6.480120051122342
 40
-6.480120051122342
 40
-6.480120051122342
 40
-3.240060025561171
 40
-3.240060025561171
 40
0.0
 40
0.0
 40
0.0
 10
0.0
 20
-2.822175232790715
 30
37.51900787541437
 41
1.0
 10
0.0
 20
-2.612223471296235
 30
35.48763808035753
 41
0.7169054947287565
 10
0.0
 20
-4.636942978617732
 30
35.22107870030506
 41
1.0
 10
0.0
 20
-6.661662485939228
 30
34.95451932025257
 41
0.7169054947287565
 10
0.0
 20
-6.984621847843343
 30
36.9710113824687
 41
1.0
  0
SPLINE
  5
72
330
1F
100
AcDbEntity
  8
STANDARD
100
AcDbSpline
210
1.0
220
0.0
230
0.0
 70
    12
 71
     2
 72
     6
 73
     3
 74
     0
 42
0.0000000001
 43
0.0000000001
 40
0.0
 40
0.0
 40
0.0
 40
0.7245556322822848
 40
0.7245556322822848
 40
0.7245556322822848
 10
0.0
 20
-2.099182101405683
 30
37.5663953488372
 41
1.0
 10
0.0
 20
-2.460906812759011
 30
37.54618244225787
 41
0.9999536449435804
 10
0.0
 20
-2.822175232790715
 30
37.51900787541437
 41
1.0
  0
SPLINE
  5
73
330
1F
100
AcDbEntity
  8
STANDARD
100
AcDbSpline
210
-1.0
220
0.0
230
0.0
 70
    12
 71
     2
 72
     8
 73
     5
 74
     0
 42
0.0000000001
 43
0.0000000001
 40
-6.480120051122706
 40
-6.480120051122706
 40
-6.480120051122706
 40
-3.240060025561353
 40
-3.240060025561353
 40
0.0
 40
0.0
 40
0.0
 10
0.0
 20
2.099182101405453
 30
37.56639534883715
 41
1.0
 10
0.0
 20
2.042190732136056
 30
35.5250000000004
 41
0.7169054947287263
 10
0.0
 20
-0.0000000000001191
 30
35.5250000000005
 41
1.0
 10
0.0
 20
-2.042190732136295
 30
35.5250000000006
 41
0.7169054947287263
 10
0.0
 20
-2.099182101405683
 30
37.5663953488372
 41
1.0
  0
SPLINE
  5
74
330
1F
100
AcDbEntity
  8
STANDARD
100
AcDbSpline
210
1.0
220
0.0
230
0.0
 70
    12
 71
     2
 72
     6
 73
     3
 74
     0
 42
0.0000000001
 43
0.0000000001
 40
0.0
 40
0.0
 40
0.0
 40
0.7245556322814172
 40
0.7245556322814172
 40
0.7245556322814172
 10
0.0
 20
2.822175232790203
 30
37.51900787541462
 41
1.0
 10
0.0
 20
2.460906812757929
 30
37.54618244225793
 41
0.9999536449435805
 10
0.0
 20
2.099182101405453
 30
37.56639534883715
 41
1.0
  0
SPLINE
  5
75
330
1F
100
AcDbEntity
  8
STANDARD
100
AcDbSpline
210
1.0
220
0.0
230
0.0
 70
    12
 71
     2
 72
     8
 73
     5
 74
     0
 42
0.0000000001
 43
0.0000000001
 40
-6.480120051122793
 40
-6.480120051122793
 40
-6.480120051122793
 40
-3.240060025561397
 40
-3.240060025561397
 40
0.0
 40
0.0
 40
0.0
 10
0.0
 20
6.984621847843447
 30
36.97101138246862
 41
1.0
 10
0.0
 20
6.661662485938996
 30
34.95451932025224
 41
0.716905494728719
 10
0.0
 20
4.636942978617328
 30
35.2210787003051
 41
1.0
 10
0.0
 20
2.612223471295662
 30
35.48763808035797
 41
0.716905494728719
 10
0.0
 20
2.822175232790203
 30
37.51900787541462
 41
1.0
  0
SPLINE
  5
76
330
1F
100
AcDbEntity
  8
STANDARD
100
AcDbSpline
210
1.0
220
0.0
230
0.0
 70
    12
 71
     2
 72
     6
 73
     3
 74
     0
 42
0.0000000001
 43
0.0000000001
 40
0.0
 40
0.0
 40
0.0
 40
0.7245556322803325
 40
0.7245556322803325
 40
0.7245556322803325
 10
0.0
 20
7.695244366298287
 30
36.82965977500951
 41
1.0
 10
0.0
 20
7.340613640416477
 30
36.90375685090242
 41
0.9999536449435807
 10
0.0
 20
6.984621847843447
 30
36.97101138246862
 41
1.0
  0
SPLINE
  5
77
330
1F
100
AcDbEntity
  8
STANDARD
100
AcDbSpline
210
1.0
220
0.0
230
0.0
 70
    12
 71
     2
 72
     8
 73
     5
 74
     0
 42
0.0000000001
 43
0.0000000001
 40
-6.480120051122351
 40
-6.480120051122351
 40
-6.480120051122351
 40
-3.240060025561176
 40
-3.240060025561176
 40
0.0
 40
0.0
 40
0.0
 10
0.0
 20
11.75055277796147
 30
35.74304316104504
 41
1.0
 10
0.0
 20
11.1671513476452
 30
33.78595712371083
 41
0.7169054947287559
 10
0.0
 20
9.194546577266918
 30
34.31451497891972
 41
1.0
 10
0.0
 20
7.221941806888636
 30
34.84307283412862
 41
0.7169054947287559
 10
0.0
 20
7.695244366298287
 30
36.82965977500951
 41
1.0
  0
SPLINE
  5
78
330
1F
100
AcDbEntity
  8
STANDARD
100
AcDbSpline
210
1.0
220
1.325370204414505E-14
230
4.031534968267845E-14
 70
    12
 71
     2
 72
     6
 73
     3
 74
     0
 42
0.0000000001
 43
0.0000000001
 40
0.0
 40
0.0
 40
0.0
 40
0.7245556322801155
 40
0.7245556322801155
 40
0.7245556322801155
 10
0.0000000000000003
 20
12.43664573517421
 30
35.51014598474319
 41
1.0
 10
0.0
 20
12.09472053348445
 30
35.62989774817358
 41
0.9999536449435807
 10
0.0
 20
11.75055277796147
 30
35.74304316104504
 41
1.0
  0
SPLINE
  5
79
330
1F
100
AcDbEntity
  8
STANDARD
100
AcDbSpline
210
1.0
220
1.040354703966189E-17
230
-1.591555484411612E-16
 70
    12
 71
     2
 72
     8
 73
     5
 74
     0
 42
0.0000000001
 43
0.0000000001
 40
-6.480120051122205
 40
-6.480120051122205
 40
-6.480120051122205
 40
-3.240060025561103
 40
-3.240060025561103
 40
0.0
 40
0.0
 40
0.0
 10
0.0
 20
16.31542849217949
 30
33.90350156129242
 41
1.0
 10
0.0
 20
15.48156715367411
 30
32.03930783354573
 41
0.7169054947287704
 10
0.0
 20
13.59482893476963
 30
32.82082039246404
 41
1.0
 10
0.0
 20
11.70809071586516
 30
33.60233295138236
 41
0.7169054947287704
 10
0.0000000000000003
 20
12.43664573517421
 30
35.51014598474319
 41
1.0
  0
SPLINE
  5
7A
330
1F
100
AcDbEntity
  8
STANDARD
100
AcDbSpline
210
1.0
220
1.840252386772276E-14
230
3.824049101629983E-14
 70
    12
 71
     2
 72
     6
 73
     3
 74
     0
 42
0.0000000001
 43
0.0000000001
 40
0.0
 40
0.0
 40
0.0
 40
0.7245556322812002
 40
0.7245556322812002
 40
0.7245556322812002
 10
0.0000000000000003
 20
16.96525264743165
 30
33.58304375140549
 41
1.0
 10
0.0
 20
16.64188340493389
 30
33.74640121649983
 41
0.9999536449435806
 10
0.0
 20
16.31542849217949
 30
33.90350156129242
 41
1.0
  0
SPLINE
  5
7B
330
1F
100
AcDbEntity
  8
STANDARD
100
AcDbSpline
210
1.0
220
-1.045942445608959E-17
230
-1.591518860417053E-16
 70
    12
 71
     2
 72
     8
 73
     5
 74
     0
 42
0.0000000001
 43
0.0000000001
 40
-6.480120051125748
 40
-6.480120051125748
 40
-6.480120051125748
 40
-3.240060025563646
 40
-3.240060025563646
 40
0.0
 40
0.0
 40
0.0
 10
0.0
 20
20.60114270140582
 30
31.48386165000068
 41
0.9999999999997304
 10
0.0
 20
19.53108905340524
 30
29.74445710337501
 41
0.7169054947286086
 10
0.0
 20
17.76250000000139
 30
30.76555246944199
 41
1.0
 10
0.0
 20
15.99391094659638
 30
31.78664783550965
 41
0.7169054947284739
 10
0.0000000000000003
 20
16.96525264743165
 30
33.58304375140549
 41
1.0
  0
SPLINE
  5
7C
330
1F
100
AcDbEntity
  8
STANDARD
100
AcDbSpline
210
1.0
220
0.0
230
0.0
 70
    12
 71
     2
 72
     6
 73
     3
 74
     0
 42
0.0000000001
 43
0.0000000001
 40
0.0
 40
0.0
 40
0.0
 40
0.7245556322814172
 40
0.7245556322814172
 40
0.7245556322814172
 10
0.0
 20
21.2035793832349
 30
31.08132632850239
 41
1.0
 10
0.0
 20
20.90429903732353
 30
31.28549440374167
 41
0.9999536449435805
 10
0.0
 20
20.60114270140582
 30
31.48386165000068
 41
1.0
  0
SPLINE
  5
7D
330
1F
100
AcDbEntity
  8
STANDARD
100
AcDbSpline
210
1.0
220
0.0
230
0.0
 70
    12
 71
     2
 72
     8
 73
     5
 74
     0
 42
0.0000000001
 43
0.0000000001
 40
-6.48012005112296
 40
-6.48012005112296
 40
-6.48012005112296
 40
-3.24006002556148
 40
-3.24006002556148
 40
0.0
 40
0.0
 40
0.0
 10
0.0
 20
24.53436564729502
 30
28.52552413689939
 41
1.0
 10
0.0
 20
23.24642860438719
 30
26.94067046544284
 41
0.7169054947287052
 10
0.0
 20
21.62624976553507
 30
28.18387741384652
 41
1.0
 10
0.0
 20
20.00607092668294
 30
29.42708436225019
 41
0.7169054947287052
 10
0.0
 20
21.2035793832349
 30
31.08132632850239
 41
1.0
  0
SPLINE
  5
7E
330
1F
100
AcDbEntity
  8
STANDARD
100
AcDbSpline
210
1.0
220
2.767284044307749E-14
230
3.217455422910349E-14
 70
    12
 71
     2
 72
     6
 73
     3
 74
     0
 42
0.0000000001
 43
0.0000000001
 40
0.0
 40
0.0
 40
0.0
 40
0.724555632278597
 40
0.724555632278597
 40
0.724555632278597
 10
0.0000000000000003
 20
25.07910699704816
 30
28.047798794747
 41
1.0
 10
0.0
 20
24.8090363174191
 30
28.28928410775669
 41
0.999953644943581
 10
0.0
 20
24.53436564729502
 30
28.52552413689939
 41
1.0
  0
SPLINE
  5
7F
330
1F
100
AcDbEntity
  8
STANDARD
100
AcDbSpline
210
1.0
220
-5.129456738189098E-17
230
-1.510218187802597E-16
 70
    12
 71
     2
 72
     8
 73
     5
 74
     0
 42
0.0000000001
 43
0.0000000001
 40
-6.480120051124524
 40
-6.480120051124524
 40
-6.480120051124524
 40
-3.240060025562262
 40
-3.240060025562262
 40
0.0
 40
0.0
 40
0.0
 10
0.0
 20
28.04779879474776
 30
25.07910699704799
 41
1.0
 10
0.0
 20
26.56401531682373
 30
23.675921486482
 41
0.7169054947285755
 10
0.0
 20
25.11996840165283
 30
25.11996840165197
 41
1.0
 10
0.0
 20
23.67592148648193
 30
26.56401531682194
 41
0.7169054947285755
 10
0.0000000000000003
 20
25.07910699704816
 30
28.047798794747
 41
1.0
  0
SPLINE
  5
80
330
1F
100
AcDbEntity
  8
STANDARD
100
AcDbSpline
210
-1.0
220
0.0
230
0.0
 70
    12
 71
     2
 72
     6
 73
     3
 74
     0
 42
0.0000000001
 43
0.0000000001
 40
0.0
 40
0.0
 40
0.0
 40
0.724555632278597
 40
0.724555632278597
 40
0.724555632278597
 10
0.0
 20
28.52552413689988
 30
24.53436564729449
 41
1.0
 10
0.0
 20
28.28928410775812
 30
24.80903631741747
 41
0.999953644943581
 10
0.0
 20
28.04779879474776
 30
25.07910699704799
 41
1.0
  0
SPLINE
  5
81
330
1F
100
AcDbEntity
  8
STANDARD
100
AcDbSpline
210
-1.0
220
0.0
230
0.0
 70
    12
 71
     2
 72
     8
 73
     5
 74
     0
 42
0.0000000001
 43
0.0000000001
 40
-6.480120051123366
 40
-6.480120051123366
 40
-6.480120051123366
 40
-3.240060025561683
 40
-3.240060025561683
 40
0.0
 40
0.0
 40
0.0
 10
0.0
 20
31.08132632850246
 30
21.203579383235
 41
1.0
 10
0.0
 20
29.42708436225048
 30
20.00607092668276
 41
0.7169054947286715
 10
0.0
 20
28.18387741384659
 30
21.62624976553497
 41
1.0
 10
0.0
 20
26.94067046544271
 30
23.24642860438718
 41
0.7169054947286715
 10
0.0
 20
28.52552413689988
 30
24.53436564729449
 41
1.0
  0
SPLINE
  5
82
330
1F
100
AcDbEntity
  8
STANDARD
100
AcDbSpline
210
-1.0
220
-3.505729867309959E-14
230
-2.391597474058639E-14
 70
    12
 71
     2
 72
     6
 73
     3
 74
     0
 42
0.0000000001
 43
0.0000000001
 40
0.0
 40
0.0
 40
0.0
 40
0.7245556322807662
 40
0.7245556322807662
 40
0.7245556322807662
 10
0.0000000000000003
 20
31.48386164999973
 30
20.60114270140556
 41
1.0
 10
0.0
 20
31.28549440374141
 30
20.90429903732389
 41
0.9999536449435806
 10
0.0
 20
31.08132632850246
 30
21.203579383235
 41
1.0
  0
SPLINE
  5
83
330
1F
100
AcDbEntity
  8
STANDARD
100
AcDbSpline
210
-1.0
220
4.602198439540871E-17
230
6.728428497536821E-17
 70
    12
 71
     2
 72
     8
 73
     5
 74
     0
 42
0.0000000001
 43
0.0000000001
 40
-6.480120051121466
 40
-6.480120051121466
 40
-6.480120051121466
 40
-3.240060025560733
 40
-3.240060025560733
 40
0.0
 40
0.0
 40
0.0
 10
0.0000000000000001
 20
33.58304375140472
 30
16.96525264743192
 41
1.0
 10
0.0
 20
31.78664783550928
 30
15.99391094659795
 41
0.7169054947288317
 10
0.0
 20
30.76555246944217
 30
17.76250000000088
 41
1.0
 10
0.0
 20
29.74445710337505
 30
19.53108905340381
 41
0.7169054947288317
 10
0.0000000000000003
 20
31.48386164999973
 30
20.60114270140556
 41
1.0
  0
SPLINE
  5
84
330
1F
100
AcDbEntity
  8
STANDARD
100
AcDbSpline
210
-1.0
220
-1.912024550728307E-14
230
-9.201261933461572E-15
 70
    12
 71
     2
 72
     6
 73
     3
 74
     0
 42
0.0000000001
 43
0.0000000001
 40
0.0
 40
0.0
 40
0.0
 40
0.7245556322825017
 40
0.7245556322825017
 40
0.7245556322825017
 10
0.0
 20
33.9035015612926
 30
16.31542849217972
 41
1.0
 10
0.0
 20
33.74640121649937
 30
16.64188340493486
 41
0.9999536449435804
 10
0.0000000000000001
 20
33.58304375140472
 30
16.96525264743192
 41
1.0
  0
SPLINE
  5
85
330
1F
100
AcDbEntity
  8
STANDARD
100
AcDbSpline
210
-1.0
220
0.0
230
0.0
 70
    12
 71
     2
 72
     8
 73
     5
 74
     0
 42
0.0000000001
 43
0.0000000001
 40
-6.480120051123504
 40
-6.480120051123504
 40
-6.480120051123504
 40
-3.240060025561752
 40
-3.240060025561752
 40
0.0
 40
0.0
 40
0.0
 10
0.0
 20
35.51014598474335
 30
12.4366457351743
 41
1.0
 10
0.0
 20
33.60233295138244
 30
11.70809071586465
 41
0.71690549472866
 10
0.0
 20
32.820820392464
 30
13.59482893476976
 41
1.0
 10
0.0
 20
32.03930783354556
 30
15.48156715367487
 41
0.71690549472866
 10
0.0
 20
33.9035015612926
 30
16.31542849217972
 41
1.0
  0
SPLINE
  5
86
330
1F
100
AcDbEntity
  8
STANDARD
100
AcDbSpline
210
-1.0
220
0.0
230
0.0
 70
    12
 71
     2
 72
     6
 73
     3
 74
     0
 42
0.0000000001
 43
0.0000000001
 40
0.0
 40
0.0
 40
0.0
 40
0.7245556322807662
 40
0.7245556322807662
 40
0.7245556322807662
 10
0.0
 20
35.74304316104528
 30
11.75055277796137
 41
1.0
 10
0.0
 20
35.62989774817367
 30
12.09472053348421
 41
0.9999536449435806
 10
0.0
 20
35.51014598474335
 30
12.4366457351743
 41
1.0
  0
SPLINE
  5
87
330
1F
100
AcDbEntity
  8
STANDARD
100
AcDbSpline
210
-1.0
220
0.0
230
0.0
 70
    12
 71
     2
 72
     8
 73
     5
 74
     0
 42
0.0000000001
 43
0.0000000001
 40
-6.480120051122969
 40
-6.480120051122969
 40
-6.480120051122969
 40
-3.240060025561485
 40
-3.240060025561485
 40
0.0
 40
0.0
 40
0.0
 10
0.0
 20
36.82965977500949
 30
7.695244366298464
 41
1.0
 10
0.0
 20
34.84307283412838
 30
7.221941806888562
 41
0.7169054947287045
 10
0.0
 20
34.31451497891965
 30
9.194546577267202
 41
1.0
 10
0.0
 20
33.78595712371092
 30
11.16715134764584
 41
0.7169054947287045
 10
0.0
 20
35.74304316104528
 30
11.75055277796137
 41
1.0
  0
SPLINE
  5
88
330
1F
100
AcDbEntity
  8
STANDARD
100
AcDbSpline
210
-1.0
220
0.0
230
0.0
 70
    12
 71
     2
 72
     6
 73
     3
 74
     0
 42
0.0000000001
 43
0.0000000001
 40
0.0
 40
0.0
 40
0.0
 40
0.7245556322812002
 40
0.7245556322812002
 40
0.7245556322812002
 10
0.0
 20
36.9710113824687
 30
6.984621847843345
 41
1.0
 10
0.0
 20
36.90375685090242
 30
7.340613640416515
 41
0.9999536449435806
 10
0.0
 20
36.82965977500949
 30
7.695244366298464
 41
1.0
  0
SPLINE
  5
89
330
1F
100
AcDbEntity
  8
STANDARD
100
AcDbSpline
210
-1.0
220
0.0
230
0.0
 70
    12
 71
     2
 72
     8
 73
     5
 74
     0
 42
0.0000000001
 43
0.0000000001
 40
-6.480120051123048
 40
-6.480120051123048
 40
-6.480120051123048
 40
-3.240060025561524
 40
-3.240060025561524
 40
0.0
 40
0.0
 40
0.0
 10
0.0
 20
37.5190078754146
 30
2.822175232790823
 41
1.0
 10
0.0
 20
35.48763808035797
 30
2.612223471295591
 41
0.7169054947286979
 10
0.0
 20
35.2210787003051
 30
4.636942978617383
 41
1.0
 10
0.0
 20
34.95451932025224
 30
6.661662485939178
 41
0.7169054947286979
 10
0.0
 20
36.9710113824687
 30
6.984621847843345
 41
1.0
  0
SPLINE
  5
8A
330
1F
100
AcDbEntity
  8
STANDARD
100
AcDbSpline
210
-1.0
220
0.0
230
0.0
 70
    12
 71
     2
 72
     6
 73
     3
 74
     0
 42
0.0000000001
 43
0.0000000001
 40
0.0
 40
0.0
 40
0.0
 40
0.7245556322825017
 40
0.7245556322825017
 40
0.7245556322825017
 10
0.0
 20
37.5663953488372
 30
2.099182101405709
 41
1.0
 10
0.0
 20
37.54618244225786
 30
2.460906812759168
 41
0.9999536449435804
 10
0.0
 20
37.5190078754146
 30
2.822175232790823
 41
1.0
  0
SPLINE
  5
8B
330
1F
100
AcDbEntity
  8
STANDARD
100
AcDbSpline
210
1.0
220
0.0
230
0.0
 70
    12
 71
     2
 72
     8
 73
     5
 74
     0
 42
0.0000000001
 43
0.0000000001
 40
-25.13274122871834
 40
-25.13274122871834
 40
-25.13274122871834
 40
-18.84955592153876
 40
-18.84955592153876
 40
-12.56637061435917
 40
-12.56637061435917
 40
-12.56637061435917
 10
0.0
 20
-0.0000000000000006
 30
-4.0
 41
1.0
 10
0.0
 20
-4.0
 30
-3.999999999999999
 41
0.7071067811865476
 10
0.0
 20
-4.0
 30
0.0000000000000007
 41
1.0
 10
0.0
 20
-3.999999999999999
 30
4.0
 41
0.7071067811865476
 10
0.0
 20
0.0000000000000005
 30
4.0
 41
1.0
  0
SPLINE
  5
8C
330
1F
100
AcDbEntity
  8
STANDARD
100
AcDbSpline
210
-1.0
220
0.0
230
0.0
 70
    12
 71
     2
 72
     8
 73
     5
 74
     0
 42
0.0000000001
 43
0.0000000001
 40
0.0
 40
0.0
 40
0.0
 40
29.84513020910303
 40
29.84513020910303
 40
59.69026041820607
 40
59.69026041820607
 40
59.69026041820607
 10
20.5
 20
0.0000000000000017
 30
-19.0
 41
1.0
 10
20.5
 20
19.0
 30
-19.0
 41
0.7071067811865476
 10
20.5
 20
19.0
 30
-0.0000000000000012
 41
1.0
 10
20.5
 20
19.0
 30
19.0
 41
0.7071067811865476
 10
20.5
 20
0.0
 30
19.0
 41
1.0
  0
SPLINE
  5
8D
330
1F
100
AcDbEntity
  8
STANDARD
100
AcDbSpline
210
-1.0
220
0.0
230
0.0
 70
    12
 71
     2
 72
     8
 73
     5
 74
     0
 42
0.0000000001
 43
0.0000000001
 40
0.0
 40
0.0
 40
0.0
 40
3.240060025561353
 40
3.240060025561353
 40
6.480120051122706
 40
6.480120051122706
 40
6.480120051122706
 10
20.5
 20
-2.099182101405666
 30
37.5663953488372
 41
1.0
 10
20.5
 20
-2.042190732136292
 30
35.5250000000006
 41
0.7169054947287263
 10
20.5
 20
-0.0000000000001208
 30
35.5250000000005
 41
1.0
 10
20.5
 20
2.042190732136059
 30
35.5250000000004
 41
0.7169054947287263
 10
20.5
 20
2.099182101405561
 30
37.56639534883713
 41
1.0
  0
SPLINE
  5
8E
330
1F
100
AcDbEntity
  8
STANDARD
100
AcDbSpline
210
1.0
220
-6.661086162568418E-14
230
1.016285358818347E-12
 70
    12
 71
     2
 72
     6
 73
     3
 74
     0
 42
0.0000000001
 43
0.0000000001
 40
-0.7245556322822848
 40
-0.7245556322822848
 40
-0.7245556322822848
 40
0.0
 40
0.0
 40
0.0
 10
20.5
 20
-2.822175232790703
 30
37.51900787541438
 41
1.0
 10
20.5
 20
-2.460906812758968
 30
37.54618244225787
 41
0.9999536449435804
 10
20.5
 20
-2.099182101405666
 30
37.5663953488372
 41
1.0
  0
SPLINE
  5
8F
330
1F
100
AcDbEntity
  8
STANDARD
100
AcDbSpline
210
1.0
220
0.0
230
0.0
 70
    12
 71
     2
 72
     8
 73
     5
 74
     0
 42
0.0000000001
 43
0.0000000001
 40
0.0
 40
0.0
 40
0.0
 40
3.240060025561167
 40
3.240060025561167
 40
6.480120051122334
 40
6.480120051122334
 40
6.480120051122334
 10
20.5
 20
-6.9846218478433
 30
36.9710113824687
 41
1.0
 10
20.5
 20
-6.66166248593921
 30
34.95451932025257
 41
0.7169054947287572
 10
20.5
 20
-4.636942978617725
 30
35.22107870030506
 41
1.0
 10
20.5
 20
-2.612223471296232
 30
35.48763808035754
 41
0.7169054947287572
 10
20.5
 20
-2.822175232790703
 30
37.51900787541438
 41
1.0
  0
SPLINE
  5
90
330
1F
100
AcDbEntity
  8
STANDARD
100
AcDbSpline
210
1.0
220
0.0
230
0.0
 70
    12
 71
     2
 72
     6
 73
     3
 74
     0
 42
0.0000000001
 43
0.0000000001
 40
-0.7245556322803325
 40
-0.7245556322803325
 40
-0.7245556322803325
 40
0.0
 40
0.0
 40
0.0
 10
20.5
 20
-7.695244366298277
 30
36.82965977500968
 41
1.0
 10
20.5
 20
-7.340613640415993
 30
36.90375685090252
 41
0.9999536449435807
 10
20.5
 20
-6.9846218478433
 30
36.9710113824687
 41
1.0
  0
SPLINE
  5
91
330
1F
100
AcDbEntity
  8
STANDARD
100
AcDbSpline
210
1.0
220
4.504320843070734E-16
230
-1.681035423992922E-15
 70
    12
 71
     2
 72
     8
 73
     5
 74
     0
 42
0.0000000001
 43
0.0000000001
 40
0.0
 40
0.0
 40
0.0
 40
3.24006002555877
 40
3.24006002555877
 40
6.480120051117541
 40
6.480120051117541
 40
6.480120051117541
 10
20.5
 20
-11.75055277796132
 30
35.74304316104529
 41
1.0
 10
20.5
 20
-11.16715134764383
 30
33.78595712371425
 41
0.7169054947291551
 10
20.5
 20
-9.1945465772678
 30
34.31451497892252
 41
1.0
 10
20.5
 20
-7.221941806891765
 30
34.84307283413079
 41
0.7169054947291551
 10
20.5
 20
-7.695244366298277
 30
36.82965977500968
 41
1.0
  0
SPLINE
  5
92
330
1F
100
AcDbEntity
  8
STANDARD
100
AcDbSpline
210
1.0
220
-3.273751576868420E-13
230
9.644161153935123E-13
 70
    12
 71
     2
 72
     6
 73
     3
 74
     0
 42
0.0000000001
 43
0.0000000001
 40
-0.7245556322822848
 40
-0.7245556322822848
 40
-0.7245556322822848
 40
0.0
 40
0.0
 40
0.0
 10
20.5
 20
-12.43664573517481
 30
35.51014598474297
 41
1.0
 10
20.5
 20
-12.09472053348484
 30
35.62989774817346
 41
0.9999536449435804
 10
20.5
 20
-11.75055277796132
 30
35.74304316104529
 41
1.0
  0
SPLINE
  5
93
330
1F
100
AcDbEntity
  8
STANDARD
100
AcDbSpline
210
1.0
220
0.0
230
0.0
 70
    12
 71
     2
 72
     8
 73
     5
 74
     0
 42
0.0000000001
 43
0.0000000001
 40
0.0
 40
0.0
 40
0.0
 40
3.24006002555862
 40
3.24006002555862
 40
6.480120051117241
 40
6.480120051117241
 40
6.480120051117241
 10
20.5
 20
-16.31542849217973
 30
33.90350156129259
 41
1.0
 10
20.5
 20
-15.4815671536736
 30
32.03930783354947
 41
0.71690549472918
 10
20.5
 20
-13.59482893477121
 30
32.8208203924665
 41
1.0
 10
20.5
 20
-11.70809071586881
 30
33.60233295138354
 41
0.71690549472918
 10
20.5
 20
-12.43664573517481
 30
35.51014598474297
 41
1.0
  0
SPLINE
  5
94
330
1F
100
AcDbEntity
  8
STANDARD
100
AcDbSpline
210
1.0
220
0.0
230
0.0
 70
    12
 71
     2
 72
     6
 73
     3
 74
     0
 42
0.0000000001
 43
0.0000000001
 40
-0.7245556322803325
 40
-0.7245556322803325
 40
-0.7245556322803325
 40
0.0
 40
0.0
 40
0.0
 10
20.5
 20
-16.9652526474318
 30
33.58304375140575
 41
1.0
 10
20.5
 20
-16.64188340493388
 30
33.74640121649984
 41
0.9999536449435807
 10
20.5
 20
-16.31542849217973
 30
33.90350156129259
 41
1.0
  0
SPLINE
  5
95
330
1F
100
AcDbEntity
  8
STANDARD
100
AcDbSpline
210
1.0
220
8.701679664428579E-16
230
-1.507175128997660E-15
 70
    12
 71
     2
 72
     8
 73
     5
 74
     0
 42
0.0000000001
 43
0.0000000001
 40
0.0
 40
0.0
 40
0.0
 40
3.240060025559065
 40
3.240060025559065
 40
6.48012005111813
 40
6.48012005111813
 40
6.48012005111813
 10
20.5
 20
-20.60114270140554
 30
31.48386164999977
 41
1.0
 10
20.5
 20
-19.53108905340228
 30
29.74445710337794
 41
0.7169054947291061
 10
20.5
 20
-17.76250000000138
 30
30.76555246944532
 41
1.0
 10
20.5
 20
-15.99391094660047
 30
31.78664783551271
 41
0.7169054947291061
 10
20.5
 20
-16.9652526474318
 30
33.58304375140575
 41
1.0
  0
SPLINE
  5
96
330
1F
100
AcDbEntity
  8
STANDARD
100
AcDbSpline
210
1.0
220
-5.658293777849203E-13
230
8.468235074789864E-13
 70
    12
 71
     2
 72
     6
 73
     3
 74
     0
 42
0.0000000001
 43
0.0000000001
 40
-0.7245556322822848
 40
-0.7245556322822848
 40
-0.7245556322822848
 40
0.0
 40
0.0
 40
0.0
 10
20.5
 20
-21.20357938323556
 30
31.08132632850226
 41
1.0
 10
20.5
 20
-20.90429903732441
 30
31.28549440374108
 41
0.9999536449435804
 10
20.5
 20
-20.60114270140554
 30
31.48386164999977
 41
1.0
  0
SPLINE
  5
97
330
1F
100
AcDbEntity
  8
STANDARD
100
AcDbSpline
210
1.0
220
0.0
230
0.0
 70
    12
 71
     2
 72
     8
 73
     5
 74
     0
 42
0.0000000001
 43
0.0000000001
 40
0.0
 40
0.0
 40
0.0
 40
3.2400600255591
 40
3.2400600255591
 40
6.480120051118201
 40
6.480120051118201
 40
6.480120051118201
 10
20.5
 20
-24.53436564729449
 30
28.52552413689988
 41
1.0
 10
20.5
 20
-23.24642860438663
 30
26.94067046544639
 41
0.7169054947291003
 10
20.5
 20
-21.62624976553657
 30
28.18387741384895
 41
1.0
 10
20.5
 20
-20.00607092668651
 30
29.42708436225151
 41
0.7169054947291003
 10
20.5
 20
-21.20357938323556
 30
31.08132632850226
 41
1.0
  0
SPLINE
  5
98
330
1F
100
AcDbEntity
  8
STANDARD
100
AcDbSpline
210
1.0
220
0.0
230
0.0
 70
    12
 71
     2
 72
     6
 73
     3
 74
     0
 42
0.0000000001
 43
0.0000000001
 40
-0.7245556322792479
 40
-0.7245556322792479
 40
-0.7245556322792479
 40
0.0
 40
0.0
 40
0.0
 10
20.5
 20
-25.07910699704795
 30
28.04779879474733
 41
1.0
 10
20.5
 20
-24.80903631741771
 30
28.2892841077579
 41
0.9999536449435809
 10
20.5
 20
-24.53436564729449
 30
28.52552413689988
 41
1.0
  0
SPLINE
  5
99
330
1F
100
AcDbEntity
  8
STANDARD
100
AcDbSpline
210
1.0
220
0.0
230
0.0
 70
    12
 71
     2
 72
     8
 73
     5
 74
     0
 42
0.0000000001
 43
0.0000000001
 40
0.0
 40
0.0
 40
0.0
 40
3.240060025558774
 40
3.240060025558774
 40
6.480120051117549
 40
6.480120051117549
 40
6.480120051117549
 10
20.5
 20
-28.04779879474697
 30
25.07910699704819
 41
1.0
 10
20.5
 20
-26.56401531682237
 30
23.67592148648642
 41
0.7169054947291543
 10
20.5
 20
-25.11996840165444
 30
25.11996840165456
 41
1.0
 10
20.5
 20
-23.67592148648651
 30
26.5640153168227
 41
0.7169054947291543
 10
20.5
 20
-25.07910699704795
 30
28.04779879474733
 41
1.0
  0
SPLINE
  5
9A
330
1F
100
AcDbEntity
  8
STANDARD
100
AcDbSpline
210
1.0
220
7.657232608633359E-13
230
-6.715212769437700E-13
 70
    12
 71
     2
 72
     6
 73
     3
 74
     0
 42
0.0000000001
 43
0.0000000001
 40
-0.7245556322781632
 40
-0.7245556322781632
 40
-0.7245556322781632
 40
0.0
 40
0.0
 40
0.0
 10
20.5
 20
-28.52552413689962
 30
24.53436564729524
 41
1.0
 10
20.5
 20
-28.28928410775655
 30
24.80903631741926
 41
0.999953644943581
 10
20.5
 20
-28.04779879474697
 30
25.07910699704819
 41
1.0
  0
SPLINE
  5
9B
330
1F
100
AcDbEntity
  8
STANDARD
100
AcDbSpline
210
1.0
220
0.0
230
0.0
 70
    12
 71
     2
 72
     8
 73
     5
 74
     0
 42
0.0000000001
 43
0.0000000001
 40
0.0
 40
0.0
 40
0.0
 40
3.240060025559013
 40
3.240060025559013
 40
6.480120051118026
 40
6.480120051118026
 40
6.480120051118026
 10
20.5
 20
-31.0813263285024
 30
21.20357938323489
 41
1.0
 10
20.5
 20
-29.42708436225048
 30
20.00607092668664
 41
0.7169054947291148
 10
20.5
 20
-28.18387741384863
 30
21.62624976553715
 41
1.0
 10
20.5
 20
-26.94067046544678
 30
23.24642860438764
 41
0.7169054947291148
 10
20.5
 20
-28.52552413689962
 30
24.53436564729524
 41
1.0
  0
SPLINE
  5
9C
330
1F
100
AcDbEntity
  8
STANDARD
100
AcDbSpline
210
1.0
220
0.0
230
0.0
 70
    12
 71
     2
 72
     6
 73
     3
 74
     0
 42
0.0000000001
 43
0.0000000001
 40
-0.7245556322803325
 40
-0.7245556322803325
 40
-0.7245556322803325
 40
0.0
 40
0.0
 40
0.0
 10
20.5
 20
-31.48386164999949
 30
20.60114270140551
 41
1.0
 10
20.5
 20
-31.28549440374136
 30
20.90429903732397
 41
0.9999536449435807
 10
20.5
 20
-31.0813263285024
 30
21.20357938323489
 41
1.0
  0
SPLINE
  5
9D
330
1F
100
AcDbEntity
  8
STANDARD
100
AcDbSpline
210
1.0
220
-1.507175128995626E-15
230
8.701679664416400E-16
 70
    12
 71
     2
 72
     8
 73
     5
 74
     0
 42
0.0000000001
 43
0.0000000001
 40
0.0
 40
0.0
 40
0.0
 40
3.240060025561169
 40
3.240060025561169
 40
6.480120051122339
 40
6.480120051122339
 40
6.480120051122339
 10
20.5
 20
-33.58304375140543
 30
16.96525264743167
 41
1.0
 10
20.5
 20
-31.78664783551102
 30
15.99391094659716
 41
0.7169054947287593
 10
20.5
 20
-30.76555246944275
 30
17.7624999999999
 41
1.0
 10
20.5
 20
-29.74445710337447
 30
19.53108905340265
 41
0.7169054947287593
 10
20.5
 20
-31.48386164999949
 30
20.60114270140551
 41
1.0
  0
SPLINE
  5
9E
330
1F
100
AcDbEntity
  8
STANDARD
100
AcDbSpline
210
1.0
220
0.0
230
0.0
 70
    12
 71
     2
 72
     6
 73
     3
 74
     0
 42
0.0000000001
 43
0.0000000001
 40
-0.7245556322814172
 40
-0.7245556322814172
 40
-0.7245556322814172
 40
0.0
 40
0.0
 40
0.0
 10
20.5
 20
-33.90350156129249
 30
16.31542849217945
 41
1.0
 10
20.5
 20
-33.74640121649988
 30
16.64188340493384
 41
0.9999536449435805
 10
20.5
 20
-33.58304375140543
 30
16.96525264743167
 41
1.0
  0
SPLINE
  5
9F
330
1F
100
AcDbEntity
  8
STANDARD
100
AcDbSpline
210
1.0
220
0.0
230
0.0
 70
    12
 71
     2
 72
     8
 73
     5
 74
     0
 42
0.0000000001
 43
0.0000000001
 40
0.0
 40
0.0
 40
0.0
 40
3.240060025561198
 40
3.240060025561198
 40
6.480120051122396
 40
6.480120051122396
 40
6.480120051122396
 10
20.5
 20
-35.51014598474319
 30
12.43664573517426
 41
1.0
 10
20.5
 20
-33.60233295138232
 30
11.70809071586512
 41
0.716905494728752
 10
20.5
 20
-32.82082039246401
 30
13.5948289347697
 41
1.0
 10
20.5
 20
-32.03930783354574
 30
15.48156715367429
 41
0.716905494728752
 10
20.5
 20
-33.90350156129249
 30
16.31542849217945
 41
1.0
  0
SPLINE
  5
A0
330
1F
100
AcDbEntity
  8
STANDARD
100
AcDbSpline
210
1.0
220
0.0
230
0.0
 70
    12
 71
     2
 72
     6
 73
     3
 74
     0
 42
0.0000000001
 43
0.0000000001
 40
-0.7245556322803325
 40
-0.7245556322803325
 40
-0.7245556322803325
 40
0.0
 40
0.0
 40
0.0
 10
20.5
 20
-35.74304316104511
 30
11.75055277796145
 41
1.0
 10
20.5
 20
-35.62989774817358
 30
12.09472053348444
 41
0.9999536449435807
 10
20.5
 20
-35.51014598474319
 30
12.43664573517426
 41
1.0
  0
SPLINE
  5
A1
330
1F
100
AcDbEntity
  8
STANDARD
100
AcDbSpline
210
1.0
220
0.0
230
0.0
 70
    12
 71
     2
 72
     8
 73
     5
 74
     0
 42
0.0000000001
 43
0.0000000001
 40
0.0
 40
0.0
 40
0.0
 40
3.240060025561269
 40
3.240060025561269
 40
6.480120051122539
 40
6.480120051122539
 40
6.480120051122539
 10
20.5
 20
-36.82965977500951
 30
7.69524436629833
 41
1.0
 10
20.5
 20
-34.84307283412855
 30
7.221941806888589
 41
0.7169054947287402
 10
20.5
 20
-34.3145149789197
 30
9.194546577266978
 41
1.0
 10
20.5
 20
-33.78595712371085
 30
11.16715134764536
 41
0.7169054947287402
 10
20.5
 20
-35.74304316104511
 30
11.75055277796145
 41
1.0
  0
SPLINE
  5
A2
330
1F
100
AcDbEntity
  8
STANDARD
100
AcDbSpline
210
1.0
220
0.0
230
0.0
 70
    12
 71
     2
 72
     6
 73
     3
 74
     0
 42
0.0000000001
 43
0.0000000001
 40
-0.7245556322801155
 40
-0.7245556322801155
 40
-0.7245556322801155
 40
0.0
 40
0.0
 40
0.0
 10
20.5
 20
-36.97101138246883
 30
6.984621847843597
 41
1.0
 10
20.5
 20
-36.90375685090237
 30
7.340613640416669
 41
0.9999536449435807
 10
20.5
 20
-36.82965977500951
 30
7.69524436629833
 41
1.0
  0
SPLINE
  5
A3
330
1F
100
AcDbEntity
  8
STANDARD
100
AcDbSpline
210
1.0
220
0.0
230
0.0
 70
    12
 71
     2
 72
     8
 73
     5
 74
     0
 42
0.0000000001
 43
0.0000000001
 40
0.0
 40
0.0
 40
0.0
 40
3.240060025561775
 40
3.240060025561775
 40
6.48012005112355
 40
6.48012005112355
 40
6.48012005112355
 10
20.5
 20
-37.51900787541462
 30
2.822175232790249
 41
1.0
 10
20.5
 20
-35.48763808035763
 30
2.612223471295605
 41
0.7169054947286587
 10
20.5
 20
-35.22107870030504
 30
4.636942978617677
 41
1.0
 10
20.5
 20
-34.95451932025248
 30
6.661662485939748
 41
0.7169054947286587
 10
20.5
 20
-36.97101138246883
 30
6.984621847843597
 41
1.0
  0
SPLINE
  5
A4
330
1F
100
AcDbEntity
  8
STANDARD
100
AcDbSpline
210
1.0
220
0.0
230
0.0
 70
    12
 71
     2
 72
     6
 73
     3
 74
     0
 42
0.0000000001
 43
0.0000000001
 40
-0.7245556322812002
 40
-0.7245556322812002
 40
-0.7245556322812002
 40
0.0
 40
0.0
 40
0.0
 10
20.5
 20
-37.5663953488373
 30
2.099182101405571
 41
1.0
 10
20.5
 20
-37.54618244225791
 30
2.460906812758137
 41
0.9999536449435806
 10
20.5
 20
-37.51900787541462
 30
2.822175232790249
 41
1.0
  0
SPLINE
  5
A5
330
1F
100
AcDbEntity
  8
STANDARD
100
AcDbSpline
210
-1.0
220
0.0
230
0.0
 70
    12
 71
     2
 72
     8
 73
     5
 74
     0
 42
0.0000000001
 43
0.0000000001
 40
0.0
 40
0.0
 40
0.0
 40
3.240060025561608
 40
3.240060025561608
 40
6.480120051123215
 40
6.480120051123215
 40
6.480120051123215
 10
20.5
 20
-37.5663953488372
 30
-2.09918210140566
 41
1.0
 10
20.5
 20
-35.52500000000035
 30
-2.042190732136285
 41
0.716905494728684
 10
20.5
 20
-35.52500000000049
 30
0.0000000000001386
 41
1.0
 10
20.5
 20
-35.52500000000064
 30
2.042190732136562
 41
0.716905494728684
 10
20.5
 20
-37.5663953488373
 30
2.099182101405571
 41
1.0
  0
SPLINE
  5
A6
330
1F
100
AcDbEntity
  8
STANDARD
100
AcDbSpline
210
1.0
220
-1.016285358859568E-12
230
-6.661086162798778E-14
 70
    12
 71
     2
 72
     6
 73
     3
 74
     0
 42
0.0000000001
 43
0.0000000001
 40
-0.7245556322825017
 40
-0.7245556322825017
 40
-0.7245556322825017
 40
0.0
 40
0.0
 40
0.0
 10
20.5
 20
-37.51900787541466
 30
-2.822175232790791
 41
1.0
 10
20.5
 20
-37.54618244225786
 30
-2.460906812759069
 41
0.9999536449435804
 10
20.5
 20
-37.5663953488372
 30
-2.09918210140566
 41
1.0
  0
SPLINE
  5
A7
330
1F
100
AcDbEntity
  8
STANDARD
100
AcDbSpline
210
1.0
220
0.0
230
0.0
 70
    12
 71
     2
 72
     8
 73
     5
 74
     0
 42
0.0000000001
 43
0.0000000001
 40
0.0
 40
0.0
 40
0.0
 40
3.240060025561604
 40
3.240060025561604
 40
6.480120051123207
 40
6.480120051123207
 40
6.480120051123207
 10
20.5
 20
-36.9710113824687
 30
-6.984621847843298
 41
1.0
 10
20.5
 20
-34.95451932025214
 30
-6.661662485939146
 41
0.7169054947286848
 10
20.5
 20
-35.2210787003051
 30
-4.636942978617289
 41
1.0
 10
20.5
 20
-35.48763808035807
 30
-2.612223471295433
 41
0.7169054947286848
 10
20.5
 20
-37.51900787541466
 30
-2.822175232790791
 41
1.0
  0
SPLINE
  5
A8
330
1F
100
AcDbEntity
  8
STANDARD
100
AcDbSpline
210
1.0
220
-9.988964346387238E-13
230
-1.986928545806771E-13
 70
    12
 71
     2
 72
     6
 73
     3
 74
     0
 42
0.0000000001
 43
0.0000000001
 40
-0.7245556322822848
 40
-0.7245556322822848
 40
-0.7245556322822848
 40
0.0
 40
0.0
 40
0.0
 10
20.5
 20
-36.82965977500971
 30
-7.695244366298837
 41
1.0
 10
20.5
 20
-36.90375685090233
 30
-7.340613640416953
 41
0.9999536449435804
 10
20.5
 20
-36.9710113824687
 30
-6.984621847843298
 41
1.0
  0
SPLINE
  5
A9
330
1F
100
AcDbEntity
  8
STANDARD
100
AcDbSpline
210
1.0
220
0.0
230
0.0
 70
    12
 71
     2
 72
     8
 73
     5
 74
     0
 42
0.0000000001
 43
0.0000000001
 40
0.0
 40
0.0
 40
0.0
 40
3.240060025561911
 40
3.240060025561911
 40
6.480120051123821
 40
6.480120051123821
 40
6.480120051123821
 10
20.5
 20
-35.74304316104528
 30
-11.75055277796133
 41
1.0
 10
20.5
 20
-33.78595712371051
 30
-11.16715134764568
 41
0.7169054947286337
 10
20.5
 20
-34.31451497891976
 30
-9.194546577266756
 41
1.0
 10
20.5
 20
-34.84307283412902
 30
-7.22194180688783
 41
0.7169054947286337
 10
20.5
 20
-36.82965977500971
 30
-7.695244366298837
 41
1.0
  0
SPLINE
  5
AA
330
1F
100
AcDbEntity
  8
STANDARD
100
AcDbSpline
210
1.0
220
0.0
230
0.0
 70
    12
 71
     2
 72
     6
 73
     3
 74
     0
 42
0.0000000001
 43
0.0000000001
 40
-0.7245556322807662
 40
-0.7245556322807662
 40
-0.7245556322807662
 40
0.0
 40
0.0
 40
0.0
 10
20.5
 20
-35.51014598474336
 30
-12.43664573517427
 41
1.0
 10
20.5
 20
-35.6298977481737
 30
-12.09472053348412
 41
0.9999536449435806
 10
20.5
 20
-35.74304316104528
 30
-11.75055277796133
 41
1.0
  0
SPLINE
  5
AB
330
1F
100
AcDbEntity
  8
STANDARD
100
AcDbSpline
210
1.0
220
0.0
230
0.0
 70
    12
 71
     2
 72
     8
 73
     5
 74
     0
 42
0.0000000001
 43
0.0000000001
 40
0.0
 40
0.0
 40
0.0
 40
3.240060025561752
 40
3.240060025561752
 40
6.480120051123504
 40
6.480120051123504
 40
6.480120051123504
 10
20.5
 20
-33.90350156129259
 30
-16.31542849217972
 41
1.0
 10
20.5
 20
-32.03930783354556
 30
-15.48156715367487
 41
0.71690549472866
 10
20.5
 20
-32.820820392464
 30
-13.59482893476976
 41
1.0
 10
20.5
 20
-33.60233295138244
 30
-11.70809071586465
 41
0.71690549472866
 10
20.5
 20
-35.51014598474336
 30
-12.43664573517427
 41
1.0
  0
SPLINE
  5
AC
330
1F
100
AcDbEntity
  8
STANDARD
100
AcDbSpline
210
1.0
220
0.0
230
0.0
 70
    12
 71
     2
 72
     6
 73
     3
 74
     0
 42
0.0000000001
 43
0.0000000001
 40
-0.7245556322777293
 40
-0.7245556322777293
 40
-0.7245556322777293
 40
0.0
 40
0.0
 40
0.0
 10
20.5
 20
-33.58304375140622
 30
-16.96525264743097
 41
1.0
 10
20.5
 20
-33.7464012165004
 30
-16.64188340493271
 41
0.9999536449435811
 10
20.5
 20
-33.90350156129259
 30
-16.31542849217972
 41
1.0
  0
SPLINE
  5
AD
330
1F
100
AcDbEntity
  8
STANDARD
100
AcDbSpline
210
1.0
220
0.0
230
0.0
 70
    12
 71
     2
 72
     8
 73
     5
 74
     0
 42
0.0000000001
 43
0.0000000001
 40
0.0
 40
0.0
 40
0.0
 40
3.240060025562026
 40
3.240060025562026
 40
6.480120051124052
 40
6.480120051124052
 40
6.480120051124052
 10
20.5
 20
-31.48386164999976
 30
-20.60114270140555
 41
1.0
 10
20.5
 20
-29.74445710337398
 30
-19.53108905340322
 41
0.7169054947286146
 10
20.5
 20
-30.76555246944284
 30
-17.76249999999984
 41
1.0
 10
20.5
 20
-31.7866478355117
 30
-15.99391094659646
 41
0.7169054947286146
 10
20.5
 20
-33.58304375140622
 30
-16.96525264743097
 41
1.0
  0
SPLINE
  5
AE
330
1F
100
AcDbEntity
  8
STANDARD
100
AcDbSpline
210
1.0
220
0.0
230
0.0
 70
    12
 71
     2
 72
     6
 73
     3
 74
     0
 42
0.0000000001
 43
0.0000000001
 40
-0.7245556322807662
 40
-0.7245556322807662
 40
-0.7245556322807662
 40
0.0
 40
0.0
 40
0.0
 10
20.5
 20
-31.08132632850247
 30
-21.20357938323496
 41
1.0
 10
20.5
 20
-31.28549440374149
 30
-20.90429903732377
 41
0.9999536449435806
 10
20.5
 20
-31.48386164999976
 30
-20.60114270140555
 41
1.0
  0
SPLINE
  5
AF
330
1F
100
AcDbEntity
  8
STANDARD
100
AcDbSpline
210
1.0
220
0.0
230
0.0
 70
    12
 71
     2
 72
     8
 73
     5
 74
     0
 42
0.0000000001
 43
0.0000000001
 40
0.0
 40
0.0
 40
0.0
 40
3.240060025561644
 40
3.240060025561644
 40
6.480120051123287
 40
6.480120051123287
 40
6.480120051123287
 10
20.5
 20
-28.52552413689988
 30
-24.53436564729444
 41
1.0
 10
20.5
 20
-26.94067046544273
 30
-23.24642860438712
 41
0.7169054947286781
 10
20.5
 20
-28.1838774138466
 30
-21.62624976553495
 41
1.0
 10
20.5
 20
-29.42708436225049
 30
-20.00607092668279
 41
0.7169054947286781
 10
20.5
 20
-31.08132632850247
 30
-21.20357938323496
 41
1.0
  0
SPLINE
  5
B0
330
1F
100
AcDbEntity
  8
STANDARD
100
AcDbSpline
210
1.0
220
7.657232608332615E-13
230
6.715212769166725E-13
 70
    12
 71
     2
 72
     6
 73
     3
 74
     0
 42
0.0000000001
 43
0.0000000001
 40
-0.724555632278597
 40
-0.724555632278597
 40
-0.724555632278597
 40
0.0
 40
0.0
 40
0.0
 10
20.5
 20
-28.04779879474751
 30
-25.07910699704766
 41
1.0
 10
20.5
 20
-28.28928410775817
 30
-24.80903631741741
 41
0.999953644943581
 10
20.5
 20
-28.52552413689988
 30
-24.53436564729444
 41
1.0
  0
SPLINE
  5
B1
330
1F
100
AcDbEntity
  8
STANDARD
100
AcDbSpline
210
-1.0
220
0.0
230
0.0
 70
    12
 71
     2
 72
     8
 73
     5
 74
     0
 42
0.0000000001
 43
0.0000000001
 40
0.0
 40
0.0
 40
0.0
 40
3.240060025561549
 40
3.240060025561549
 40
6.480120051123099
 40
6.480120051123099
 40
6.480120051123099
 10
20.5
 20
-25.07910699704819
 30
-28.04779879474693
 41
1.0
 10
20.5
 20
-23.67592148648251
 30
-26.56401531682225
 41
0.7169054947286937
 10
20.5
 20
-25.11996840165253
 30
-25.11996840165238
 41
1.0
 10
20.5
 20
-26.56401531682254
 30
-23.6759214864825
 41
0.7169054947286937
 10
20.5
 20
-28.04779879474751
 30
-25.07910699704766
 41
1.0
  0
SPLINE
  5
B2
330
1F
100
AcDbEntity
  8
STANDARD
100
AcDbSpline
210
-1.0
220
-6.715212769004879E-13
230
-7.657232608147973E-13
 70
    12
 71
     2
 72
     6
 73
     3
 74
     0
 42
0.0000000001
 43
0.0000000001
 40
-0.724555632278597
 40
-0.724555632278597
 40
-0.724555632278597
 40
0.0
 40
0.0
 40
0.0
 10
20.5
 20
-24.53436564729498
 30
-28.52552413689929
 41
1.0
 10
20.5
 20
-24.80903631741914
 30
-28.28928410775664
 41
0.999953644943581
 10
20.5
 20
-25.07910699704819
 30
-28.04779879474693
 41
1.0
  0
SPLINE
  5
B3
330
1F
100
AcDbEntity
  8
STANDARD
100
AcDbSpline
210
-1.0
220
0.0
230
0.0
 70
    12
 71
     2
 72
     8
 73
     5
 74
     0
 42
0.0000000001
 43
0.0000000001
 40
0.0
 40
0.0
 40
0.0
 40
3.240060025561176
 40
3.240060025561176
 40
6.480120051122351
 40
6.480120051122351
 40
6.480120051122351
 10
20.5
 20
-21.20357938323496
 30
-31.08132632850234
 41
1.0
 10
20.5
 20
-20.00607092668325
 30
-29.42708436225031
 41
0.7169054947287559
 10
20.5
 20
-21.62624976553506
 30
-28.18387741384671
 41
1.0
 10
20.5
 20
-23.24642860438686
 30
-26.9406704654431
 41
0.7169054947287559
 10
20.5
 20
-24.53436564729498
 30
-28.52552413689929
 41
1.0
  0
SPLINE
  5
B4
330
1F
100
AcDbEntity
  8
STANDARD
100
AcDbSpline
210
-1.0
220
0.0
230
0.0
 70
    12
 71
     2
 72
     6
 73
     3
 74
     0
 42
0.0000000001
 43
0.0000000001
 40
-0.7245556322814172
 40
-0.7245556322814172
 40
-0.7245556322814172
 40
0.0
 40
0.0
 40
0.0
 10
20.5
 20
-20.60114270140571
 30
-31.48386165000039
 41
1.0
 10
20.5
 20
-20.90429903732364
 30
-31.28549440374159
 41
0.9999536449435805
 10
20.5
 20
-21.20357938323496
 30
-31.08132632850234
 41
1.0
  0
SPLINE
  5
B5
330
1F
100
AcDbEntity
  8
STANDARD
100
AcDbSpline
210
-1.0
220
0.0
230
0.0
 70
    12
 71
     2
 72
     8
 73
     5
 74
     0
 42
0.0000000001
 43
0.0000000001
 40
0.0
 40
0.0
 40
0.0
 40
3.240060025562448
 40
3.240060025562448
 40
6.480120051124896
 40
6.480120051124896
 40
6.480120051124896
 10
20.5
 20
-16.96525264743168
 30
-33.58304375140543
 41
1.0
 10
20.5
 20
-15.99391094659657
 30
-31.78664783550992
 41
0.7169054947285446
 10
20.5
 20
-17.76250000000103
 30
-30.7655524694421
 41
1.0
 10
20.5
 20
-19.53108905340548
 30
-29.74445710337429
 41
0.7169054947285446
 10
20.5
 20
-20.60114270140571
 30
-31.48386165000039
 41
1.0
  0
SPLINE
  5
B6
330
1F
100
AcDbEntity
  8
STANDARD
100
AcDbSpline
210
-1.0
220
0.0
230
0.0
 70
    12
 71
     2
 72
     6
 73
     3
 74
     0
 42
0.0000000001
 43
0.0000000001
 40
-0.7245556322788139
 40
-0.7245556322788139
 40
-0.7245556322788139
 40
0.0
 40
0.0
 40
0.0
 10
20.5
 20
-16.31542849218046
 30
-33.90350156129259
 41
1.0
 10
20.5
 20
-16.64188340493499
 30
-33.74640121649929
 41
0.9999536449435809
 10
20.5
 20
-16.96525264743168
 30
-33.58304375140543
 41
1.0
  0
SPLINE
  5
B7
330
1F
100
AcDbEntity
  8
STANDARD
100
AcDbSpline
210
-1.0
220
0.0
230
0.0
 70
    12
 71
     2
 72
     8
 73
     5
 74
     0
 42
0.0000000001
 43
0.0000000001
 40
0.0
 40
0.0
 40
0.0
 40
3.240060025561986
 40
3.240060025561986
 40
6.480120051123973
 40
6.480120051123973
 40
6.480120051123973
 10
20.5
 20
-12.43664573517425
 30
-35.51014598474319
 41
1.0
 10
20.5
 20
-11.70809071586483
 30
-33.60233295138161
 41
0.7169054947286236
 10
20.5
 20
-13.59482893477042
 30
-32.82082039246372
 41
1.0
 10
20.5
 20
-15.48156715367599
 30
-32.03930783354583
 41
0.7169054947286236
 10
20.5
 20
-16.31542849218046
 30
-33.90350156129259
 41
1.0
  0
SPLINE
  5
B8
330
1F
100
AcDbEntity
  8
STANDARD
100
AcDbSpline
210
-1.0
220
0.0
230
0.0
 70
    12
 71
     2
 72
     6
 73
     3
 74
     0
 42
0.0000000001
 43
0.0000000001
 40
-0.7245556322803325
 40
-0.7245556322803325
 40
-0.7245556322803325
 40
0.0
 40
0.0
 40
0.0
 10
20.5
 20
-11.75055277796143
 30
-35.74304316104505
 41
1.0
 10
20.5
 20
-12.09472053348444
 30
-35.62989774817359
 41
0.9999536449435807
 10
20.5
 20
-12.43664573517425
 30
-35.51014598474319
 41
1.0
  0
SPLINE
  5
B9
330
1F
100
AcDbEntity
  8
STANDARD
100
AcDbSpline
210
-1.0
220
0.0
230
0.0
 70
    12
 71
     2
 72
     8
 73
     5
 74
     0
 42
0.0000000001
 43
0.0000000001
 40
0.0
 40
0.0
 40
0.0
 40
3.240060025561194
 40
3.240060025561194
 40
6.480120051122388
 40
6.480120051122388
 40
6.480120051122388
 10
20.5
 20
-7.695244366298335
 30
-36.82965977500951
 41
1.0
 10
20.5
 20
-7.221941806888617
 30
-34.84307283412863
 41
0.7169054947287528
 10
20.5
 20
-9.194546577266912
 30
-34.31451497891972
 41
1.0
 10
20.5
 20
-11.1671513476452
 30
-33.78595712371082
 41
0.7169054947287528
 10
20.5
 20
-11.75055277796143
 30
-35.74304316104505
 41
1.0
  0
SPLINE
  5
BA
330
1F
100
AcDbEntity
  8
STANDARD
100
AcDbSpline
210
-1.0
220
0.0
230
0.0
 70
    12
 71
     2
 72
     6
 73
     3
 74
     0
 42
0.0000000001
 43
0.0000000001
 40
-0.7245556322803325
 40
-0.7245556322803325
 40
-0.7245556322803325
 40
0.0
 40
0.0
 40
0.0
 10
20.5
 20
-6.984621847843506
 30
-36.97101138246874
 41
1.0
 10
20.5
 20
-7.340613640416569
 30
-36.9037568509024
 41
0.9999536449435807
 10
20.5
 20
-7.695244366298335
 30
-36.82965977500951
 41
1.0
  0
SPLINE
  5
BB
330
1F
100
AcDbEntity
  8
STANDARD
100
AcDbSpline
210
-1.0
220
0.0
230
0.0
 70
    12
 71
     2
 72
     8
 73
     5
 74
     0
 42
0.0000000001
 43
0.0000000001
 40
0.0
 40
0.0
 40
0.0
 40
3.240060025561585
 40
3.240060025561585
 40
6.48012005112317
 40
6.48012005112317
 40
6.48012005112317
 10
20.5
 20
-2.822175232790256
 30
-37.51900787541462
 41
1.0
 10
20.5
 20
-2.612223471295632
 30
-35.4876380803578
 41
0.7169054947286878
 10
20.5
 20
-4.636942978617505
 30
-35.22107870030508
 41
1.0
 10
20.5
 20
-6.661662485939375
 30
-34.95451932025236
 41
0.7169054947286878
 10
20.5
 20
-6.984621847843506
 30
-36.97101138246874
 41
1.0
  0
SPLINE
  5
BC
330
1F
100
AcDbEntity
  8
STANDARD
100
AcDbSpline
210
-1.0
220
0.0
230
0.0
 70
    12
 71
     2
 72
     6
 73
     3
 74
     0
 42
0.0000000001
 43
0.0000000001
 40
-0.7245556322807662
 40
-0.7245556322807662
 40
-0.7245556322807662
 40
0.0
 40
0.0
 40
0.0
 10
20.5
 20
-2.099182101405757
 30
-37.56639534883794
 41
1.0
 10
20.5
 20
-2.460906812758364
 30
-37.54618244225789
 41
0.9999536449435806
 10
20.5
 20
-2.822175232790256
 30
-37.51900787541462
 41
1.0
  0
SPLINE
  5
BD
330
1F
100
AcDbEntity
  8
STANDARD
100
AcDbSpline
210
1.0
220
0.0
230
0.0
 70
    12
 71
     2
 72
     8
 73
     5
 74
     0
 42
0.0000000001
 43
0.0000000001
 40
0.0
 40
0.0
 40
0.0
 40
3.240060025563293
 40
3.240060025563293
 40
6.48012005112535
 40
6.48012005112535
 40
6.48012005112535
 10
20.5
 20
2.099182101405662
 30
-37.5663953488372
 41
1.0
 10
20.5
 20
2.042190732136357
 30
-35.52499999999931
 41
0.7169054947285068
 10
20.5
 20
-0.0000000000011084
 30
-35.5250000000004
 41
1.0
 10
20.5
 20
-2.042190732137482
 30
-35.52500000000148
 41
0.7169054947286146
 10
20.5
 20
-2.099182101405757
 30
-37.56639534883794
 41
0.9999999999997844
  0
SPLINE
  5
BE
330
1F
100
AcDbEntity
  8
STANDARD
100
AcDbSpline
210
-1.0
220
-6.661086162735437E-14
230
1.016285358848265E-12
 70
    12
 71
     2
 72
     6
 73
     3
 74
     0
 42
0.0000000001
 43
0.0000000001
 40
-0.7245556322825017
 40
-0.7245556322825017
 40
-0.7245556322825017
 40
0.0
 40
0.0
 40
0.0
 10
20.5
 20
2.822175232790711
 30
-37.51900787541459
 41
1.0
 10
20.5
 20
2.460906812759082
 30
-37.54618244225786
 41
0.9999536449435804
 10
20.5
 20
2.099182101405662
 30
-37.5663953488372
 41
1.0
  0
SPLINE
  5
BF
330
1F
100
AcDbEntity
  8
STANDARD
100
AcDbSpline
210
-1.0
220
0.0
230
0.0
 70
    12
 71
     2
 72
     8
 73
     5
 74
     0
 42
0.0000000001
 43
0.0000000001
 40
0.0
 40
0.0
 40
0.0
 40
3.240060025563395
 40
3.240060025563395
 40
6.480120051126789
 40
6.480120051126789
 40
6.480120051126789
 10
20.5
 20
6.984621847843266
 30
-36.9710113824687
 41
1.0
 10
20.5
 20
6.661662485940694
 30
-34.95451932025013
 41
0.7169054947283875
 10
20.5
 20
4.636942978617093
 30
-35.2210787003032
 41
1.0
 10
20.5
 20
2.612223471293491
 30
-35.48763808035628
 41
0.7169054947283875
 10
20.5
 20
2.822175232790711
 30
-37.51900787541459
 41
1.0
  0
SPLINE
  5
C0
330
1F
100
AcDbEntity
  8
STANDARD
100
AcDbSpline
210
-1.0
220
-1.986928545678744E-13
230
9.988964345711918E-13
 70
    12
 71
     2
 72
     6
 73
     3
 74
     0
 42
0.0000000001
 43
0.0000000001
 40
-0.7245556322822848
 40
-0.7245556322822848
 40
-0.7245556322822848
 40
0.0
 40
0.0
 40
0.0
 10
20.5
 20
7.69524436629866
 30
-36.82965977500929
 41
1.0
 10
20.5
 20
7.340613640416894
 30
-36.90375685090235
 41
0.9999536449435804
 10
20.5
 20
6.984621847843266
 30
-36.9710113824687
 41
1.0
  0
SPLINE
  5
C1
330
1F
100
AcDbEntity
  8
STANDARD
100
AcDbSpline
210
-1.0
220
0.0
230
0.0
 70
    12
 71
     2
 72
     8
 73
     5
 74
     0
 42
0.0000000001
 43
0.0000000001
 40
0.0
 40
0.0
 40
0.0
 40
3.2400600255632
 40
3.2400600255632
 40
6.4801200511264
 40
6.4801200511264
 40
6.4801200511264
 10
20.5
 20
11.75055277796128
 30
-35.74304316104528
 41
1.0
 10
20.5
 20
11.16715134764715
 30
-33.78595712370874
 41
0.7169054947284197
 10
20.5
 20
9.194546577266838
 30
-34.3145149789177
 41
1.0
 10
20.5
 20
7.221941806886537
 30
-34.84307283412666
 41
0.7169054947284197
 10
20.5
 20
7.69524436629866
 30
-36.82965977500929
 41
1.0
  0
SPLINE
  5
C2
330
1F
100
AcDbEntity
  8
STANDARD
100
AcDbSpline
210
-1.0
220
0.0
230
0.0
 70
    12
 71
     2
 72
     6
 73
     3
 74
     0
 42
0.0000000001
 43
0.0000000001
 40
-0.7245556322829357
 40
-0.7245556322829357
 40
-0.7245556322829357
 40
0.0
 40
0.0
 40
0.0
 10
20.5
 20
12.43664573517483
 30
-35.51014598474306
 41
0.9999999999999998
 10
20.5
 20
12.09472053348456
 30
-35.62989774817356
 41
0.9999536449435805
 10
20.5
 20
11.75055277796128
 30
-35.74304316104528
 41
1.0
  0
SPLINE
  5
C3
330
1F
100
AcDbEntity
  8
STANDARD
100
AcDbSpline
210
-1.0
220
0.0
230
0.0
 70
    12
 71
     2
 72
     8
 73
     5
 74
     0
 42
0.0000000001
 43
0.0000000001
 40
0.0
 40
0.0
 40
0.0
 40
3.240060025563614
 40
3.240060025563614
 40
6.480120051127227
 40
6.480120051127227
 40
6.480120051127227
 10
20.5
 20
16.31542849217967
 30
-33.90350156129264
 41
1.0
 10
20.5
 20
15.48156715367594
 30
-32.03930783354314
 41
0.7169054947283511
 10
20.5
 20
13.5948289347691
 30
-32.82082039246214
 41
1.0
 10
20.5
 20
11.70809071586227
 30
-33.60233295138114
 41
0.7169054947283511
 10
20.5
 20
12.43664573517483
 30
-35.51014598474306
 41
1.0
  0
SPLINE
  5
C4
330
1F
100
AcDbEntity
  8
STANDARD
100
AcDbSpline
210
-1.0
220
0.0
230
0.0
 70
    12
 71
     2
 72
     6
 73
     3
 74
     0
 42
0.0000000001
 43
0.0000000001
 40
-0.7245556322801155
 40
-0.7245556322801155
 40
-0.7245556322801155
 40
0.0
 40
0.0
 40
0.0
 10
20.5
 20
16.96525264743135
 30
-33.58304375140553
 41
1.0
 10
20.5
 20
16.64188340493367
 30
-33.74640121649995
 41
0.9999536449435807
 10
20.5
 20
16.31542849217967
 30
-33.90350156129264
 41
1.0
  0
SPLINE
  5
C5
330
1F
100
AcDbEntity
  8
STANDARD
100
AcDbSpline
210
-1.0
220
0.0
230
0.0
 70
    12
 71
     2
 72
     8
 73
     5
 74
     0
 42
0.0000000001
 43
0.0000000001
 40
0.0
 40
0.0
 40
0.0
 40
3.240060025563363
 40
3.240060025563363
 40
6.480120051126725
 40
6.480120051126725
 40
6.480120051126725
 10
20.5
 20
20.60114270140549
 30
-31.48386164999977
 41
1.0
 10
20.5
 20
19.5310890534041
 30
-29.74445710337185
 41
0.7169054947283927
 10
20.5
 20
17.76249999999929
 30
-30.76555246944083
 41
1.0
 10
20.5
 20
15.99391094659448
 30
-31.78664783550981
 41
0.7169054947283927
 10
20.5
 20
16.96525264743135
 30
-33.58304375140553
 41
1.0
  0
SPLINE
  5
C6
330
1F
100
AcDbEntity
  8
STANDARD
100
AcDbSpline
210
-1.0
220
-5.658293777240965E-13
230
8.468235073861675E-13
 70
    12
 71
     2
 72
     6
 73
     3
 74
     0
 42
0.0000000001
 43
0.0000000001
 40
-0.7245556322833695
 40
-0.7245556322833695
 40
-0.7245556322833695
 40
0.0
 40
0.0
 40
0.0
 10
20.5
 20
21.20357938323523
 30
-31.0813263285016
 41
0.9999999999999998
 10
20.5
 20
20.90429903732423
 30
-31.28549440374119
 41
0.9999536449435804
 10
20.5
 20
20.60114270140549
 30
-31.48386164999977
 41
1.0
  0
SPLINE
  5
C7
330
1F
100
AcDbEntity
  8
STANDARD
100
AcDbSpline
210
-1.0
220
0.0
230
0.0
 70
    12
 71
     2
 72
     8
 73
     5
 74
     0
 42
0.0000000001
 43
0.0000000001
 40
0.0
 40
0.0
 40
0.0
 40
3.240060025562818
 40
3.240060025562818
 40
6.480120051125636
 40
6.480120051125636
 40
6.480120051125636
 10
20.5
 20
24.53436564729441
 30
-28.52552413689995
 41
1.0
 10
20.5
 20
23.24642860438795
 30
-26.94067046544068
 41
0.7169054947284832
 10
20.5
 20
21.62624976553436
 30
-28.18387741384457
 41
1.0
 10
20.5
 20
20.00607092668076
 30
-29.42708436224846
 41
0.7169054947284832
 10
20.5
 20
21.20357938323523
 30
-31.0813263285016
 41
1.0
  0
SPLINE
  5
C8
330
1F
100
AcDbEntity
  8
STANDARD
100
AcDbSpline
210
-1.0
220
0.0
230
0.0
 70
    12
 71
     2
 72
     6
 73
     3
 74
     0
 42
0.0000000001
 43
0.0000000001
 40
-0.7245556322814172
 40
-0.7245556322814172
 40
-0.7245556322814172
 40
0.0
 40
0.0
 40
0.0
 10
20.5
 20
25.07910699704806
 30
-28.04779879474669
 41
1.0
 10
20.5
 20
24.80903631741844
 30
-28.28928410775728
 41
0.9999536449435805
 10
20.5
 20
24.53436564729441
 30
-28.52552413689995
 41
1.0
  0
SPLINE
  5
C9
330
1F
100
AcDbEntity
  8
STANDARD
100
AcDbSpline
210
-1.0
220
0.0
230
0.0
 70
    12
 71
     2
 72
     8
 73
     5
 74
     0
 42
0.0000000001
 43
0.0000000001
 40
0.0
 40
0.0
 40
0.0
 40
3.240060025562993
 40
3.240060025562993
 40
6.480120051125986
 40
6.480120051125986
 40
6.480120051125986
 10
20.5
 20
28.04779879474693
 30
-25.07910699704824
 41
1.0
 10
20.5
 20
26.56401531682259
 30
-23.6759214864802
 41
0.7169054947284541
 10
20.5
 20
25.11996840165136
 30
-25.11996840165085
 41
1.0
 10
20.5
 20
23.67592148648012
 30
-26.56401531682149
 41
0.7169054947284541
 10
20.5
 20
25.07910699704806
 30
-28.04779879474669
 41
1.0
  0
SPLINE
  5
CA
330
1F
100
AcDbEntity
  8
STANDARD
100
AcDbSpline
210
-1.0
220
0.0
230
0.0
 70
    12
 71
     2
 72
     6
 73
     3
 74
     0
 42
0.0000000001
 43
0.0000000001
 40
-0.7245556322792479
 40
-0.7245556322792479
 40
-0.7245556322792479
 40
0.0
 40
0.0
 40
0.0
 10
20.5
 20
28.52552413689934
 30
-24.53436564729489
 41
1.0
 10
20.5
 20
28.28928410775681
 30
-24.80903631741896
 41
0.9999536449435809
 10
20.5
 20
28.04779879474693
 30
-25.07910699704824
 41
1.0
  0
SPLINE
  5
CB
330
1F
100
AcDbEntity
  8
STANDARD
100
AcDbSpline
210
-1.0
220
0.0
230
0.0
 70
    12
 71
     2
 72
     8
 73
     5
 74
     0
 42
0.0000000001
 43
0.0000000001
 40
0.0
 40
0.0
 40
0.0
 40
3.240060025563236
 40
3.240060025563236
 40
6.480120051126471
 40
6.480120051126471
 40
6.480120051126471
 10
20.5
 20
31.08132632850233
 30
-21.20357938323497
 41
1.0
 10
20.5
 20
29.42708436224986
 30
-20.00607092668045
 41
0.7169054947284138
 10
20.5
 20
28.18387741384502
 30
-21.62624976553384
 41
1.0
 10
20.5
 20
26.94067046544017
 30
-23.24642860438722
 41
0.7169054947284138
 10
20.5
 20
28.52552413689934
 30
-24.53436564729489
 41
1.0
  0
SPLINE
  5
CC
330
1F
100
AcDbEntity
  8
STANDARD
100
AcDbSpline
210
-1.0
220
0.0
230
0.0
 70
    12
 71
     2
 72
     6
 73
     3
 74
     0
 42
0.0000000001
 43
0.0000000001
 40
-0.7245556322801155
 40
-0.7245556322801155
 40
-0.7245556322801155
 40
0.0
 40
0.0
 40
0.0
 10
20.5
 20
31.48386164999948
 30
-20.60114270140564
 41
1.0
 10
20.5
 20
31.28549440374123
 30
-20.90429903732418
 41
0.9999536449435807
 10
20.5
 20
31.08132632850233
 30
-21.20357938323497
 41
1.0
  0
SPLINE
  5
CD
330
1F
100
AcDbEntity
  8
STANDARD
100
AcDbSpline
210
-1.0
220
0.0
230
0.0
 70
    12
 71
     2
 72
     8
 73
     5
 74
     0
 42
0.0000000001
 43
0.0000000001
 40
0.0
 40
0.0
 40
0.0
 40
3.240060025561261
 40
3.240060025561261
 40
6.480120051122523
 40
6.480120051122523
 40
6.480120051122523
 10
20.5
 20
33.58304375140543
 30
-16.96525264743172
 41
1.0
 10
20.5
 20
31.786647835511
 30
-15.9939109465971
 41
0.7169054947287415
 10
20.5
 20
30.76555246944272
 30
-17.76249999999996
 41
1.0
 10
20.5
 20
29.74445710337444
 30
-19.53108905340281
 41
0.7169054947287415
 10
20.5
 20
31.48386164999948
 30
-20.60114270140564
 41
1.0
  0
SPLINE
  5
CE
330
1F
100
AcDbEntity
  8
STANDARD
100
AcDbSpline
210
-1.0
220
0.0
230
0.0
 70
    12
 71
     2
 72
     6
 73
     3
 74
     0
 42
0.0000000001
 43
0.0000000001
 40
-0.7245556322788139
 40
-0.7245556322788139
 40
-0.7245556322788139
 40
0.0
 40
0.0
 40
0.0
 10
20.5
 20
33.90350156129209
 30
-16.31542849218032
 41
1.0
 10
20.5
 20
33.74640121649924
 30
-16.64188340493508
 41
0.9999536449435809
 10
20.5
 20
33.58304375140543
 30
-16.96525264743172
 41
1.0
  0
SPLINE
  5
CF
330
1F
100
AcDbEntity
  8
STANDARD
100
AcDbSpline
210
-1.0
220
-1.607860748083098E-15
230
6.659977282634743E-16
 70
    12
 71
     2
 72
     8
 73
     5
 74
     0
 42
0.0000000001
 43
0.0000000001
 40
0.0
 40
0.0
 40
0.0
 40
3.240060025563104
 40
3.240060025563104
 40
6.480120051126208
 40
6.480120051126208
 40
6.480120051126208
 10
20.5
 20
35.51014598474314
 30
-12.4366457351743
 41
1.0
 10
20.5
 20
33.60233295138119
 30
-11.70809071586272
 41
0.7169054947284357
 10
20.5
 20
32.82082039246221
 30
-13.59482893476904
 41
1.0
 10
20.5
 20
32.03930783354325
 30
-15.48156715367535
 41
0.7169054947284357
 10
20.5
 20
33.90350156129209
 30
-16.31542849218032
 41
1.0
  0
SPLINE
  5
D0
330
1F
100
AcDbEntity
  8
STANDARD
100
AcDbSpline
210
-1.0
220
0.0
230
0.0
 70
    12
 71
     2
 72
     6
 73
     3
 74
     0
 42
0.0000000001
 43
0.0000000001
 40
-0.7245556322801155
 40
-0.7245556322801155
 40
-0.7245556322801155
 40
0.0
 40
0.0
 40
0.0
 10
20.5
 20
35.74304316104495
 30
-11.75055277796153
 41
1.0
 10
20.5
 20
35.62989774817351
 30
-12.09472053348466
 41
0.9999536449435807
 10
20.5
 20
35.51014598474314
 30
-12.4366457351743
 41
1.0
  0
SPLINE
  5
D1
330
1F
100
AcDbEntity
  8
STANDARD
100
AcDbSpline
210
-1.0
220
0.0
230
0.0
 70
    12
 71
     2
 72
     8
 73
     5
 74
     0
 42
0.0000000001
 43
0.0000000001
 40
0.0
 40
0.0
 40
0.0
 40
3.240060025561098
 40
3.240060025561098
 40
6.480120051122196
 40
6.480120051122196
 40
6.480120051122196
 10
20.5
 20
36.82965977500951
 30
-7.695244366298347
 41
1.0
 10
20.5
 20
34.84307283412872
 30
-7.221941806888647
 41
0.7169054947287686
 10
20.5
 20
34.31451497891975
 30
-9.194546577266832
 41
1.0
 10
20.5
 20
33.78595712371078
 30
-11.16715134764502
 41
0.7169054947287686
 10
20.5
 20
35.74304316104495
 30
-11.75055277796153
 41
1.0
  0
SPLINE
  5
D2
330
1F
100
AcDbEntity
  8
STANDARD
100
AcDbSpline
210
-1.0
220
0.0
230
0.0
 70
    12
 71
     2
 72
     6
 73
     3
 74
     0
 42
0.0000000001
 43
0.0000000001
 40
-0.7245556322803325
 40
-0.7245556322803325
 40
-0.7245556322803325
 40
0.0
 40
0.0
 40
0.0
 10
20.5
 20
36.97101138246867
 30
-6.984621847843507
 41
1.0
 10
20.5
 20
36.90375685090239
 30
-7.34061364041658
 41
0.9999536449435807
 10
20.5
 20
36.82965977500951
 30
-7.695244366298347
 41
1.0
  0
SPLINE
  5
D3
330
1F
100
AcDbEntity
  8
STANDARD
100
AcDbSpline
210
-1.0
220
0.0
230
0.0
 70
    12
 71
     2
 72
     8
 73
     5
 74
     0
 42
0.0000000001
 43
0.0000000001
 40
0.0
 40
0.0
 40
0.0
 40
3.240060025561504
 40
3.240060025561504
 40
6.480120051123007
 40
6.480120051123007
 40
6.480120051123007
 10
20.5
 20
37.51900787541462
 30
-2.822175232790258
 41
1.0
 10
20.5
 20
35.48763808035788
 30
-2.612223471295644
 41
0.7169054947287038
 10
20.5
 20
35.22107870030509
 30
-4.636942978617419
 41
1.0
 10
20.5
 20
34.95451932025227
 30
-6.661662485939193
 41
0.7169054947287038
 10
20.5
 20
36.97101138246867
 30
-6.984621847843507
 41
1.0
  0
SPLINE
  5
D4
330
1F
100
AcDbEntity
  8
STANDARD
100
AcDbSpline
210
-1.0
220
0.0
230
0.0
 70
    12
 71
     2
 72
     6
 73
     3
 74
     0
 42
0.0000000001
 43
0.0000000001
 40
-0.7245556322812002
 40
-0.7245556322812002
 40
-0.7245556322812002
 40
0.0
 40
0.0
 40
0.0
 10
20.5
 20
37.56639534883721
 30
-2.099182101405564
 41
1.0
 10
20.5
 20
37.5461824422579
 30
-2.460906812758147
 41
0.9999536449435806
 10
20.5
 20
37.51900787541462
 30
-2.822175232790258
 41
1.0
  0
SPLINE
  5
D5
330
1F
100
AcDbEntity
  8
STANDARD
100
AcDbSpline
210
1.0
220
0.0
230
0.0
 70
    12
 71
     2
 72
     8
 73
     5
 74
     0
 42
0.0000000001
 43
0.0000000001
 40
-6.480120051122944
 40
-6.480120051122944
 40
-6.480120051122944
 40
-3.240060025561472
 40
-3.240060025561472
 40
0.0
 40
0.0
 40
0.0
 10
20.5
 20
37.56639534883721
 30
2.099182101405709
 41
1.0
 10
20.5
 20
35.52500000000052
 30
2.042190732136317
 41
0.7169054947287066
 10
20.5
 20
35.5250000000005
 30
0.0000000000000252
 41
1.0
 10
20.5
 20
35.5250000000005
 30
-2.042190732136266
 41
0.7169054947287066
 10
20.5
 20
37.56639534883721
 30
-2.099182101405564
 41
1.0
  0
SPLINE
  5
D6
330
1F
100
AcDbEntity
  8
STANDARD
100
AcDbSpline
210
-1.0
220
-1.016285358851225E-12
230
-6.661086162753242E-14
 70
    12
 71
     2
 72
     6
 73
     3
 74
     0
 42
0.0000000001
 43
0.0000000001
 40
-0.7245556322825017
 40
-0.7245556322825017
 40
-0.7245556322825017
 40
0.0
 40
0.0
 40
0.0
 10
20.5
 20
37.5190078754146
 30
2.822175232790823
 41
1.0
 10
20.5
 20
37.54618244225786
 30
2.460906812759168
 41
0.9999536449435804
 10
20.5
 20
37.56639534883721
 30
2.099182101405709
 41
1.0
  0
SPLINE
  5
D7
330
1F
100
AcDbEntity
  8
STANDARD
100
AcDbSpline
210
-1.0
220
0.0
230
0.0
 70
    12
 71
     2
 72
     8
 73
     5
 74
     0
 42
0.0000000001
 43
0.0000000001
 40
0.0
 40
0.0
 40
0.0
 40
3.24006002556152
 40
3.24006002556152
 40
6.48012005112304
 40
6.48012005112304
 40
6.48012005112304
 10
20.5
 20
36.9710113824687
 30
6.984621847843301
 41
1.0
 10
20.5
 20
34.95451932025222
 30
6.661662485939159
 41
0.7169054947286986
 10
20.5
 20
35.22107870030511
 30
4.636942978617372
 41
1.0
 10
20.5
 20
35.48763808035797
 30
2.612223471295585
 41
0.7169054947286986
 10
20.5
 20
37.5190078754146
 30
2.822175232790823
 41
1.0
  0
SPLINE
  5
D8
330
1F
100
AcDbEntity
  8
STANDARD
100
AcDbSpline
210
-1.0
220
0.0
230
0.0
 70
    12
 71
     2
 72
     6
 73
     3
 74
     0
 42
0.0000000001
 43
0.0000000001
 40
-0.7245556322814172
 40
-0.7245556322814172
 40
-0.7245556322814172
 40
0.0
 40
0.0
 40
0.0
 10
20.5
 20
36.82965977500948
 30
7.6952443662985
 41
1.0
 10
20.5
 20
36.90375685090241
 30
7.340613640416526
 41
0.9999536449435805
 10
20.5
 20
36.9710113824687
 30
6.984621847843301
 41
1.0
  0
SPLINE
  5
D9
330
1F
100
AcDbEntity
  8
STANDARD
100
AcDbSpline
210
-1.0
220
0.0
230
0.0
 70
    12
 71
     2
 72
     8
 73
     5
 74
     0
 42
0.0000000001
 43
0.0000000001
 40
0.0
 40
0.0
 40
0.0
 40
3.240060025561472
 40
3.240060025561472
 40
6.480120051122944
 40
6.480120051122944
 40
6.480120051122944
 10
20.5
 20
35.74304316104529
 30
11.75055277796133
 41
1.0
 10
20.5
 20
33.78595712371092
 30
11.16715134764581
 41
0.7169054947287066
 10
20.5
 20
34.31451497891966
 30
9.194546577267184
 41
1.0
 10
20.5
 20
34.8430728341284
 30
7.221941806888563
 41
0.7169054947287066
 10
20.5
 20
36.82965977500948
 30
7.6952443662985
 41
1.0
  0
SPLINE
  5
DA
330
1F
100
AcDbEntity
  8
STANDARD
100
AcDbSpline
210
-1.0
220
0.0
230
0.0
 70
    12
 71
     2
 72
     6
 73
     3
 74
     0
 42
0.0000000001
 43
0.0000000001
 40
-0.7245556322807662
 40
-0.7245556322807662
 40
-0.7245556322807662
 40
0.0
 40
0.0
 40
0.0
 10
20.5
 20
35.51014598474336
 30
12.43664573517427
 41
1.0
 10
20.5
 20
35.6298977481737
 30
12.09472053348412
 41
0.9999536449435806
 10
20.5
 20
35.74304316104529
 30
11.75055277796133
 41
1.0
  0
SPLINE
  5
DB
330
1F
100
AcDbEntity
  8
STANDARD
100
AcDbSpline
210
-1.0
220
0.0
230
0.0
 70
    12
 71
     2
 72
     8
 73
     5
 74
     0
 42
0.0000000001
 43
0.0000000001
 40
0.0
 40
0.0
 40
0.0
 40
3.240060025561727
 40
3.240060025561727
 40
6.480120051123454
 40
6.480120051123454
 40
6.480120051123454
 10
20.5
 20
33.9035015612926
 30
16.31542849217967
 41
1.0
 10
20.5
 20
32.03930783354556
 30
15.48156715367482
 41
0.7169054947286643
 10
20.5
 20
32.82082039246401
 30
13.59482893476974
 41
1.0
 10
20.5
 20
33.60233295138246
 30
11.70809071586466
 41
0.7169054947286643
 10
20.5
 20
35.51014598474336
 30
12.43664573517427
 41
1.0
  0
SPLINE
  5
DC
330
1F
100
AcDbEntity
  8
STANDARD
100
AcDbSpline
210
-1.0
220
-9.134343689962552E-13
230
-4.504559810511058E-13
 70
    12
 71
     2
 72
     6
 73
     3
 74
     0
 42
0.0000000001
 43
0.0000000001
 40
-0.7245556322829357
 40
-0.7245556322829357
 40
-0.7245556322829357
 40
0.0
 40
0.0
 40
0.0
 10
20.5
 20
33.58304375140467
 30
16.96525264743203
 41
0.9999999999999998
 10
20.5
 20
33.74640121649956
 30
16.6418834049345
 41
0.9999536449435805
 10
20.5
 20
33.9035015612926
 30
16.31542849217967
 41
1.0
  0
SPLINE
  5
DD
330
1F
100
AcDbEntity
  8
STANDARD
100
AcDbSpline
210
-1.0
220
0.0
230
0.0
 70
    12
 71
     2
 72
     8
 73
     5
 74
     0
 42
0.0000000001
 43
0.0000000001
 40
0.0
 40
0.0
 40
0.0
 40
3.240060025560752
 40
3.240060025560752
 40
6.480120051121504
 40
6.480120051121504
 40
6.480120051121504
 10
20.5
 20
31.48386164999978
 30
20.60114270140551
 41
1.0
 10
20.5
 20
29.74445710337506
 30
19.53108905340385
 41
0.7169054947288287
 10
20.5
 20
30.76555246944216
 30
17.76250000000089
 41
1.0
 10
20.5
 20
31.78664783550927
 30
15.99391094659794
 41
0.7169054947288287
 10
20.5
 20
33.58304375140467
 30
16.96525264743203
 41
1.0
  0
SPLINE
  5
DE
330
1F
100
AcDbEntity
  8
STANDARD
100
AcDbSpline
210
-1.0
220
0.0
230
0.0
 70
    12
 71
     2
 72
     6
 73
     3
 74
     0
 42
0.0000000001
 43
0.0000000001
 40
-0.7245556322807662
 40
-0.7245556322807662
 40
-0.7245556322807662
 40
0.0
 40
0.0
 40
0.0
 10
20.5
 20
31.08132632850248
 30
21.20357938323496
 41
1.0
 10
20.5
 20
31.28549440374149
 30
20.90429903732377
 41
0.9999536449435806
 10
20.5
 20
31.48386164999978
 30
20.60114270140551
 41
1.0
  0
SPLINE
  5
DF
330
1F
100
AcDbEntity
  8
STANDARD
100
AcDbSpline
210
-1.0
220
0.0
230
0.0
 70
    12
 71
     2
 72
     8
 73
     5
 74
     0
 42
0.0000000001
 43
0.0000000001
 40
0.0
 40
0.0
 40
0.0
 40
3.240060025561644
 40
3.240060025561644
 40
6.480120051123287
 40
6.480120051123287
 40
6.480120051123287
 10
20.5
 20
28.52552413689988
 30
24.53436564729444
 41
1.0
 10
20.5
 20
26.94067046544273
 30
23.24642860438712
 41
0.7169054947286781
 10
20.5
 20
28.18387741384661
 30
21.62624976553495
 41
1.0
 10
20.5
 20
29.42708436225049
 30
20.00607092668279
 41
0.7169054947286781
 10
20.5
 20
31.08132632850248
 30
21.20357938323496
 41
1.0
  0
SPLINE
  5
E0
330
1F
100
AcDbEntity
  8
STANDARD
100
AcDbSpline
210
-1.0
220
7.657232608780602E-13
230
6.715212769552131E-13
 70
    12
 71
     2
 72
     6
 73
     3
 74
     0
 42
0.0000000001
 43
0.0000000001
 40
-0.724555632278597
 40
-0.724555632278597
 40
-0.724555632278597
 40
0.0
 40
0.0
 40
0.0
 10
20.5
 20
28.04779879474778
 30
25.07910699704796
 41
1.0
 10
20.5
 20
28.28928410775816
 30
24.80903631741741
 41
0.999953644943581
 10
20.5
 20
28.52552413689988
 30
24.53436564729444
 41
1.0
  0
SPLINE
  5
E1
330
1F
100
AcDbEntity
  8
STANDARD
100
AcDbSpline
210
1.0
220
0.0
230
0.0
 70
    12
 71
     2
 72
     8
 73
     5
 74
     0
 42
0.0000000001
 43
0.0000000001
 40
0.0
 40
0.0
 40
0.0
 40
3.240060025562224
 40
3.240060025562224
 40
6.480120051124448
 40
6.480120051124448
 40
6.480120051124448
 10
20.5
 20
25.07910699704816
 30
28.04779879474696
 41
1.0
 10
20.5
 20
23.67592148648196
 30
26.56401531682187
 41
0.7169054947285818
 10
20.5
 20
25.11996840165285
 30
25.11996840165195
 41
1.0
 10
20.5
 20
26.56401531682375
 30
23.67592148648203
 41
0.7169054947285818
 10
20.5
 20
28.04779879474778
 30
25.07910699704796
 41
1.0
  0
SPLINE
  5
E2
330
1F
100
AcDbEntity
  8
STANDARD
100
AcDbSpline
210
1.0
220
-6.715212769101077E-13
230
-7.657232608255670E-13
 70
    12
 71
     2
 72
     6
 73
     3
 74
     0
 42
0.0000000001
 43
0.0000000001
 40
-0.724555632278597
 40
-0.724555632278597
 40
-0.724555632278597
 40
0.0
 40
0.0
 40
0.0
 10
20.5
 20
24.53436564729503
 30
28.52552413689937
 41
1.0
 10
20.5
 20
24.80903631741914
 30
28.28928410775664
 41
0.999953644943581
 10
20.5
 20
25.07910699704816
 30
28.04779879474696
 41
1.0
  0
SPLINE
  5
E3
330
1F
100
AcDbEntity
  8
STANDARD
100
AcDbSpline
210
1.0
220
0.0
230
0.0
 70
    12
 71
     2
 72
     8
 73
     5
 74
     0
 42
0.0000000001
 43
0.0000000001
 40
0.0
 40
0.0
 40
0.0
 40
3.240060025561466
 40
3.240060025561466
 40
6.480120051122932
 40
6.480120051122932
 40
6.480120051122932
 10
20.5
 20
21.20357938323495
 30
31.08132632850235
 41
1.0
 10
20.5
 20
20.00607092668296
 30
29.42708436225018
 41
0.7169054947287076
 10
20.5
 20
21.62624976553507
 30
28.18387741384652
 41
1.0
 10
20.5
 20
23.24642860438719
 30
26.94067046544285
 41
0.7169054947287076
 10
20.5
 20
24.53436564729503
 30
28.52552413689937
 41
1.0
  0
SPLINE
  5
E4
330
1F
100
AcDbEntity
  8
STANDARD
100
AcDbSpline
210
1.0
220
0.0
230
0.0
 70
    12
 71
     2
 72
     6
 73
     3
 74
     0
 42
0.0000000001
 43
0.0000000001
 40
-0.7245556322814172
 40
-0.7245556322814172
 40
-0.7245556322814172
 40
0.0
 40
0.0
 40
0.0
 10
20.5
 20
20.60114270140586
 30
31.48386165000067
 41
1.0
 10
20.5
 20
20.90429903732364
 30
31.28549440374159
 41
0.9999536449435805
 10
20.5
 20
21.20357938323495
 30
31.08132632850235
 41
1.0
  0
SPLINE
  5
E5
330
1F
100
AcDbEntity
  8
STANDARD
100
AcDbSpline
210
1.0
220
0.0
230
0.0
 70
    12
 71
     2
 72
     8
 73
     5
 74
     0
 42
0.0000000001
 43
0.0000000001
 40
0.0
 40
0.0
 40
0.0
 40
3.240060025563601
 40
3.240060025563601
 40
6.48012005112566
 40
6.48012005112566
 40
6.48012005112566
 10
20.5
 20
16.96525264743165
 30
33.58304375140544
 41
1.0
 10
20.5
 20
15.99391094659643
 30
31.78664783550957
 41
0.7169054947284811
 10
20.5
 20
17.76250000000143
 30
30.76555246944197
 41
1.0
 10
20.5
 20
19.53108905340527
 30
29.74445710337503
 41
0.7169054947286158
 10
20.5
 20
20.60114270140586
 30
31.48386165000067
 41
0.9999999999997307
  0
SPLINE
  5
E6
330
1F
100
AcDbEntity
  8
STANDARD
100
AcDbSpline
210
1.0
220
0.0
230
0.0
 70
    12
 71
     2
 72
     6
 73
     3
 74
     0
 42
0.0000000001
 43
0.0000000001
 40
-0.7245556322814172
 40
-0.7245556322814172
 40
-0.7245556322814172
 40
0.0
 40
0.0
 40
0.0
 10
20.5
 20
16.31542849217944
 30
33.90350156129244
 41
1.0
 10
20.5
 20
16.64188340493384
 30
33.74640121649987
 41
0.9999536449435805
 10
20.5
 20
16.96525264743165
 30
33.58304375140544
 41
1.0
  0
SPLINE
  5
E7
330
1F
100
AcDbEntity
  8
STANDARD
100
AcDbSpline
210
1.0
220
0.0
230
0.0
 70
    12
 71
     2
 72
     8
 73
     5
 74
     0
 42
0.0000000001
 43
0.0000000001
 40
0.0
 40
0.0
 40
0.0
 40
3.240060025561126
 40
3.240060025561126
 40
6.480120051122252
 40
6.480120051122252
 40
6.480120051122252
 10
20.5
 20
12.43664573517426
 30
35.51014598474319
 41
1.0
 10
20.5
 20
11.70809071586513
 30
33.60233295138238
 41
0.7169054947287665
 10
20.5
 20
13.59482893476962
 30
32.82082039246404
 41
1.0
 10
20.5
 20
15.48156715367411
 30
32.03930783354571
 41
0.7169054947287665
 10
20.5
 20
16.31542849217944
 30
33.90350156129244
 41
1.0
  0
SPLINE
  5
E8
330
1F
100
AcDbEntity
  8
STANDARD
100
AcDbSpline
210
1.0
220
0.0
230
0.0
 70
    12
 71
     2
 72
     6
 73
     3
 74
     0
 42
0.0000000001
 43
0.0000000001
 40
-0.7245556322803325
 40
-0.7245556322803325
 40
-0.7245556322803325
 40
0.0
 40
0.0
 40
0.0
 10
20.5
 20
11.75055277796143
 30
35.74304316104505
 41
1.0
 10
20.5
 20
12.09472053348444
 30
35.62989774817359
 41
0.9999536449435807
 10
20.5
 20
12.43664573517426
 30
35.51014598474319
 41
1.0
  0
SPLINE
  5
E9
330
1F
100
AcDbEntity
  8
STANDARD
100
AcDbSpline
210
1.0
220
0.0
230
0.0
 70
    12
 71
     2
 72
     8
 73
     5
 74
     0
 42
0.0000000001
 43
0.0000000001
 40
0.0
 40
0.0
 40
0.0
 40
3.24006002556119
 40
3.24006002556119
 40
6.48012005112238
 40
6.48012005112238
 40
6.48012005112238
 10
20.5
 20
7.695244366298335
 30
36.82965977500951
 41
1.0
 10
20.5
 20
7.221941806888616
 30
34.84307283412863
 41
0.7169054947287534
 10
20.5
 20
9.194546577266912
 30
34.31451497891972
 41
1.0
 10
20.5
 20
11.16715134764521
 30
33.78595712371082
 41
0.7169054947287534
 10
20.5
 20
11.75055277796143
 30
35.74304316104505
 41
1.0
  0
SPLINE
  5
EA
330
1F
100
AcDbEntity
  8
STANDARD
100
AcDbSpline
210
1.0
220
0.0
230
0.0
 70
    12
 71
     2
 72
     6
 73
     3
 74
     0
 42
0.0000000001
 43
0.0000000001
 40
-0.7245556322807662
 40
-0.7245556322807662
 40
-0.7245556322807662
 40
0.0
 40
0.0
 40
0.0
 10
20.5
 20
6.984621847843332
 30
36.97101138246864
 41
1.0
 10
20.5
 20
7.340613640416349
 30
36.90375685090245
 41
0.9999536449435806
 10
20.5
 20
7.695244366298335
 30
36.82965977500951
 41
1.0
  0
SPLINE
  5
EB
330
1F
100
AcDbEntity
  8
STANDARD
100
AcDbSpline
210
1.0
220
0.0
230
0.0
 70
    12
 71
     2
 72
     8
 73
     5
 74
     0
 42
0.0000000001
 43
0.0000000001
 40
0.0
 40
0.0
 40
0.0
 40
3.240060025561401
 40
3.240060025561401
 40
6.480120051122802
 40
6.480120051122802
 40
6.480120051122802
 10
20.5
 20
2.822175232790254
 30
37.51900787541462
 41
1.0
 10
20.5
 20
2.61222347129565
 30
35.48763808035798
 41
0.7169054947287183
 10
20.5
 20
4.63694297861732
 30
35.22107870030511
 41
1.0
 10
20.5
 20
6.661662485938993
 30
34.95451932025224
 41
0.7169054947287183
 10
20.5
 20
6.984621847843332
 30
36.97101138246864
 41
1.0
  0
SPLINE
  5
EC
330
1F
100
AcDbEntity
  8
STANDARD
100
AcDbSpline
210
1.0
220
0.0
230
0.0
 70
    12
 71
     2
 72
     6
 73
     3
 74
     0
 42
0.0000000001
 43
0.0000000001
 40
-0.7245556322812002
 40
-0.7245556322812002
 40
-0.7245556322812002
 40
0.0
 40
0.0
 40
0.0
 10
20.5
 20
2.099182101405561
 30
37.56639534883713
 41
1.0
 10
20.5
 20
2.460906812758136
 30
37.5461824422579
 41
0.9999536449435806
 10
20.5
 20
2.822175232790254
 30
37.51900787541462
 41
1.0
  0
LINE
  5
ED
330
1F
100
AcDbEntity
  8
STANDARD
100
AcDbLine
 10
0.0
 20
-2.822175232790715
 30
37.51900787541437
 11
20.5
 21
-2.822175232790703
 31
37.51900787541438
  0
LINE
  5
EE
330
1F
100
AcDbEntity
  8
STANDARD
100
AcDbLine
 10
0.0000000000000003
 20
35.74304316104499
 30
-11.75055277796146
 11
20.5
 21
35.74304316104495
 31
-11.75055277796153
  0
LINE
  5
EF
330
1F
100
AcDbEntity
  8
STANDARD
100
AcDbLine
 10
20.5
 20
35.51014598474314
 30
-12.4366457351743
 11
0.0000000000000001
 21
35.51014598474319
 31
-12.4366457351742
  0
LINE
  5
F0
330
1F
100
AcDbEntity
  8
STANDARD
100
AcDbLine
 10
0.0000000000000001
 20
33.90350156129207
 30
-16.31542849218035
 11
20.5
 21
33.90350156129209
 31
-16.31542849218032
  0
LINE
  5
F1
330
1F
100
AcDbEntity
  8
STANDARD
100
AcDbLine
 10
20.5
 20
33.58304375140543
 30
-16.96525264743172
 11
0.0
 21
33.58304375140548
 31
-16.96525264743167
  0
LINE
  5
F2
330
1F
100
AcDbEntity
  8
STANDARD
100
AcDbLine
 10
0.0
 20
36.97101138246866
 30
-6.984621847843544
 11
20.5
 21
36.97101138246867
 31
-6.984621847843507
  0
LINE
  5
F3
330
1F
100
AcDbEntity
  8
STANDARD
100
AcDbLine
 10
20.5
 20
36.82965977500951
 30
-7.695244366298347
 11
0.0
 21
36.82965977500951
 31
-7.695244366298295
  0
LINE
  5
F4
330
1F
100
AcDbEntity
  8
STANDARD
100
AcDbLine
 10
0.0000000000000003
 20
37.56639534883726
 30
-2.099182101405463
 11
20.5
 21
37.56639534883721
 31
-2.099182101405564
  0
LINE
  5
F5
330
1F
100
AcDbEntity
  8
STANDARD
100
AcDbLine
 10
20.5
 20
37.51900787541462
 30
-2.822175232790258
 11
0.0
 21
37.51900787541462
 31
-2.822175232790207
  0
LINE
  5
F6
330
1F
100
AcDbEntity
  8
STANDARD
100
AcDbLine
 10
0.0
 20
37.5190078754146
 30
2.822175232790823
 11
20.5
 21
37.5190078754146
 31
2.822175232790823
  0
SPLINE
  5
F7
330
1F
100
AcDbEntity
  8
STANDARD
100
AcDbSpline
210
1.0
220
0.0
230
0.0
 70
    12
 71
     2
 72
     8
 73
     5
 74
     0
 42
0.0000000001
 43
0.0000000001
 40
12.56637061435917
 40
12.56637061435917
 40
12.56637061435917
 40
18.84955592153876
 40
18.84955592153876
 40
25.13274122871834
 40
25.13274122871834
 40
25.13274122871834
 10
30.0
 20
0.0
 30
4.0
 41
1.0
 10
30.0
 20
-3.999999999999999
 30
4.0
 41
0.7071067811865476
 10
30.0
 20
-4.0
 30
0.0000000000000007
 41
1.0
 10
30.0
 20
-3.999999999999999
 30
-3.999999999999999
 41
0.7071067811865476
 10
30.0
 20
-0.0000000000000004
 30
-4.0
 41
1.0
  0
SPLINE
  5
F8
330
1F
100
AcDbEntity
  8
STANDARD
100
AcDbSpline
210
-1.0
220
0.0
230
0.0
 70
    12
 71
     2
 72
     8
 73
     5
 74
     0
 42
0.0000000001
 43
0.0000000001
 40
-59.69026041820607
 40
-59.69026041820607
 40
-59.69026041820607
 40
-29.84513020910303
 40
-29.84513020910303
 40
0.0
 40
0.0
 40
0.0
 10
30.0
 20
0.0000000000000036
 30
19.0
 41
1.0
 10
30.0
 20
19.0
 30
19.0
 41
0.7071067811865476
 10
30.0
 20
19.0
 30
-0.0000000000000012
 41
1.0
 10
30.0
 20
19.0
 30
-19.0
 41
0.7071067811865476
 10
30.0
 20
0.0000000000000017
 30
-19.0
 41
1.0
  0
LINE
  5
F9
330
1F
100
AcDbEntity
  8
STANDARD
100
AcDbLine
 10
0.0
 20
2.099182101405453
 30
37.56639534883715
 11
20.5
 21
2.099182101405561
 31
37.56639534883713
  0
LINE
  5
FA
330
1F
100
AcDbEntity
  8
STANDARD
100
AcDbLine
 10
20.5
 20
2.822175232790254
 30
37.51900787541462
 11
0.0
 21
2.822175232790203
 31
37.51900787541462
  0
LINE
  5
FB
330
1F
100
AcDbEntity
  8
STANDARD
100
AcDbLine
 10
0.0
 20
-7.695244366298235
 30
36.8296597750097
 11
20.5
 21
-7.695244366298277
 31
36.82965977500968
  0
LINE
  5
FC
330
1F
100
AcDbEntity
  8
STANDARD
100
AcDbLine
 10
20.5
 20
-6.9846218478433
 30
36.9710113824687
 11
0.0
 21
-6.984621847843343
 31
36.9710113824687
  0
ARC
  5
FD
330
1F
100
AcDbEntity
  8
STANDARD
100
AcDbCircle
 10
0.0
 20
0.0
 30
30.0
 40
19.0
210
1.0
220
0.0
230
0.0
100
AcDbArc
 50
180.0
 51
270.0
  0
ARC
  5
FE
330
1F
100
AcDbEntity
  8
STANDARD
100
AcDbCircle
 10
0.0000000000000036
 20
-0.0000000000000036
 30
30.0
 40
19.0
210
1.0
220
0.0
230
0.0
100
AcDbArc
 50
90.00000000000001
 51
180.0
  0
ARC
  5
FF
330
1F
100
AcDbEntity
  8
STANDARD
100
AcDbCircle
 10
-0.0000000000000036
 20
0.0
 30
20.5
 40
19.0
210
1.0
220
0.0
230
0.0
100
AcDbArc
 50
180.0
 51
270.0
  0
LINE
  5
100
330
1F
100
AcDbEntity
  8
STANDARD
100
AcDbLine
 10
30.0
 20
-19.0
 30
-0.0000000000000047
 11
20.5
 21
-19.0
 31
0.0
  0
ARC
  5
101
330
1F
100
AcDbEntity
  8
STANDARD
100
AcDbCircle
 10
-0.0000000000000018
 20
0.0000000000000018
 30
20.5
 40
19.0
210
1.0
220
0.0
230
0.0
100
AcDbArc
 50
90.0
 51
180.0
  0
LINE
  5
102
330
1F
100
AcDbEntity
  8
STANDARD
100
AcDbLine
 10
0.0
 20
-12.43664573517484
 30
35.51014598474296
 11
20.5
 21
-12.43664573517481
 31
35.51014598474297
  0
LINE
  5
103
330
1F
100
AcDbEntity
  8
STANDARD
100
AcDbLine
 10
20.5
 20
-11.75055277796132
 30
35.74304316104529
 11
0.0
 21
-11.75055277796137
 31
35.74304316104529
  0
LINE
  5
104
330
1F
100
AcDbEntity
  8
STANDARD
100
AcDbLine
 10
0.0
 20
-21.2035793832356
 30
31.08132632850225
 11
20.5
 21
-21.20357938323556
 31
31.08132632850226
  0
LINE
  5
105
330
1F
100
AcDbEntity
  8
STANDARD
100
AcDbLine
 10
20.5
 20
-16.31542849217973
 30
33.90350156129259
 11
0.0
 21
-16.31542849217973
 31
33.90350156129259
  0
LINE
  5
106
330
1F
100
AcDbEntity
  8
STANDARD
100
AcDbLine
 10
20.5
 20
-20.60114270140554
 30
31.48386164999977
 11
0.0
 21
-20.60114270140558
 31
31.48386164999972
  0
LINE
  5
107
330
1F
100
AcDbEntity
  8
STANDARD
100
AcDbLine
 10
0.0000000000000003
 20
-16.9652526474318
 30
33.58304375140575
 11
20.5
 21
-16.9652526474318
 31
33.58304375140575
  0
LINE
  5
108
330
1F
100
AcDbEntity
  8
STANDARD
100
AcDbLine
 10
0.0000000000000003
 20
28.52552413689928
 30
-24.53436564729497
 11
20.5
 21
28.52552413689934
 31
-24.53436564729489
  0
LINE
  5
109
330
1F
100
AcDbEntity
  8
STANDARD
100
AcDbLine
 10
20.5
 20
28.04779879474693
 30
-25.07910699704824
 11
0.0
 21
28.04779879474697
 31
-25.07910699704819
  0
LINE
  5
10A
330
1F
100
AcDbEntity
  8
STANDARD
100
AcDbLine
 10
20.5
 20
24.53436564729441
 30
-28.52552413689995
 11
0.0
 21
24.53436564729446
 31
-28.5255241368999
  0
LINE
  5
10B
330
1F
100
AcDbEntity
  8
STANDARD
100
AcDbLine
 10
0.0
 20
31.48386164999954
 30
-20.60114270140553
 11
20.5
 21
31.48386164999948
 31
-20.60114270140564
  0
LINE
  5
10C
330
1F
100
AcDbEntity
  8
STANDARD
100
AcDbLine
 10
20.5
 20
31.08132632850233
 30
-21.20357938323497
 11
0.0
 21
31.08132632850238
 31
-21.20357938323492
  0
LINE
  5
10D
330
1F
100
AcDbEntity
  8
STANDARD
100
AcDbLine
 10
0.0
 20
21.20357938323516
 30
-31.08132632850166
 11
20.5
 21
21.20357938323523
 31
-31.0813263285016
  0
LINE
  5
10E
330
1F
100
AcDbEntity
  8
STANDARD
100
AcDbLine
 10
20.5
 20
20.60114270140549
 30
-31.48386164999977
 11
0.0
 21
20.60114270140554
 31
-31.48386164999972
  0
LINE
  5
10F
330
1F
100
AcDbEntity
  8
STANDARD
100
AcDbLine
 10
0.0
 20
6.984621847843447
 30
36.97101138246862
 11
20.5
 21
6.984621847843332
 31
36.97101138246864
  0
LINE
  5
110
330
1F
100
AcDbEntity
  8
STANDARD
100
AcDbLine
 10
20.5
 20
7.695244366298335
 30
36.82965977500951
 11
0.0
 21
7.695244366298287
 31
36.82965977500951
  0
LINE
  5
111
330
1F
100
AcDbEntity
  8
STANDARD
100
AcDbLine
 10
20.5
 20
-2.099182101405666
 30
37.5663953488372
 11
0.0
 21
-2.099182101405683
 31
37.5663953488372
  0
LINE
  5
112
330
1F
100
AcDbEntity
  8
STANDARD
100
AcDbLine
 10
0.0
 20
11.75055277796147
 30
35.74304316104504
 11
20.5
 21
11.75055277796143
 31
35.74304316104505
  0
LINE
  5
113
330
1F
100
AcDbEntity
  8
STANDARD
100
AcDbLine
 10
20.5
 20
12.43664573517426
 30
35.51014598474319
 11
0.0000000000000003
 21
12.43664573517421
 31
35.51014598474319
  0
LINE
  5
114
330
1F
100
AcDbEntity
  8
STANDARD
100
AcDbLine
 10
20.5
 20
16.96525264743165
 30
33.58304375140544
 11
0.0000000000000003
 21
16.96525264743165
 31
33.58304375140549
  0
LINE
  5
115
330
1F
100
AcDbEntity
  8
STANDARD
100
AcDbLine
 10
20.5
 20
21.20357938323495
 30
31.08132632850235
 11
0.0
 21
21.2035793832349
 31
31.08132632850239
  0
LINE
  5
116
330
1F
100
AcDbEntity
  8
STANDARD
100
AcDbLine
 10
0.0000000000000003
 20
25.07910699704831
 30
-28.04779879474647
 11
20.5
 21
25.07910699704806
 31
-28.04779879474669
  0
LINE
  5
117
330
1F
100
AcDbEntity
  8
STANDARD
100
AcDbLine
 10
0.0000000000000003
 20
16.96525264743138
 30
-33.58304375140551
 11
20.5
 21
16.96525264743135
 31
-33.58304375140553
  0
LINE
  5
118
330
1F
100
AcDbEntity
  8
STANDARD
100
AcDbLine
 10
20.5
 20
16.31542849217967
 30
-33.90350156129264
 11
0.0000000000000001
 21
16.31542849217972
 31
-33.90350156129259
  0
LINE
  5
119
330
1F
100
AcDbEntity
  8
STANDARD
100
AcDbLine
 10
0.0000000000000003
 20
12.43664573517468
 30
-35.51014598474311
 11
20.5
 21
12.43664573517483
 31
-35.51014598474306
  0
LINE
  5
11A
330
1F
100
AcDbEntity
  8
STANDARD
100
AcDbLine
 10
20.5
 20
11.75055277796128
 30
-35.74304316104528
 11
0.0
 21
11.75055277796137
 31
-35.74304316104529
  0
LINE
  5
11B
330
1F
100
AcDbEntity
  8
STANDARD
100
AcDbLine
 10
0.0
 20
7.695244366298716
 30
-36.82965977500928
 11
20.5
 21
7.69524436629866
 31
-36.82965977500929
  0
LINE
  5
11C
330
1F
100
AcDbEntity
  8
STANDARD
100
AcDbLine
 10
20.5
 20
6.984621847843266
 30
-36.9710113824687
 11
0.0
 21
6.984621847843337
 31
-36.9710113824687
  0
LINE
  5
11D
330
1F
100
AcDbEntity
  8
STANDARD
100
AcDbLine
 10
0.0
 20
2.822175232790888
 30
-37.51900787541457
 11
20.5
 21
2.822175232790711
 31
-37.51900787541459
  0
LINE
  5
11E
330
1F
100
AcDbEntity
  8
STANDARD
100
AcDbLine
 10
20.5
 20
2.099182101405662
 30
-37.5663953488372
 11
0.0
 21
2.09918210140571
 31
-37.5663953488372
  0
LINE
  5
11F
330
1F
100
AcDbEntity
  8
STANDARD
100
AcDbLine
 10
0.0
 20
-2.09918210140558
 30
-37.56639534883796
 11
20.5
 21
-2.099182101405757
 31
-37.56639534883794
  0
LINE
  5
120
330
1F
100
AcDbEntity
  8
STANDARD
100
AcDbLine
 10
20.5
 20
-2.822175232790256
 30
-37.51900787541462
 11
0.0
 21
-2.822175232790205
 31
-37.51900787541462
  0
LINE
  5
121
330
1F
100
AcDbEntity
  8
STANDARD
100
AcDbLine
 10
0.0
 20
-6.984621847843549
 30
-36.97101138246873
 11
20.5
 21
-6.984621847843506
 31
-36.97101138246874
  0
LINE
  5
122
330
1F
100
AcDbEntity
  8
STANDARD
100
AcDbLine
 10
20.5
 20
-7.695244366298335
 30
-36.82965977500951
 11
0.0000000000000003
 21
-7.695244366298295
 31
-36.82965977500952
  0
LINE
  5
123
330
1F
100
AcDbEntity
  8
STANDARD
100
AcDbLine
 10
0.0
 20
-11.75055277796148
 30
-35.74304316104504
 11
20.5
 21
-11.75055277796143
 31
-35.74304316104505
  0
LINE
  5
124
330
1F
100
AcDbEntity
  8
STANDARD
100
AcDbLine
 10
20.5
 20
-12.43664573517425
 30
-35.51014598474319
 11
0.0000000000000003
 21
-12.4366457351742
 31
-35.51014598474319
  0
LINE
  5
125
330
1F
100
AcDbEntity
  8
STANDARD
100
AcDbLine
 10
0.0
 20
-16.31542849218052
 30
-33.90350156129256
 11
20.5
 21
-16.31542849218046
 31
-33.90350156129259
  0
LINE
  5
126
330
1F
100
AcDbEntity
  8
STANDARD
100
AcDbLine
 10
20.5
 20
-16.96525264743168
 30
-33.58304375140543
 11
0.0000000000000003
 21
-16.96525264743167
 31
-33.58304375140548
  0
LINE
  5
127
330
1F
100
AcDbEntity
  8
STANDARD
100
AcDbLine
 10
0.0
 20
-20.60114270140567
 30
-31.48386165000041
 11
20.5
 21
-20.60114270140571
 31
-31.48386165000039
  0
LINE
  5
128
330
1F
100
AcDbEntity
  8
STANDARD
100
AcDbLine
 10
20.5
 20
-21.20357938323496
 30
-31.08132632850234
 11
0.0000000000000003
 21
-21.20357938323491
 31
-31.08132632850239
  0
LINE
  5
129
330
1F
100
AcDbEntity
  8
STANDARD
100
AcDbLine
 10
0.0
 20
-24.53436564729495
 30
-28.52552413689931
 11
20.5
 21
-24.53436564729498
 31
-28.52552413689929
  0
LINE
  5
12A
330
1F
100
AcDbEntity
  8
STANDARD
100
AcDbLine
 10
20.5
 20
-25.07910699704819
 30
-28.04779879474693
 11
0.0000000000000003
 21
-25.07910699704819
 31
-28.04779879474698
  0
LINE
  5
12B
330
1F
100
AcDbEntity
  8
STANDARD
100
AcDbLine
 10
0.0000000000000001
 20
-28.04779879474749
 30
-25.07910699704768
 11
20.5
 21
-28.04779879474751
 31
-25.07910699704766
  0
LINE
  5
12C
330
1F
100
AcDbEntity
  8
STANDARD
100
AcDbLine
 10
20.5
 20
-28.52552413689988
 30
-24.53436564729444
 11
0.0
 21
-28.52552413689988
 31
-24.53436564729449
  0
LINE
  5
12D
330
1F
100
AcDbEntity
  8
STANDARD
100
AcDbLine
 10
20.5
 20
-31.48386164999976
 30
-20.60114270140555
 11
0.0
 21
-31.48386164999971
 31
-20.60114270140555
  0
LINE
  5
12E
330
1F
100
AcDbEntity
  8
STANDARD
100
AcDbLine
 10
0.0
 20
-31.08132632850256
 30
-21.20357938323486
 11
20.5
 21
-31.08132632850247
 31
-21.20357938323496
  0
LINE
  5
12F
330
1F
100
AcDbEntity
  8
STANDARD
100
AcDbLine
 10
0.0
 20
-35.51014598474335
 30
-12.4366457351743
 11
20.5
 21
-35.51014598474336
 31
-12.43664573517427
  0
LINE
  5
130
330
1F
100
AcDbEntity
  8
STANDARD
100
AcDbLine
 10
0.0
 20
-33.58304375140622
 30
-16.96525264743097
 11
20.5
 21
-33.58304375140622
 31
-16.96525264743097
  0
LINE
  5
131
330
1F
100
AcDbEntity
  8
STANDARD
100
AcDbLine
 10
20.5
 20
-33.90350156129259
 30
-16.31542849217972
 11
0.0
 21
-33.90350156129259
 31
-16.31542849217972
  0
LINE
  5
132
330
1F
100
AcDbEntity
  8
STANDARD
100
AcDbLine
 10
20.5
 20
-35.74304316104528
 30
-11.75055277796133
 11
0.0
 21
-35.74304316104529
 31
-11.75055277796137
  0
LINE
  5
133
330
1F
100
AcDbEntity
  8
STANDARD
100
AcDbLine
 10
0.0
 20
-36.82965977500973
 30
-7.695244366298736
 11
20.5
 21
-36.82965977500971
 31
-7.695244366298837
  0
LINE
  5
134
330
1F
100
AcDbEntity
  8
STANDARD
100
AcDbLine
 10
0.0
 20
-37.51900787541465
 30
-2.822175232790968
 11
20.5
 21
-37.51900787541466
 31
-2.822175232790791
  0
LINE
  5
135
330
1F
100
AcDbEntity
  8
STANDARD
100
AcDbLine
 10
20.5
 20
-37.5663953488372
 30
-2.09918210140566
 11
0.0000000000000003
 21
-37.5663953488372
 31
-2.09918210140571
  0
LINE
  5
136
330
1F
100
AcDbEntity
  8
STANDARD
100
AcDbLine
 10
20.5
 20
-36.9710113824687
 30
-6.984621847843298
 11
0.0
 21
-36.97101138246869
 31
-6.984621847843345
  0
LINE
  5
137
330
1F
100
AcDbEntity
  8
STANDARD
100
AcDbLine
 10
20.5
 20
-37.51900787541462
 30
2.822175232790249
 11
0.0
 21
-37.51900787541462
 31
2.8221752327902
  0
LINE
  5
138
330
1F
100
AcDbEntity
  8
STANDARD
100
AcDbLine
 10
0.0
 20
-37.5663953488373
 30
2.099182101405466
 11
20.5
 21
-37.5663953488373
 31
2.099182101405571
  0
LINE
  5
139
330
1F
100
AcDbEntity
  8
STANDARD
100
AcDbLine
 10
0.0
 20
-36.97101138246884
 30
6.984621847843565
 11
20.5
 21
-36.97101138246883
 31
6.984621847843597
  0
LINE
  5
13A
330
1F
100
AcDbEntity
  8
STANDARD
100
AcDbLine
 10
0.0
 20
-35.74304316104509
 30
11.75055277796148
 11
20.5
 21
-35.74304316104511
 31
11.75055277796145
  0
LINE
  5
13B
330
1F
100
AcDbEntity
  8
STANDARD
100
AcDbLine
 10
20.5
 20
-36.82965977500951
 30
7.69524436629833
 11
0.0
 21
-36.82965977500951
 31
7.695244366298278
  0
LINE
  5
13C
330
1F
100
AcDbEntity
  8
STANDARD
100
AcDbLine
 10
20.5
 20
-35.51014598474319
 30
12.43664573517426
 11
0.0
 21
-35.51014598474319
 31
12.43664573517421
  0
LINE
  5
13D
330
1F
100
AcDbEntity
  8
STANDARD
100
AcDbLine
 10
0.0
 20
-33.90350156129252
 30
16.31542849217941
 11
20.5
 21
-33.90350156129249
 31
16.31542849217945
  0
LINE
  5
13E
330
1F
100
AcDbEntity
  8
STANDARD
100
AcDbLine
 10
20.5
 20
-33.58304375140543
 30
16.96525264743167
 11
0.0
 21
-33.58304375140548
 31
16.96525264743162
  0
LINE
  5
13F
330
1F
100
AcDbEntity
  8
STANDARD
100
AcDbLine
 10
0.0
 20
-31.48386164999949
 30
20.60114270140551
 11
20.5
 21
-31.48386164999949
 31
20.60114270140551
  0
LINE
  5
140
330
1F
100
AcDbEntity
  8
STANDARD
100
AcDbLine
 10
20.5
 20
-31.0813263285024
 30
21.20357938323489
 11
0.0
 21
-31.0813263285024
 31
21.20357938323489
  0
LINE
  5
141
330
1F
100
AcDbEntity
  8
STANDARD
100
AcDbLine
 10
0.0
 20
-28.52552413689961
 30
24.53436564729524
 11
20.5
 21
-28.52552413689962
 31
24.53436564729524
  0
LINE
  5
142
330
1F
100
AcDbEntity
  8
STANDARD
100
AcDbLine
 10
0.0000000000000003
 20
-25.07910699704795
 30
28.04779879474733
 11
20.5
 21
-25.07910699704795
 31
28.04779879474733
  0
LINE
  5
143
330
1F
100
AcDbEntity
  8
STANDARD
100
AcDbLine
 10
20.5
 20
-28.04779879474697
 30
25.07910699704819
 11
0.0
 21
-28.04779879474697
 31
25.07910699704819
  0
LINE
  5
144
330
1F
100
AcDbEntity
  8
STANDARD
100
AcDbLine
 10
20.5
 20
-24.53436564729449
 30
28.52552413689988
 11
0.0
 21
-24.53436564729449
 31
28.52552413689988
  0
LINE
  5
145
330
1F
100
AcDbEntity
  8
STANDARD
100
AcDbLine
 10
20.5
 20
37.56639534883721
 30
2.099182101405709
 11
0.0
 21
37.5663953488372
 31
2.099182101405709
  0
LINE
  5
146
330
1F
100
AcDbEntity
  8
STANDARD
100
AcDbLine
 10
0.0
 20
35.51014598474335
 30
12.4366457351743
 11
20.5
 21
35.51014598474336
 31
12.43664573517427
  0
LINE
  5
147
330
1F
100
AcDbEntity
  8
STANDARD
100
AcDbLine
 10
20.5
 20
31.48386164999978
 30
20.60114270140551
 11
0.0000000000000003
 21
31.48386164999973
 31
20.60114270140556
  0
LINE
  5
148
330
1F
100
AcDbEntity
  8
STANDARD
100
AcDbLine
 10
0.0
 20
31.08132632850246
 30
21.203579383235
 11
20.5
 21
31.08132632850248
 31
21.20357938323496
  0
LINE
  5
149
330
1F
100
AcDbEntity
  8
STANDARD
100
AcDbLine
 10
0.0
 20
20.60114270140582
 30
31.48386165000068
 11
20.5
 21
20.60114270140586
 31
31.48386165000067
  0
LINE
  5
14A
330
1F
100
AcDbEntity
  8
STANDARD
100
AcDbLine
 10
0.0
 20
16.31542849217949
 30
33.90350156129242
 11
20.5
 21
16.31542849217944
 31
33.90350156129244
  0
ARC
  5
14B
330
1F
100
AcDbEntity
  8
STANDARD
100
AcDbCircle
 10
-0.0000000000000002
 20
0.0
 30
30.0
 40
4.0
210
1.0
220
0.0
230
0.0
100
AcDbArc
 50
270.0
 51
360.0
  0
ARC
  5
14C
330
1F
100
AcDbEntity
  8
STANDARD
100
AcDbCircle
 10
0.0000000000000007
 20
0.0000000000000002
 30
0.0
 40
3.999999999999999
210
1.0
220
0.0
230
0.0
100
AcDbArc
 50
0.0000000000000032
 51
90.0
  0
ARC
  5
14D
330
1F
100
AcDbEntity
  8
STANDARD
100
AcDbCircle
 10
0.0000000000000002
 20
0.0
 30
0.0
 40
4.0
210
1.0
220
0.0
230
0.0
100
AcDbArc
 50
270.0
 51
360.0
  0
LINE
  5
14E
330
1F
100
AcDbEntity
  8
STANDARD
100
AcDbLine
 10
0.0
 20
4.0
 30
0.0
 11
30.0
 21
4.0
 31
-0.000000000000001
  0
ARC
  5
14F
330
1F
100
AcDbEntity
  8
STANDARD
100
AcDbCircle
 10
0.0000000000000003
 20
0.0000000000000006
 30
30.0
 40
4.0
210
1.0
220
0.0
230
0.0
100
AcDbArc
 50
360.0
 51
90.00000000000001
  0
LINE
  5
150
330
1F
100
AcDbEntity
  8
STANDARD
100
AcDbLine
 10
0.0
 20
36.82965977500949
 30
7.695244366298464
 11
20.5
 21
36.82965977500948
 31
7.6952443662985
  0
LINE
  5
151
330
1F
100
AcDbEntity
  8
STANDARD
100
AcDbLine
 10
20.5
 20
36.9710113824687
 30
6.984621847843301
 11
0.0
 21
36.9710113824687
 31
6.984621847843345
  0
LINE
  5
152
330
1F
100
AcDbEntity
  8
STANDARD
100
AcDbLine
 10
20.5
 20
35.74304316104529
 30
11.75055277796133
 11
0.0
 21
35.74304316104528
 31
11.75055277796137
  0
LINE
  5
153
330
1F
100
AcDbEntity
  8
STANDARD
100
AcDbLine
 10
0.0000000000000001
 20
33.58304375140472
 30
16.96525264743192
 11
20.5
 21
33.58304375140467
 31
16.96525264743203
  0
LINE
  5
154
330
1F
100
AcDbEntity
  8
STANDARD
100
AcDbLine
 10
20.5
 20
33.9035015612926
 30
16.31542849217967
 11
0.0
 21
33.9035015612926
 31
16.31542849217972
  0
LINE
  5
155
330
1F
100
AcDbEntity
  8
STANDARD
100
AcDbLine
 10
0.0
 20
24.53436564729502
 30
28.52552413689939
 11
20.5
 21
24.53436564729503
 31
28.52552413689937
  0
LINE
  5
156
330
1F
100
AcDbEntity
  8
STANDARD
100
AcDbLine
 10
20.5
 20
25.07910699704816
 30
28.04779879474696
 11
0.0000000000000003
 21
25.07910699704816
 31
28.047798794747
  0
LINE
  5
157
330
1F
100
AcDbEntity
  8
STANDARD
100
AcDbLine
 10
0.0
 20
28.04779879474776
 30
25.07910699704799
 11
20.5
 21
28.04779879474778
 31
25.07910699704796
  0
LINE
  5
158
330
1F
100
AcDbEntity
  8
STANDARD
100
AcDbLine
 10
20.5
 20
28.52552413689988
 30
24.53436564729444
 11
0.0
 21
28.52552413689988
 31
24.53436564729449
  0
LINE
  5
159
330
1F
100
AcDbEntity
  8
STANDARD
100
AcDbLine
 10
0.0
 20
-0.0000000000000675
 30
35.5250000000005
 11
0.0
 21
-0.0000000000000675
 31
4.000000000000004
  0
LINE
  5
15A
330
1F
100
AcDbEntity
  8
STANDARD
100
AcDbLine
 10
0.0
 20
-0.0000000000000675
 30
-3.999999999999997
 11
0.0
 21
-0.0000000000000675
 31
-35.5250000000004
  0
LINE
  5
15B
330
1F
100
AcDbEntity
  8
STANDARD
100
AcDbLine
 10
0.0
 20
-35.52500000000051
 30
-0.0000000000010942
 11
0.0
 21
-4.000000000000004
 31
-0.0000000000010942
  0
LINE
  5
15C
330
1F
100
AcDbEntity
  8
STANDARD
100
AcDbLine
 10
0.0
 20
3.999999999999997
 30
-0.0000000000010942
 11
0.0
 21
35.5250000000005
 31
-0.0000000000010942
  0
LINE
  5
15D
330
1F
100
AcDbEntity
  8
STANDARD
100
AcDbLine
 10
20.5
 20
-0.000000000000135
 30
-35.52500000000039
 11
20.5
 21
-0.000000000000135
 31
-19.0
  0
LINE
  5
15E
330
1F
100
AcDbEntity
  8
STANDARD
100
AcDbLine
 10
20.5
 20
-0.000000000000135
 30
18.99999999999999
 11
20.5
 21
-0.000000000000135
 31
35.5250000000005
  0
LINE
  5
15F
330
1F
100
AcDbEntity
  8
STANDARD
100
AcDbLine
 10
20.5
 20
-35.52500000000049
 30
-0.0000000000011013
 11
20.5
 21
-19.00000000000001
 31
-0.0000000000011013
  0
LINE
  5
160
330
1F
100
AcDbEntity
  8
STANDARD
100
AcDbLine
 10
20.5
 20
19.0
 30
-0.0000000000011013
 11
20.5
 21
35.5250000000005
 31
-0.0000000000011013
  0
ARC
  5
161
330
1F
100
AcDbEntity
  8
STANDARD
100
AcDbCircle
 10
-4.91104798227952
 20
37.3031129091901
 30
10.25
 40
2.1
210
1.0
220
0.0
230
0.0
100
AcDbArc
 50
189.0991596029891
 51
5.900840397001699
  0
LINE
  5
162
330
1F
100
AcDbEntity
  8
STANDARD
100
AcDbLine
 10
0.0
 20
-4.91104798227952
 30
35.2031129091901
 11
20.5
 21
-4.91104798227952
 31
35.2031129091901
  0
LINE
  5
163
330
1F
100
AcDbEntity
  8
STANDARD
100
AcDbLine
 10
0.0
 20
-2.81104798227952
 30
37.3031129091901
 11
20.5
 21
-2.81104798227952
 31
37.3031129091901
  0
ARC
  5
164
330
1F
100
AcDbEntity
  8
STANDARD
100
AcDbCircle
 10
0.0
 20
0.0
 30
10.25
 40
37.625
210
1.0
220
0.0
230
0.0
100
AcDbArc
 50
93.19831920595182
 51
94.30168079404928
  0
ARC
  5
165
330
1F
100
AcDbEntity
  8
STANDARD
100
AcDbCircle
 10
0.0
 20
0.0
 30
10.25
 40
37.625
210
1.0
220
0.0
230
0.0
100
AcDbArc
 50
340.6983192059518
 51
341.8016807940477
  0
ARC
  5
166
330
1F
100
AcDbEntity
  8
STANDARD
100
AcDbCircle
 10
36.3429592141267
 20
-9.73806657198247
 30
10.25
 40
2.100000000000001
210
1.0
220
0.0
230
0.0
100
AcDbArc
 50
76.5991596029903
 51
253.4008403970005
  0
LINE
  5
167
330
1F
100
AcDbEntity
  8
STANDARD
100
AcDbLine
 10
0.0
 20
36.3429592141267
 30
-7.638066571982471
 11
20.5
 21
36.3429592141267
 31
-7.638066571982471
  0
LINE
  5
168
330
1F
100
AcDbEntity
  8
STANDARD
100
AcDbLine
 10
0.0000000000000002
 20
34.2429592141267
 30
-9.73806657198247
 11
20.5
 21
34.2429592141267
 31
-9.73806657198247
  0
ARC
  5
169
330
1F
100
AcDbEntity
  8
STANDARD
100
AcDbCircle
 10
-9.73806657198331
 20
36.3429592141295
 30
10.25
 40
2.1
210
1.0
220
0.0
230
0.0
100
AcDbArc
 50
196.5991596030691
 51
13.40084039693679
  0
LINE
  5
16A
330
1F
100
AcDbEntity
  8
STANDARD
100
AcDbLine
 10
0.0
 20
-9.73806657198331
 30
34.2429592141295
 11
20.5
 21
-9.73806657198331
 31
34.2429592141295
  0
LINE
  5
16B
330
1F
100
AcDbEntity
  8
STANDARD
100
AcDbLine
 10
0.0
 20
-7.638066571983311
 30
36.3429592141295
 11
20.5
 21
-7.638066571983311
 31
36.3429592141295
  0
ARC
  5
16C
330
1F
100
AcDbEntity
  8
STANDARD
100
AcDbCircle
 10
32.5842058173899
 20
-18.8125000000002
 30
10.25
 40
2.100000000000001
210
1.0
220
0.0
230
0.0
100
AcDbArc
 50
61.59915960298703
 51
238.4008403970047
  0
LINE
  5
16D
330
1F
100
AcDbEntity
  8
STANDARD
100
AcDbLine
 10
0.0
 20
32.5842058173899
 30
-16.7125000000002
 11
20.5
 21
32.5842058173899
 31
-16.7125000000002
  0
LINE
  5
16E
330
1F
100
AcDbEntity
  8
STANDARD
100
AcDbLine
 10
0.0
 20
30.4842058173899
 30
-18.8125000000002
 11
20.5
 21
30.4842058173899
 31
-18.8125000000002
  0
ARC
  5
16F
330
1F
100
AcDbEntity
  8
STANDARD
100
AcDbCircle
 10
0.0
 20
0.0
 30
10.25
 40
37.625
210
1.0
220
0.0
230
0.0
100
AcDbArc
 50
333.1983192059518
 51
334.3016807940464
  0
ARC
  5
170
330
1F
100
AcDbEntity
  8
STANDARD
100
AcDbCircle
 10
37.3031129091901
 20
-4.9110479822795
 30
10.25
 40
2.100000000000009
210
1.0
220
0.0
230
0.0
100
AcDbArc
 50
84.09915960298996
 51
260.9008403970113
  0
LINE
  5
171
330
1F
100
AcDbEntity
  8
STANDARD
100
AcDbLine
 10
0.0
 20
37.3031129091901
 30
-2.81104798227949
 11
20.5
 21
37.3031129091901
 31
-2.81104798227949
  0
LINE
  5
172
330
1F
100
AcDbEntity
  8
STANDARD
100
AcDbLine
 10
0.0
 20
35.20311290919009
 30
-4.9110479822795
 11
20.5
 21
35.20311290919009
 31
-4.9110479822795
  0
ARC
  5
173
330
1F
100
AcDbEntity
  8
STANDARD
100
AcDbCircle
 10
0.0
 20
0.0
 30
10.25
 40
37.625
210
1.0
220
0.0
230
0.0
100
AcDbArc
 50
348.1983192059518
 51
349.3016807940476
  0
ARC
  5
174
330
1F
100
AcDbEntity
  8
STANDARD
100
AcDbCircle
 10
0.0
 20
0.0
 30
10.25
 40
37.625
210
1.0
220
0.0
230
0.0
100
AcDbArc
 50
355.6983192059518
 51
356.8016807940485
  0
ARC
  5
175
330
1F
100
AcDbEntity
  8
STANDARD
100
AcDbCircle
 10
0.0
 20
0.0
 30
10.25
 40
37.625
210
1.0
220
0.0
230
0.0
100
AcDbArc
 50
3.198319205951913
 51
4.301680794049465
  0
LINE
  5
176
330
1F
100
AcDbEntity
  8
STANDARD
100
AcDbLine
 10
30.0
 20
0.0
 30
-19.0
 11
30.0
 21
0.0
 31
-4.000000000000002
  0
LINE
  5
177
330
1F
100
AcDbEntity
  8
STANDARD
100
AcDbLine
 10
30.0
 20
0.0
 30
4.0
 11
30.0
 21
0.0
 31
19.0
  0
LINE
  5
178
330
1F
100
AcDbEntity
  8
STANDARD
100
AcDbLine
 10
30.0
 20
-19.00000000000001
 30
0.0000000000000018
 11
30.0
 21
-4.0
 31
0.0000000000000018
  0
LINE
  5
179
330
1F
100
AcDbEntity
  8
STANDARD
100
AcDbLine
 10
30.0
 20
3.999999999999999
 30
0.0000000000000018
 11
30.0
 21
19.0
 31
0.0000000000000018
  0
ARC
  5
17A
330
1F
100
AcDbEntity
  8
STANDARD
100
AcDbCircle
 10
0.0
 20
0.0
 30
10.25
 40
37.625
210
1.0
220
0.0
230
0.0
100
AcDbArc
 50
85.69831920595186
 51
86.80168079404854
  0
ARC
  5
17B
330
1F
100
AcDbEntity
  8
STANDARD
100
AcDbCircle
 10
0.0
 20
0.0
 30
10.25
 40
37.625
210
1.0
220
0.0
230
0.0
100
AcDbArc
 50
100.6983192059518
 51
101.8016807940478
  0
CIRCLE
  5
17C
330
1F
100
AcDbEntity
  8
STANDARD
100
AcDbCircle
 10
0.0
 20
0.0
 30
25.25
 40
19.0
210
1.0
220
0.0
230
0.0
  0
LINE
  5
17D
330
1F
100
AcDbEntity
  8
STANDARD
100
AcDbLine
 10
30.0
 20
0.0
 30
19.0
 11
20.5
 21
0.0
 31
19.0
  0
LINE
  5
17E
330
1F
100
AcDbEntity
  8
STANDARD
100
AcDbLine
 10
30.0
 20
19.0
 30
0.0
 11
20.5
 21
19.0
 31
0.0
  0
LINE
  5
17F
330
1F
100
AcDbEntity
  8
STANDARD
100
AcDbLine
 10
30.0
 20
0.0
 30
-19.0
 11
20.5
 21
0.0
 31
-19.0
  0
ARC
  5
180
330
1F
100
AcDbEntity
  8
STANDARD
100
AcDbCircle
 10
0.0
 20
0.0
 30
10.25
 40
37.625
210
1.0
220
0.0
230
0.0
100
AcDbArc
 50
108.1983192059519
 51
109.3016807940494
  0
ARC
  5
181
330
1F
100
AcDbEntity
  8
STANDARD
100
AcDbCircle
 10
0.0
 20
0.0
 30
10.25
 40
37.625
210
1.0
220
0.0
230
0.0
100
AcDbArc
 50
115.6983192059519
 51
116.8016807940479
  0
ARC
  5
182
330
1F
100
AcDbEntity
  8
STANDARD
100
AcDbCircle
 10
0.0
 20
0.0
 30
10.25
 40
37.625
210
1.0
220
0.0
230
0.0
100
AcDbArc
 50
123.1983192059519
 51
124.3016807940494
  0
ARC
  5
183
330
1F
100
AcDbEntity
  8
STANDARD
100
AcDbCircle
 10
-14.3984641427379
 20
34.7609674107402
 30
10.25
 40
2.100000000000001
210
1.0
220
0.0
230
0.0
100
AcDbArc
 50
204.0991596030675
 51
20.90084039693249
  0
LINE
  5
184
330
1F
100
AcDbEntity
  8
STANDARD
100
AcDbLine
 10
0.0
 20
-14.3984641427379
 30
32.6609674107402
 11
20.5
 21
-14.3984641427379
 31
32.6609674107402
  0
LINE
  5
185
330
1F
100
AcDbEntity
  8
STANDARD
100
AcDbLine
 10
0.0
 20
-12.2984641427379
 30
34.7609674107402
 11
20.5
 21
-12.2984641427379
 31
34.7609674107402
  0
ARC
  5
186
330
1F
100
AcDbEntity
  8
STANDARD
100
AcDbCircle
 10
-18.8125000000018
 20
32.5842058173924
 30
10.25
 40
2.100000000000001
210
1.0
220
0.0
230
0.0
100
AcDbArc
 50
211.5991596030691
 51
28.40084039694493
  0
LINE
  5
187
330
1F
100
AcDbEntity
  8
STANDARD
100
AcDbLine
 10
0.0000000000000002
 20
-18.8125000000018
 30
30.4842058173924
 11
20.5
 21
-18.8125000000018
 31
30.4842058173924
  0
LINE
  5
188
330
1F
100
AcDbEntity
  8
STANDARD
100
AcDbLine
 10
0.0000000000000009
 20
-16.7125000000018
 30
32.5842058173924
 11
20.5
 21
-16.7125000000018
 31
32.5842058173924
  0
ARC
  5
189
330
1F
100
AcDbEntity
  8
STANDARD
100
AcDbCircle
 10
29.8499194284565
 20
-22.9046487664523
 30
10.25
 40
2.100000000000001
210
1.0
220
0.0
230
0.0
100
AcDbArc
 50
54.09915960293606
 51
230.9008403970591
  0
LINE
  5
18A
330
1F
100
AcDbEntity
  8
STANDARD
100
AcDbLine
 10
0.0
 20
29.8499194284565
 30
-20.8046487664523
 11
20.5
 21
29.8499194284565
 31
-20.8046487664523
  0
LINE
  5
18B
330
1F
100
AcDbEntity
  8
STANDARD
100
AcDbLine
 10
0.0000000000000009
 20
27.7499194284565
 30
-22.9046487664523
 11
20.5
 21
27.7499194284565
 31
-22.9046487664523
  0
ARC
  5
18C
330
1F
100
AcDbEntity
  8
STANDARD
100
AcDbCircle
 10
0.0
 20
0.0
 30
10.25
 40
37.625
210
1.0
220
0.0
230
0.0
100
AcDbArc
 50
318.1983192059518
 51
319.3016807940467
  0
ARC
  5
18D
330
1F
100
AcDbEntity
  8
STANDARD
100
AcDbCircle
 10
0.0
 20
0.0
 30
10.25
 40
37.625
210
1.0
220
0.0
230
0.0
100
AcDbArc
 50
310.6983192059517
 51
311.8016807940488
  0
ARC
  5
18E
330
1F
100
AcDbEntity
  8
STANDARD
100
AcDbCircle
 10
0.0
 20
0.0
 30
10.25
 40
37.625
210
1.0
220
0.0
230
0.0
100
AcDbArc
 50
325.6983192059519
 51
326.8016807940477
  0
ARC
  5
18F
330
1F
100
AcDbEntity
  8
STANDARD
100
AcDbCircle
 10
0.0
 20
0.0
 30
10.25
 40
37.625
210
1.0
220
0.0
230
0.0
100
AcDbArc
 50
303.1983192059518
 51
304.3016807940498
  0
ARC
  5
190
330
1F
100
AcDbEntity
  8
STANDARD
100
AcDbCircle
 10
4.91104798227949
 20
37.3031129091901
 30
10.25
 40
2.1
210
1.0
220
0.0
230
0.0
100
AcDbArc
 50
174.0991596029899
 51
350.9008403970089
  0
LINE
  5
191
330
1F
100
AcDbEntity
  8
STANDARD
100
AcDbLine
 10
0.0
 20
2.81104798227949
 30
37.3031129091901
 11
20.5
 21
2.81104798227949
 31
37.3031129091901
  0
LINE
  5
192
330
1F
100
AcDbEntity
  8
STANDARD
100
AcDbLine
 10
0.0
 20
4.911047982279491
 30
35.2031129091901
 11
20.5
 21
4.911047982279491
 31
35.2031129091901
  0
ARC
  5
193
330
1F
100
AcDbEntity
  8
STANDARD
100
AcDbCircle
 10
0.0
 20
0.0
 30
10.25
 40
37.625
210
1.0
220
0.0
230
0.0
100
AcDbArc
 50
78.19831920595186
 51
79.30168079404795
  0
ARC
  5
194
330
1F
100
AcDbEntity
  8
STANDARD
100
AcDbCircle
 10
-0.000000000000013
 20
37.6250000000005
 30
10.25
 40
2.1
210
1.0
220
0.0
230
0.0
100
AcDbArc
 50
181.5991596029898
 51
358.4008403970072
  0
LINE
  5
195
330
1F
100
AcDbEntity
  8
STANDARD
100
AcDbLine
 10
0.0
 20
-0.0000000000000142
 30
35.5250000000005
 11
20.5
 21
-0.0000000000000142
 31
35.5250000000005
  0
ARC
  5
196
330
1F
100
AcDbEntity
  8
STANDARD
100
AcDbCircle
 10
0.0
 20
0.0
 30
10.25
 40
37.625
210
1.0
220
0.0
230
0.0
100
AcDbArc
 50
70.69831920595183
 51
71.80168079404771
  0
ARC
  5
197
330
1F
100
AcDbEntity
  8
STANDARD
100
AcDbCircle
 10
0.0
 20
0.0
 30
10.25
 40
37.625
210
1.0
220
0.0
230
0.0
100
AcDbArc
 50
63.19831920595183
 51
64.30168079404854
  0
ARC
  5
198
330
1F
100
AcDbEntity
  8
STANDARD
100
AcDbCircle
 10
0.0
 20
0.0
 30
10.25
 40
37.625
210
1.0
220
0.0
230
0.0
100
AcDbArc
 50
55.69831920595183
 51
56.80168079404851
  0
ARC
  5
199
330
1F
100
AcDbEntity
  8
STANDARD
100
AcDbCircle
 10
9.73806657198246
 20
36.3429592141267
 30
10.25
 40
2.1
210
1.0
220
0.0
230
0.0
100
AcDbArc
 50
166.5991596029903
 51
343.4008403970029
  0
LINE
  5
19A
330
1F
100
AcDbEntity
  8
STANDARD
100
AcDbLine
 10
0.0
 20
7.63806657198246
 30
36.3429592141267
 11
20.5
 21
7.63806657198246
 31
36.3429592141267
  0
LINE
  5
19B
330
1F
100
AcDbEntity
  8
STANDARD
100
AcDbLine
 10
0.0
 20
9.738066571982458
 30
34.2429592141267
 11
20.5
 21
9.738066571982458
 31
34.2429592141267
  0
ARC
  5
19C
330
1F
100
AcDbEntity
  8
STANDARD
100
AcDbCircle
 10
26.6048926421428
 20
-26.6048926421429
 30
10.25
 40
2.100000000000001
210
1.0
220
0.0
230
0.0
100
AcDbArc
 50
46.59915960293625
 51
223.400840397051
  0
LINE
  5
19D
330
1F
100
AcDbEntity
  8
STANDARD
100
AcDbLine
 10
0.0
 20
26.6048926421428
 30
-24.5048926421429
 11
20.5
 21
26.6048926421428
 31
-24.5048926421429
  0
LINE
  5
19E
330
1F
100
AcDbEntity
  8
STANDARD
100
AcDbLine
 10
0.0000000000000009
 20
24.5048926421428
 30
-26.6048926421429
 11
20.5
 21
24.5048926421428
 31
-26.6048926421429
  0
ARC
  5
19F
330
1F
100
AcDbEntity
  8
STANDARD
100
AcDbCircle
 10
22.9046487664521
 20
-29.8499194284566
 30
10.25
 40
2.100000000000001
210
1.0
220
0.0
230
0.0
100
AcDbArc
 50
39.09915960293344
 51
215.9008403970457
  0
LINE
  5
1A0
330
1F
100
AcDbEntity
  8
STANDARD
100
AcDbLine
 10
0.0
 20
22.9046487664521
 30
-27.7499194284566
 11
20.5
 21
22.9046487664521
 31
-27.7499194284566
  0
LINE
  5
1A1
330
1F
100
AcDbEntity
  8
STANDARD
100
AcDbLine
 10
0.0
 20
20.8046487664521
 30
-29.8499194284566
 11
20.5
 21
20.8046487664521
 31
-29.8499194284566
  0
ARC
  5
1A2
330
1F
100
AcDbEntity
  8
STANDARD
100
AcDbCircle
 10
18.8124999999992
 20
-32.5842058173882
 30
10.25
 40
2.100000000000001
210
1.0
220
0.0
230
0.0
100
AcDbArc
 50
31.59915960293567
 51
208.4008403970626
  0
LINE
  5
1A3
330
1F
100
AcDbEntity
  8
STANDARD
100
AcDbLine
 10
0.0000000000000002
 20
18.8124999999992
 30
-30.4842058173882
 11
20.5
 21
18.8124999999992
 31
-30.4842058173882
  0
LINE
  5
1A4
330
1F
100
AcDbEntity
  8
STANDARD
100
AcDbLine
 10
0.0000000000000009
 20
16.7124999999992
 30
-32.5842058173882
 11
20.5
 21
16.7124999999992
 31
-32.5842058173882
  0
ARC
  5
1A5
330
1F
100
AcDbEntity
  8
STANDARD
100
AcDbCircle
 10
14.3984641427359
 20
-34.7609674107358
 30
10.25
 40
2.100000000000001
210
1.0
220
0.0
230
0.0
100
AcDbArc
 50
24.09915960293499
 51
200.9008403970679
  0
LINE
  5
1A6
330
1F
100
AcDbEntity
  8
STANDARD
100
AcDbLine
 10
0.0000000000000004
 20
14.3984641427359
 30
-32.66096741073581
 11
20.5
 21
14.3984641427359
 31
-32.66096741073581
  0
LINE
  5
1A7
330
1F
100
AcDbEntity
  8
STANDARD
100
AcDbLine
 10
0.0000000000000004
 20
12.2984641427359
 30
-34.7609674107358
 11
20.5
 21
12.2984641427359
 31
-34.7609674107358
  0
ARC
  5
1A8
330
1F
100
AcDbEntity
  8
STANDARD
100
AcDbCircle
 10
0.0
 20
0.0
 30
10.25
 40
37.625
210
1.0
220
0.0
230
0.0
100
AcDbArc
 50
295.6983192059518
 51
296.8016807940475
  0
ARC
  5
1A9
330
1F
100
AcDbEntity
  8
STANDARD
100
AcDbCircle
 10
0.0
 20
0.0
 30
10.25
 40
37.625
210
1.0
220
0.0
230
0.0
100
AcDbArc
 50
288.1983192059518
 51
289.3016807940494
  0
ARC
  5
1AA
330
1F
100
AcDbEntity
  8
STANDARD
100
AcDbCircle
 10
0.0
 20
0.0
 30
10.25
 40
37.625
210
1.0
220
0.0
230
0.0
100
AcDbArc
 50
280.6983192059518
 51
281.8016807940492
  0
ARC
  5
1AB
330
1F
100
AcDbEntity
  8
STANDARD
100
AcDbCircle
 10
0.0
 20
0.0
 30
10.25
 40
37.625
210
1.0
220
0.0
230
0.0
100
AcDbArc
 50
273.1983192059519
 51
274.3016807940495
  0
ARC
  5
1AC
330
1F
100
AcDbEntity
  8
STANDARD
100
AcDbCircle
 10
9.73806657198192
 20
-36.3429592141248
 30
10.25
 40
2.1
210
1.0
220
0.0
230
0.0
100
AcDbArc
 50
16.59915960293558
 51
193.4008403970573
  0
LINE
  5
1AD
330
1F
100
AcDbEntity
  8
STANDARD
100
AcDbLine
 10
0.0
 20
9.738066571981918
 30
-34.2429592141248
 11
20.5
 21
9.738066571981918
 31
-34.2429592141248
  0
LINE
  5
1AE
330
1F
100
AcDbEntity
  8
STANDARD
100
AcDbLine
 10
0.0
 20
7.63806657198192
 30
-36.3429592141248
 11
20.5
 21
7.63806657198192
 31
-36.3429592141248
  0
ARC
  5
1AF
330
1F
100
AcDbEntity
  8
STANDARD
100
AcDbCircle
 10
4.9110479822792
 20
-37.3031129091882
 30
10.25
 40
2.1
210
1.0
220
0.0
230
0.0
100
AcDbArc
 50
9.099159602936673
 51
185.9008403970625
  0
LINE
  5
1B0
330
1F
100
AcDbEntity
  8
STANDARD
100
AcDbLine
 10
0.0
 20
4.9110479822792
 30
-35.2031129091882
 11
20.5
 21
4.9110479822792
 31
-35.2031129091882
  0
LINE
  5
1B1
330
1F
100
AcDbEntity
  8
STANDARD
100
AcDbLine
 10
0.0
 20
2.8110479822792
 30
-37.3031129091882
 11
20.5
 21
2.8110479822792
 31
-37.3031129091882
  0
ARC
  5
1B2
330
1F
100
AcDbEntity
  8
STANDARD
100
AcDbCircle
 10
0.0000000000000126
 20
-37.6250000000004
 30
10.25
 40
2.1
210
1.0
220
0.0
230
0.0
100
AcDbArc
 50
1.599159602987144
 51
178.4008403970435
  0
LINE
  5
1B3
330
1F
100
AcDbEntity
  8
STANDARD
100
AcDbLine
 10
0.0
 20
0.0000000000000142
 30
-35.5250000000004
 11
20.5
 21
0.0000000000000142
 31
-35.5250000000004
  0
ARC
  5
1B4
330
1F
100
AcDbEntity
  8
STANDARD
100
AcDbCircle
 10
-4.91104798227949
 20
-37.3031129091901
 30
10.25
 40
2.1
210
1.0
220
0.0
230
0.0
100
AcDbArc
 50
354.0991596029899
 51
170.9008403970141
  0
LINE
  5
1B5
330
1F
100
AcDbEntity
  8
STANDARD
100
AcDbLine
 10
0.0
 20
-2.81104798227949
 30
-37.3031129091901
 11
20.5
 21
-2.81104798227949
 31
-37.3031129091901
  0
LINE
  5
1B6
330
1F
100
AcDbEntity
  8
STANDARD
100
AcDbLine
 10
0.0
 20
-4.911047982279491
 30
-35.2031129091901
 11
20.5
 21
-4.911047982279491
 31
-35.2031129091901
  0
ARC
  5
1B7
330
1F
100
AcDbEntity
  8
STANDARD
100
AcDbCircle
 10
0.0
 20
0.0
 30
10.25
 40
37.625
210
1.0
220
0.0
230
0.0
100
AcDbArc
 50
265.6983192059518
 51
266.8016807940481
  0
ARC
  5
1B8
330
1F
100
AcDbEntity
  8
STANDARD
100
AcDbCircle
 10
0.0
 20
0.0
 30
10.25
 40
37.625
210
1.0
220
0.0
230
0.0
100
AcDbArc
 50
258.1983192059518
 51
259.3016807940476
  0
ARC
  5
1B9
330
1F
100
AcDbEntity
  8
STANDARD
100
AcDbCircle
 10
0.0
 20
0.0
 30
10.25
 40
37.625
210
1.0
220
0.0
230
0.0
100
AcDbArc
 50
250.6983192059518
 51
251.8016807940477
  0
ARC
  5
1BA
330
1F
100
AcDbEntity
  8
STANDARD
100
AcDbCircle
 10
0.0
 20
0.0
 30
10.25
 40
37.625
210
1.0
220
0.0
230
0.0
100
AcDbArc
 50
243.1983192059518
 51
244.3016807940465
  0
ARC
  5
1BB
330
1F
100
AcDbEntity
  8
STANDARD
100
AcDbCircle
 10
-9.73806657198246
 20
-36.3429592141267
 30
10.25
 40
2.1
210
1.0
220
0.0
230
0.0
100
AcDbArc
 50
346.5991596029903
 51
163.400840397003
  0
LINE
  5
1BC
330
1F
100
AcDbEntity
  8
STANDARD
100
AcDbLine
 10
0.0000000000000009
 20
-7.63806657198246
 30
-36.3429592141267
 11
20.5
 21
-7.63806657198246
 31
-36.3429592141267
  0
LINE
  5
1BD
330
1F
100
AcDbEntity
  8
STANDARD
100
AcDbLine
 10
0.0
 20
-9.738066571982458
 30
-34.2429592141267
 11
20.5
 21
-9.738066571982458
 31
-34.2429592141267
  0
ARC
  5
1BE
330
1F
100
AcDbEntity
  8
STANDARD
100
AcDbCircle
 10
-14.3984641427367
 20
-34.7609674107376
 30
10.25
 40
2.100000000000009
210
1.0
220
0.0
230
0.0
100
AcDbArc
 50
339.0991596029885
 51
155.9008403970239
  0
LINE
  5
1BF
330
1F
100
AcDbEntity
  8
STANDARD
100
AcDbLine
 10
0.0000000000000009
 20
-12.29846414273669
 30
-34.7609674107376
 11
20.5
 21
-12.29846414273669
 31
-34.7609674107376
  0
LINE
  5
1C0
330
1F
100
AcDbEntity
  8
STANDARD
100
AcDbLine
 10
0.0000000000000002
 20
-14.3984641427367
 30
-32.66096741073759
 11
20.5
 21
-14.3984641427367
 31
-32.66096741073759
  0
ARC
  5
1C1
330
1F
100
AcDbEntity
  8
STANDARD
100
AcDbCircle
 10
-18.8125000000002
 20
-32.5842058173899
 30
10.25
 40
2.100000000000001
210
1.0
220
0.0
230
0.0
100
AcDbArc
 50
331.5991596029876
 51
148.4008403970374
  0
LINE
  5
1C2
330
1F
100
AcDbEntity
  8
STANDARD
100
AcDbLine
 10
0.0000000000000009
 20
-16.7125000000002
 30
-32.5842058173899
 11
20.5
 21
-16.7125000000002
 31
-32.5842058173899
  0
LINE
  5
1C3
330
1F
100
AcDbEntity
  8
STANDARD
100
AcDbLine
 10
0.0
 20
-18.8125000000002
 30
-30.4842058173899
 11
20.5
 21
-18.8125000000002
 31
-30.4842058173899
  0
ARC
  5
1C4
330
1F
100
AcDbEntity
  8
STANDARD
100
AcDbCircle
 10
-22.9046487664535
 20
-29.8499194284582
 30
10.25
 40
2.100000000000001
210
1.0
220
0.0
230
0.0
100
AcDbArc
 50
324.0991596029928
 51
140.900840397003
  0
LINE
  5
1C5
330
1F
100
AcDbEntity
  8
STANDARD
100
AcDbLine
 10
0.0000000000000002
 20
-20.8046487664535
 30
-29.8499194284582
 11
20.5
 21
-20.8046487664535
 31
-29.8499194284582
  0
LINE
  5
1C6
330
1F
100
AcDbEntity
  8
STANDARD
100
AcDbLine
 10
0.0000000000000002
 20
-22.9046487664535
 30
-27.7499194284582
 11
20.5
 21
-22.9046487664535
 31
-27.7499194284582
  0
ARC
  5
1C7
330
1F
100
AcDbEntity
  8
STANDARD
100
AcDbCircle
 10
0.0
 20
0.0
 30
10.25
 40
37.625
210
1.0
220
0.0
230
0.0
100
AcDbArc
 50
235.6983192059519
 51
236.8016807940485
  0
ARC
  5
1C8
330
1F
100
AcDbEntity
  8
STANDARD
100
AcDbCircle
 10
0.0
 20
0.0
 30
10.25
 40
37.625
210
1.0
220
0.0
230
0.0
100
AcDbArc
 50
228.1983192059518
 51
229.3016807940465
  0
ARC
  5
1C9
330
1F
100
AcDbEntity
  8
STANDARD
100
AcDbCircle
 10
0.0
 20
0.0
 30
10.25
 40
37.625
210
1.0
220
0.0
230
0.0
100
AcDbArc
 50
220.6983192059518
 51
221.8016807940464
  0
ARC
  5
1CA
330
1F
100
AcDbEntity
  8
STANDARD
100
AcDbCircle
 10
0.0
 20
0.0
 30
10.25
 40
37.625
210
1.0
220
0.0
230
0.0
100
AcDbArc
 50
213.1983192059519
 51
214.3016807940479
  0
ARC
  5
1CB
330
1F
100
AcDbEntity
  8
STANDARD
100
AcDbCircle
 10
-26.6048926421442
 20
-26.6048926421442
 30
10.25
 40
2.100000000000001
210
1.0
220
0.0
230
0.0
100
AcDbArc
 50
316.5991596029893
 51
133.4008403970135
  0
LINE
  5
1CC
330
1F
100
AcDbEntity
  8
STANDARD
100
AcDbLine
 10
0.0000000000000009
 20
-24.5048926421442
 30
-26.6048926421442
 11
20.5
 21
-24.5048926421442
 31
-26.6048926421442
  0
LINE
  5
1CD
330
1F
100
AcDbEntity
  8
STANDARD
100
AcDbLine
 10
0.0000000000000009
 20
-26.6048926421442
 30
-24.5048926421442
 11
20.5
 21
-26.6048926421442
 31
-24.5048926421442
  0
ARC
  5
1CE
330
1F
100
AcDbEntity
  8
STANDARD
100
AcDbCircle
 10
-29.8499194284581
 20
-22.9046487664534
 30
10.25
 40
2.100000000000001
210
1.0
220
0.0
230
0.0
100
AcDbArc
 50
309.0991596029885
 51
125.9008403970155
  0
LINE
  5
1CF
330
1F
100
AcDbEntity
  8
STANDARD
100
AcDbLine
 10
0.0
 20
-27.7499194284581
 30
-22.9046487664534
 11
20.5
 21
-27.7499194284581
 31
-22.9046487664534
  0
LINE
  5
1D0
330
1F
100
AcDbEntity
  8
STANDARD
100
AcDbLine
 10
0.0
 20
-29.8499194284581
 30
-20.8046487664534
 11
20.5
 21
-29.8499194284581
 31
-20.8046487664534
  0
ARC
  5
1D1
330
1F
100
AcDbEntity
  8
STANDARD
100
AcDbCircle
 10
-32.5842058173899
 20
-18.8125000000003
 30
10.25
 40
2.100000000000001
210
1.0
220
0.0
230
0.0
100
AcDbArc
 50
301.59915960299
 51
118.4008403970262
  0
LINE
  5
1D2
330
1F
100
AcDbEntity
  8
STANDARD
100
AcDbLine
 10
0.0
 20
-30.4842058173899
 30
-18.8125000000003
 11
20.5
 21
-30.4842058173899
 31
-18.8125000000003
  0
LINE
  5
1D3
330
1F
100
AcDbEntity
  8
STANDARD
100
AcDbLine
 10
0.0
 20
-32.5842058173899
 30
-16.7125000000003
 11
20.5
 21
-32.5842058173899
 31
-16.7125000000003
  0
ARC
  5
1D4
330
1F
100
AcDbEntity
  8
STANDARD
100
AcDbCircle
 10
-34.7609674107376
 20
-14.3984641427367
 30
10.25
 40
2.100000000000001
210
1.0
220
0.0
230
0.0
100
AcDbArc
 50
294.0991596029893
 51
110.9008403970182
  0
LINE
  5
1D5
330
1F
100
AcDbEntity
  8
STANDARD
100
AcDbLine
 10
0.0
 20
-32.6609674107376
 30
-14.3984641427367
 11
20.5
 21
-32.6609674107376
 31
-14.3984641427367
  0
LINE
  5
1D6
330
1F
100
AcDbEntity
  8
STANDARD
100
AcDbLine
 10
0.0
 20
-34.7609674107376
 30
-12.2984641427367
 11
20.5
 21
-34.7609674107376
 31
-12.2984641427367
  0
ARC
  5
1D7
330
1F
100
AcDbEntity
  8
STANDARD
100
AcDbCircle
 10
0.0
 20
0.0
 30
10.25
 40
37.625
210
1.0
220
0.0
230
0.0
100
AcDbArc
 50
205.6983192059519
 51
206.8016807940458
  0
ARC
  5
1D8
330
1F
100
AcDbEntity
  8
STANDARD
100
AcDbCircle
 10
0.0
 20
0.0
 30
10.25
 40
37.625
210
1.0
220
0.0
230
0.0
100
AcDbArc
 50
198.1983192059519
 51
199.3016807940481
  0
ARC
  5
1D9
330
1F
100
AcDbEntity
  8
STANDARD
100
AcDbCircle
 10
0.0
 20
0.0
 30
10.25
 40
37.625
210
1.0
220
0.0
230
0.0
100
AcDbArc
 50
190.6983192059518
 51
191.801680794049
  0
ARC
  5
1DA
330
1F
100
AcDbEntity
  8
STANDARD
100
AcDbCircle
 10
0.0
 20
0.0
 30
10.25
 40
37.625
210
1.0
220
0.0
230
0.0
100
AcDbArc
 50
183.1983192059518
 51
184.3016807940496
  0
ARC
  5
1DB
330
1F
100
AcDbEntity
  8
STANDARD
100
AcDbCircle
 10
-36.3429592141267
 20
-9.73806657198248
 30
10.25
 40
2.100000000000001
210
1.0
220
0.0
230
0.0
100
AcDbArc
 50
286.5991596029893
 51
103.4008403970217
  0
LINE
  5
1DC
330
1F
100
AcDbEntity
  8
STANDARD
100
AcDbLine
 10
0.0
 20
-34.2429592141267
 30
-9.73806657198248
 11
20.5
 21
-34.2429592141267
 31
-9.73806657198248
  0
LINE
  5
1DD
330
1F
100
AcDbEntity
  8
STANDARD
100
AcDbLine
 10
0.0
 20
-36.3429592141267
 30
-7.638066571982478
 11
20.5
 21
-36.3429592141267
 31
-7.638066571982478
  0
ARC
  5
1DE
330
1F
100
AcDbEntity
  8
STANDARD
100
AcDbCircle
 10
-37.3031129091901
 20
-4.91104798227952
 30
10.25
 40
2.100000000000001
210
1.0
220
0.0
230
0.0
100
AcDbArc
 50
279.0991596029891
 51
95.90084039701358
  0
LINE
  5
1DF
330
1F
100
AcDbEntity
  8
STANDARD
100
AcDbLine
 10
0.0
 20
-35.2031129091901
 30
-4.91104798227952
 11
20.5
 21
-35.2031129091901
 31
-4.91104798227952
  0
LINE
  5
1E0
330
1F
100
AcDbEntity
  8
STANDARD
100
AcDbLine
 10
0.0
 20
-37.3031129091901
 30
-2.811047982279518
 11
20.5
 21
-37.3031129091901
 31
-2.811047982279518
  0
ARC
  5
1E1
330
1F
100
AcDbEntity
  8
STANDARD
100
AcDbCircle
 10
-37.6250000000005
 20
-0.0000000000000113
 30
10.25
 40
2.100000000000001
210
1.0
220
0.0
230
0.0
100
AcDbArc
 50
271.5991596029899
 51
88.40084039701402
  0
LINE
  5
1E2
330
1F
100
AcDbEntity
  8
STANDARD
100
AcDbLine
 10
0.0000000000000002
 20
-35.5250000000005
 30
-0.0000000000000113
 11
20.5
 21
-35.5250000000005
 31
-0.0000000000000113
  0
ARC
  5
1E3
330
1F
100
AcDbEntity
  8
STANDARD
100
AcDbCircle
 10
-37.3031129091901
 20
4.91104798227949
 30
10.25
 40
2.100000000000009
210
1.0
220
0.0
230
0.0
100
AcDbArc
 50
264.0991596029899
 51
80.90084039701881
  0
LINE
  5
1E4
330
1F
100
AcDbEntity
  8
STANDARD
100
AcDbLine
 10
0.0
 20
-37.3031129091901
 30
2.811047982279483
 11
20.5
 21
-37.3031129091901
 31
2.811047982279483
  0
LINE
  5
1E5
330
1F
100
AcDbEntity
  8
STANDARD
100
AcDbLine
 10
0.0
 20
-35.20311290919009
 30
4.91104798227949
 11
20.5
 21
-35.20311290919009
 31
4.91104798227949
  0
ARC
  5
1E6
330
1F
100
AcDbEntity
  8
STANDARD
100
AcDbCircle
 10
0.0
 20
0.0
 30
10.25
 40
37.625
210
1.0
220
0.0
230
0.0
100
AcDbArc
 50
175.6983192059519
 51
176.8016807940485
  0
ARC
  5
1E7
330
1F
100
AcDbEntity
  8
STANDARD
100
AcDbCircle
 10
0.0
 20
0.0
 30
10.25
 40
37.625
210
1.0
220
0.0
230
0.0
100
AcDbArc
 50
168.1983192059519
 51
169.3016807940476
  0
ARC
  5
1E8
330
1F
100
AcDbEntity
  8
STANDARD
100
AcDbCircle
 10
0.0
 20
0.0
 30
10.25
 40
37.625
210
1.0
220
0.0
230
0.0
100
AcDbArc
 50
160.6983192059519
 51
161.8016807940477
  0
ARC
  5
1E9
330
1F
100
AcDbEntity
  8
STANDARD
100
AcDbCircle
 10
0.0
 20
0.0
 30
10.25
 40
37.625
210
1.0
220
0.0
230
0.0
100
AcDbArc
 50
153.1983192059519
 51
154.3016807940487
  0
ARC
  5
1EA
330
1F
100
AcDbEntity
  8
STANDARD
100
AcDbCircle
 10
-36.3429592141267
 20
9.73806657198245
 30
10.25
 40
2.100000000000001
210
1.0
220
0.0
230
0.0
100
AcDbArc
 50
256.5991596029903
 51
73.40084039700498
  0
LINE
  5
1EB
330
1F
100
AcDbEntity
  8
STANDARD
100
AcDbLine
 10
0.0
 20
-36.3429592141267
 30
7.638066571982449
 11
20.5
 21
-36.3429592141267
 31
7.638066571982449
  0
LINE
  5
1EC
330
1F
100
AcDbEntity
  8
STANDARD
100
AcDbLine
 10
0.0
 20
-34.2429592141267
 30
9.73806657198245
 11
20.5
 21
-34.2429592141267
 31
9.73806657198245
  0
ARC
  5
1ED
330
1F
100
AcDbEntity
  8
STANDARD
100
AcDbCircle
 10
-34.7609674107376
 20
14.3984641427367
 30
10.25
 40
2.100000000000001
210
1.0
220
0.0
230
0.0
100
AcDbArc
 50
249.0991596029885
 51
65.90084039700218
  0
LINE
  5
1EE
330
1F
100
AcDbEntity
  8
STANDARD
100
AcDbLine
 10
0.0
 20
-34.7609674107376
 30
12.2984641427367
 11
20.5
 21
-34.7609674107376
 31
12.2984641427367
  0
LINE
  5
1EF
330
1F
100
AcDbEntity
  8
STANDARD
100
AcDbLine
 10
0.0
 20
-32.6609674107376
 30
14.3984641427367
 11
20.5
 21
-32.6609674107376
 31
14.3984641427367
  0
ARC
  5
1F0
330
1F
100
AcDbEntity
  8
STANDARD
100
AcDbCircle
 10
-32.5842058173899
 20
18.8125000000002
 30
10.25
 40
2.100000000000009
210
1.0
220
0.0
230
0.0
100
AcDbArc
 50
241.5991596029884
 51
58.40084039700243
  0
LINE
  5
1F1
330
1F
100
AcDbEntity
  8
STANDARD
100
AcDbLine
 10
0.0
 20
-32.5842058173899
 30
16.71250000000019
 11
20.5
 21
-32.5842058173899
 31
16.71250000000019
  0
LINE
  5
1F2
330
1F
100
AcDbEntity
  8
STANDARD
100
AcDbLine
 10
0.0
 20
-30.48420581738989
 30
18.8125000000002
 11
20.5
 21
-30.48420581738989
 31
18.8125000000002
  0
ARC
  5
1F3
330
1F
100
AcDbEntity
  8
STANDARD
100
AcDbCircle
 10
-29.8499194284605
 20
22.9046487664551
 30
10.25
 40
2.100000000000001
210
1.0
220
0.0
230
0.0
100
AcDbArc
 50
234.0991596030689
 51
50.90084039694419
  0
LINE
  5
1F4
330
1F
100
AcDbEntity
  8
STANDARD
100
AcDbLine
 10
0.0
 20
-29.8499194284605
 30
20.8046487664551
 11
20.5
 21
-29.8499194284605
 31
20.8046487664551
  0
LINE
  5
1F5
330
1F
100
AcDbEntity
  8
STANDARD
100
AcDbLine
 10
0.0
 20
-27.7499194284605
 30
22.9046487664551
 11
20.5
 21
-27.7499194284605
 31
22.9046487664551
  0
ARC
  5
1F6
330
1F
100
AcDbEntity
  8
STANDARD
100
AcDbCircle
 10
0.0
 20
0.0
 30
10.25
 40
37.625
210
1.0
220
0.0
230
0.0
100
AcDbArc
 50
145.6983192059519
 51
146.8016807940479
  0
ARC
  5
1F7
330
1F
100
AcDbEntity
  8
STANDARD
100
AcDbCircle
 10
0.0
 20
0.0
 30
10.25
 40
37.625
210
1.0
220
0.0
230
0.0
100
AcDbArc
 50
138.1983192059519
 51
139.3016807940463
  0
ARC
  5
1F8
330
1F
100
AcDbEntity
  8
STANDARD
100
AcDbCircle
 10
0.0
 20
0.0
 30
10.25
 40
37.625
210
1.0
220
0.0
230
0.0
100
AcDbArc
 50
130.6983192059519
 51
131.801680794047
  0
ARC
  5
1F9
330
1F
100
AcDbEntity
  8
STANDARD
100
AcDbCircle
 10
-26.6048926421463
 20
26.6048926421462
 30
10.25
 40
2.100000000000001
210
1.0
220
0.0
230
0.0
100
AcDbArc
 50
226.5991596030674
 51
43.40084039693684
  0
LINE
  5
1FA
330
1F
100
AcDbEntity
  8
STANDARD
100
AcDbLine
 10
0.0000000000000002
 20
-26.6048926421463
 30
24.5048926421462
 11
20.5
 21
-26.6048926421463
 31
24.5048926421462
  0
LINE
  5
1FB
330
1F
100
AcDbEntity
  8
STANDARD
100
AcDbLine
 10
0.0000000000000009
 20
-24.5048926421463
 30
26.6048926421462
 11
20.5
 21
-24.5048926421463
 31
26.6048926421462
  0
ARC
  5
1FC
330
1F
100
AcDbEntity
  8
STANDARD
100
AcDbCircle
 10
-22.9046487664552
 20
29.8499194284603
 30
10.25
 40
2.100000000000001
210
1.0
220
0.0
230
0.0
100
AcDbArc
 50
219.0991596030651
 51
35.90084039694503
  0
LINE
  5
1FD
330
1F
100
AcDbEntity
  8
STANDARD
100
AcDbLine
 10
0.0
 20
-22.9046487664552
 30
27.7499194284603
 11
20.5
 21
-22.9046487664552
 31
27.7499194284603
  0
LINE
  5
1FE
330
1F
100
AcDbEntity
  8
STANDARD
100
AcDbLine
 10
0.0
 20
-20.8046487664552
 30
29.8499194284603
 11
20.5
 21
-20.8046487664552
 31
29.8499194284603
  0
ARC
  5
1FF
330
1F
100
AcDbEntity
  8
STANDARD
100
AcDbCircle
 10
34.7609674107358
 20
-14.398464142736
 30
10.25
 40
2.100000000000001
210
1.0
220
0.0
230
0.0
100
AcDbArc
 50
69.0991596029366
 51
245.9008403970556
  0
LINE
  5
200
330
1F
100
AcDbEntity
  8
STANDARD
100
AcDbLine
 10
0.0000000000000004
 20
34.7609674107358
 30
-12.298464142736
 11
20.5
 21
34.7609674107358
 31
-12.298464142736
  0
LINE
  5
201
330
1F
100
AcDbEntity
  8
STANDARD
100
AcDbLine
 10
0.0000000000000004
 20
32.6609674107358
 30
-14.398464142736
 11
20.5
 21
32.6609674107358
 31
-14.398464142736
  0
ARC
  5
202
330
1F
100
AcDbEntity
  8
STANDARD
100
AcDbCircle
 10
37.6250000000005
 20
0.0000000000000139
 30
10.25
 40
2.100000000000001
210
1.0
220
0.0
230
0.0
100
AcDbArc
 50
91.59915960298967
 51
268.4008403970113
  0
LINE
  5
203
330
1F
100
AcDbEntity
  8
STANDARD
100
AcDbLine
 10
0.0
 20
35.5250000000005
 30
0.0000000000000139
 11
20.5
 21
35.5250000000005
 31
0.0000000000000139
  0
ARC
  5
204
330
1F
100
AcDbEntity
  8
STANDARD
100
AcDbCircle
 10
37.3031129091901
 20
4.91104798227952
 30
10.25
 40
2.100000000000001
210
1.0
220
0.0
230
0.0
100
AcDbArc
 50
99.09915960298908
 51
275.9008403970112
  0
LINE
  5
205
330
1F
100
AcDbEntity
  8
STANDARD
100
AcDbLine
 10
0.0
 20
35.2031129091901
 30
4.91104798227952
 11
20.5
 21
35.2031129091901
 31
4.91104798227952
  0
LINE
  5
206
330
1F
100
AcDbEntity
  8
STANDARD
100
AcDbLine
 10
0.0
 20
37.3031129091901
 30
2.811047982279518
 11
20.5
 21
37.3031129091901
 31
2.811047982279518
  0
ARC
  5
207
330
1F
100
AcDbEntity
  8
STANDARD
100
AcDbCircle
 10
36.3429592141267
 20
9.73806657198249
 30
10.25
 40
2.100000000000001
210
1.0
220
0.0
230
0.0
100
AcDbArc
 50
106.5991596029896
 51
283.4008403970099
  0
LINE
  5
208
330
1F
100
AcDbEntity
  8
STANDARD
100
AcDbLine
 10
0.0
 20
34.2429592141267
 30
9.73806657198249
 11
20.5
 21
34.2429592141267
 31
9.73806657198249
  0
LINE
  5
209
330
1F
100
AcDbEntity
  8
STANDARD
100
AcDbLine
 10
0.0
 20
36.3429592141267
 30
7.638066571982492
 11
20.5
 21
36.3429592141267
 31
7.638066571982492
  0
ARC
  5
20A
330
1F
100
AcDbEntity
  8
STANDARD
100
AcDbCircle
 10
34.7609674107376
 20
14.3984641427367
 30
10.25
 40
2.100000000000001
210
1.0
220
0.0
230
0.0
100
AcDbArc
 50
114.09915960299
 51
290.9008403970184
  0
LINE
  5
20B
330
1F
100
AcDbEntity
  8
STANDARD
100
AcDbLine
 10
0.0
 20
32.6609674107376
 30
14.3984641427367
 11
20.5
 21
32.6609674107376
 31
14.3984641427367
  0
LINE
  5
20C
330
1F
100
AcDbEntity
  8
STANDARD
100
AcDbLine
 10
0.0
 20
34.7609674107376
 30
12.2984641427367
 11
20.5
 21
34.7609674107376
 31
12.2984641427367
  0
ARC
  5
20D
330
1F
100
AcDbEntity
  8
STANDARD
100
AcDbCircle
 10
32.5842058173899
 20
18.8125000000002
 30
10.25
 40
2.100000000000009
210
1.0
220
0.0
230
0.0
100
AcDbArc
 50
121.599159602988
 51
298.4008403969897
  0
LINE
  5
20E
330
1F
100
AcDbEntity
  8
STANDARD
100
AcDbLine
 10
0.0000000000000009
 20
30.48420581738989
 30
18.8125000000002
 11
20.5
 21
30.48420581738989
 31
18.8125000000002
  0
LINE
  5
20F
330
1F
100
AcDbEntity
  8
STANDARD
100
AcDbLine
 10
0.0000000000000004
 20
32.5842058173899
 30
16.71250000000019
 11
20.5
 21
32.5842058173899
 31
16.71250000000019
  0
ARC
  5
210
330
1F
100
AcDbEntity
  8
STANDARD
100
AcDbCircle
 10
29.8499194284581
 20
22.9046487664534
 30
10.25
 40
2.100000000000001
210
1.0
220
0.0
230
0.0
100
AcDbArc
 50
129.0991596029885
 51
305.9008403970155
  0
LINE
  5
211
330
1F
100
AcDbEntity
  8
STANDARD
100
AcDbLine
 10
0.0
 20
27.7499194284581
 30
22.9046487664534
 11
20.5
 21
27.7499194284581
 31
22.9046487664534
  0
LINE
  5
212
330
1F
100
AcDbEntity
  8
STANDARD
100
AcDbLine
 10
0.0
 20
29.8499194284581
 30
20.8046487664534
 11
20.5
 21
29.8499194284581
 31
20.8046487664534
  0
ARC
  5
213
330
1F
100
AcDbEntity
  8
STANDARD
100
AcDbCircle
 10
26.6048926421441
 20
26.6048926421442
 30
10.25
 40
2.100000000000001
210
1.0
220
0.0
230
0.0
100
AcDbArc
 50
136.5991596029874
 51
313.400840397032
  0
LINE
  5
214
330
1F
100
AcDbEntity
  8
STANDARD
100
AcDbLine
 10
0.0000000000000009
 20
24.5048926421441
 30
26.6048926421442
 11
20.5
 21
24.5048926421441
 31
26.6048926421442
  0
LINE
  5
215
330
1F
100
AcDbEntity
  8
STANDARD
100
AcDbLine
 10
0.0000000000000002
 20
26.6048926421441
 30
24.5048926421442
 11
20.5
 21
26.6048926421441
 31
24.5048926421442
  0
ARC
  5
216
330
1F
100
AcDbEntity
  8
STANDARD
100
AcDbCircle
 10
22.9046487664534
 20
29.8499194284581
 30
10.25
 40
2.100000000000001
210
1.0
220
0.0
230
0.0
100
AcDbArc
 50
144.0991596029889
 51
320.9008403970112
  0
LINE
  5
217
330
1F
100
AcDbEntity
  8
STANDARD
100
AcDbLine
 10
0.0
 20
20.8046487664534
 30
29.8499194284581
 11
20.5
 21
20.8046487664534
 31
29.8499194284581
  0
LINE
  5
218
330
1F
100
AcDbEntity
  8
STANDARD
100
AcDbLine
 10
0.0
 20
22.9046487664534
 30
27.7499194284581
 11
20.5
 21
22.9046487664534
 31
27.7499194284581
  0
ARC
  5
219
330
1F
100
AcDbEntity
  8
STANDARD
100
AcDbCircle
 10
18.8125000000002
 20
32.58420581739
 30
10.25
 40
2.100000000000001
210
1.0
220
0.0
230
0.0
100
AcDbArc
 50
151.5991596029901
 51
328.4008403970478
  0
LINE
  5
21A
330
1F
100
AcDbEntity
  8
STANDARD
100
AcDbLine
 10
0.0000000000000009
 20
16.7125000000002
 30
32.58420581739
 11
20.5
 21
16.7125000000002
 31
32.58420581739
  0
LINE
  5
21B
330
1F
100
AcDbEntity
  8
STANDARD
100
AcDbLine
 10
0.0
 20
18.8125000000002
 30
30.48420581739
 11
20.5
 21
18.8125000000002
 31
30.48420581739
  0
ARC
  5
21C
330
1F
100
AcDbEntity
  8
STANDARD
100
AcDbCircle
 10
14.3984641427367
 20
34.7609674107376
 30
10.25
 40
2.100000000000009
210
1.0
220
0.0
230
0.0
100
AcDbArc
 50
159.0991596029885
 51
335.9008403969997
  0
LINE
  5
21D
330
1F
100
AcDbEntity
  8
STANDARD
100
AcDbLine
 10
0.0000000000000009
 20
12.29846414273669
 30
34.7609674107376
 11
20.5
 21
12.29846414273669
 31
34.7609674107376
  0
LINE
  5
21E
330
1F
100
AcDbEntity
  8
STANDARD
100
AcDbLine
 10
0.0000000000000002
 20
14.3984641427367
 30
32.66096741073759
 11
20.5
 21
14.3984641427367
 31
32.66096741073759
  0
CIRCLE
  5
21F
330
1F
100
AcDbEntity
  8
STANDARD
100
AcDbCircle
 10
0.0
 20
0.0
 30
15.0
 40
4.0
210
1.0
220
0.0
230
0.0
  0
LINE
  5
220
330
1F
100
AcDbEntity
  8
STANDARD
100
AcDbLine
 10
0.0
 20
0.0
 30
4.0
 11
30.0
 21
0.0
 31
4.0
  0
LINE
  5
221
330
1F
100
AcDbEntity
  8
STANDARD
100
AcDbLine
 10
0.0
 20
-4.0
 30
0.0
 11
30.0
 21
-4.0
 31
0.0
  0
LINE
  5
222
330
1F
100
AcDbEntity
  8
STANDARD
100
AcDbLine
 10
0.0
 20
0.0
 30
-4.0
 11
30.0
 21
0.0
 31
-4.0
  0
ARC
  5
223
330
1F
100
AcDbEntity
  8
STANDARD
100
AcDbCircle
 10
0.0
 20
0.0
 30
10.25
 40
37.625
210
1.0
220
0.0
230
0.0
100
AcDbArc
 50
10.69831920595185
 51
11.80168079404849
  0
ARC
  5
224
330
1F
100
AcDbEntity
  8
STANDARD
100
AcDbCircle
 10
0.0
 20
0.0
 30
10.25
 40
37.625
210
1.0
220
0.0
230
0.0
100
AcDbArc
 50
18.19831920595189
 51
19.3016807940481
  0
ARC
  5
225
330
1F
100
AcDbEntity
  8
STANDARD
100
AcDbCircle
 10
0.0
 20
0.0
 30
10.25
 40
37.625
210
1.0
220
0.0
230
0.0
100
AcDbArc
 50
25.69831920595179
 51
26.80168079404959
  0
ARC
  5
226
330
1F
100
AcDbEntity
  8
STANDARD
100
AcDbCircle
 10
0.0
 20
0.0
 30
10.25
 40
37.625
210
1.0
220
0.0
230
0.0
100
AcDbArc
 50
33.1983192059519
 51
34.30168079404811
  0
ARC
  5
227
330
1F
100
AcDbEntity
  8
STANDARD
100
AcDbCircle
 10
0.0
 20
0.0
 30
10.25
 40
37.625
210
1.0
220
0.0
230
0.0
100
AcDbArc
 50
48.19831920595186
 51
49.30168079404643
  0
ARC
  5
228
330
1F
100
AcDbEntity
  8
STANDARD
100
AcDbCircle
 10
0.0
 20
0.0
 30
10.25
 40
37.625
210
1.0
220
0.0
230
0.0
100
AcDbArc
 50
40.69831920595182
 51
41.80168079404643
  0
ENDSEC
  0
SECTION
  2
OBJECTS
  0
DICTIONARY
  5
C
330
0
100
AcDbDictionary
281
     1
  3
ACAD_GROUP
350
D
  3
ACAD_LAYOUT
350
1A
  3
ACAD_MLINESTYLE
350
17
  3
ACAD_PLOTSETTINGS
350
19
  3
ACAD_PLOTSTYLENAME
350
E
  0
DICTIONARY
  5
D
102
{ACAD_REACTORS
330
C
102
}
330
C
100
AcDbDictionary
281
     1
  0
DICTIONARY
  5
1A
102
{ACAD_REACTORS
330
C
102
}
330
C
100
AcDbDictionary
281
     1
  3
Layout1
350
1E
  3
Layout2
350
26
  3
Model
350
22
  0
DICTIONARY
  5
17
102
{ACAD_REACTORS
330
C
102
}
330
C
100
AcDbDictionary
281
     1
  3
Standard
350
18
  0
DICTIONARY
  5
19
102
{ACAD_REACTORS
330
C
102
}
330
C
100
AcDbDictionary
281
     1
  0
ACDBDICTIONARYWDFLT
  5
E
102
{ACAD_REACTORS
330
C
102
}
330
C
100
AcDbDictionary
281
     1
  3
Normal
350
F
100
AcDbDictionaryWithDefault
340
F
  0
LAYOUT
  5
1E
102
{ACAD_REACTORS
330
1A
102
}
330
1A
100
AcDbPlotSettings
  1

  2
none_device
  4

  6

 40
0.0
 41
0.0
 42
0.0
 43
0.0
 44
0.0
 45
0.0
 46
0.0
 47
0.0
 48
0.0
 49
0.0
140
0.0
141
0.0
142
1.0
143
1.0
 70
   688
 72
     0
 73
     0
 74
     5
  7

 75
    16
 76
     0
 77
     2
 78
   300
147
1.0
148
0.0
149
0.0
100
AcDbLayout
  1
Layout1
 70
     1
 71
     1
 10
0.0
 20
0.0
 11
12.0
 21
9.0
 12
0.0
 22
0.0
 32
0.0
 14
1.000000000000000E+20
 24
1.000000000000000E+20
 34
1.000000000000000E+20
 15
-1.000000000000000E+20
 25
-1.000000000000000E+20
 35
-1.000000000000000E+20
146
0.0
 13
0.0
 23
0.0
 33
0.0
 16
1.0
 26
0.0
 36
0.0
 17
0.0
 27
1.0
 37
0.0
 76
     0
330
1B
  0
LAYOUT
  5
26
102
{ACAD_REACTORS
330
1A
102
}
330
1A
100
AcDbPlotSettings
  1

  2
none_device
  4

  6

 40
0.0
 41
0.0
 42
0.0
 43
0.0
 44
0.0
 45
0.0
 46
0.0
 47
0.0
 48
0.0
 49
0.0
140
0.0
141
0.0
142
1.0
143
1.0
 70
   688
 72
     0
 73
     0
 74
     5
  7

 75
    16
 76
     0
 77
     2
 78
   300
147
1.0
148
0.0
149
0.0
100
AcDbLayout
  1
Layout2
 70
     1
 71
     2
 10
0.0
 20
0.0
 11
0.0
 21
0.0
 12
0.0
 22
0.0
 32
0.0
 14
0.0
 24
0.0
 34
0.0
 15
0.0
 25
0.0
 35
0.0
146
0.0
 13
0.0
 23
0.0
 33
0.0
 16
1.0
 26
0.0
 36
0.0
 17
0.0
 27
1.0
 37
0.0
 76
     0
330
23
  0
LAYOUT
  5
22
102
{ACAD_REACTORS
330
1A
102
}
330
1A
100
AcDbPlotSettings
  1

  2
none_device
  4

  6

 40
0.0
 41
0.0
 42
0.0
 43
0.0
 44
0.0
 45
0.0
 46
0.0
 47
0.0
 48
0.0
 49
0.0
140
0.0
141
0.0
142
1.0
143
1.0
 70
  1712
 72
     0
 73
     0
 74
     0
  7

 75
     0
 76
     0
 77
     2
 78
   300
147
1.0
148
0.0
149
0.0
100
AcDbLayout
  1
Model
 70
     1
 71
     0
 10
0.0
 20
0.0
 11
12.0
 21
9.0
 12
0.0
 22
0.0
 32
0.0
 14
0.0
 24
-37.56639534883734
 34
-37.56639534883832
 15
30.0
 25
37.56639534883726
 35
37.56639534883723
146
0.0
 13
0.0
 23
0.0
 33
0.0
 16
1.0
 26
0.0
 36
0.0
 17
0.0
 27
1.0
 37
0.0
 76
     0
330
1F
  0
MLINESTYLE
  5
18
102
{ACAD_REACTORS
330
17
102
}
330
17
100
AcDbMlineStyle
  2
Standard
 70
     0
  3

 62
   256
 51
90.0
 52
90.0
 71
     2
 49
0.5
 62
   256
  6
BYLAYER
 49
-0.5
 62
   256
  6
BYLAYER
  0
ACDBPLACEHOLDER
  5
F
102
{ACAD_REACTORS
330
E
102
}
330
E
  0
ENDSEC
  0
EOF
