  999
file created by gear template generator
  0
SECTION
  2
HEADER
  9
$ACADVER
  1
AC1006
  9
$INSBASE
  10
0.0
  20
0.0
  30
0.0
  9
$EXTMIN
  10
0.0
  20
0.0
  9
$EXTMAX
  10
10000.0
  20
10000.0
  0
ENDSEC
  0
SECTION
  2
ENTITIES
  0
LINE
  8
0
  10
14.87625
  20
49.46745
  30
0
  11
14.87625
  21
49.46745
  31
0
  0
LINE
  8
0
  10
14.87625
  20
49.46745
  30
0
  11
14.88899
  21
49.40272
  31
0
  0
LINE
  8
0
  10
14.88899
  20
49.40272
  30
0
  11
14.90889
  21
49.37475
  31
0
  0
LINE
  8
0
  10
14.90889
  20
49.37475
  30
0
  11
14.93008
  21
49.3533
  31
0
  0
LINE
  8
0
  10
14.93008
  20
49.3533
  30
0
  11
14.95199
  21
49.3354
  31
0
  0
LINE
  8
0
  10
14.95199
  20
49.3354
  30
0
  11
14.97438
  21
49.3199
  31
0
  0
LINE
  8
0
  10
14.97438
  20
49.3199
  30
0
  11
15.02018
  21
49.29388
  31
0
  0
LINE
  8
0
  10
15.02018
  20
49.29388
  30
0
  11
15.06699
  21
49.27264
  31
0
  0
LINE
  8
0
  10
15.06699
  20
49.27264
  30
0
  11
15.11456
  21
49.25495
  31
0
  0
LINE
  8
0
  10
15.11456
  20
49.25495
  30
0
  11
15.16272
  21
49.23998
  31
0
  0
LINE
  8
0
  10
15.16272
  20
49.23998
  30
0
  11
15.25775
  21
49.20427
  31
0
  0
LINE
  8
0
  10
15.25775
  20
49.20427
  30
0
  11
15.35094
  21
49.16044
  31
0
  0
LINE
  8
0
  10
15.35094
  20
49.16044
  30
0
  11
15.44267
  21
49.11056
  31
0
  0
LINE
  8
0
  10
15.44267
  20
49.11056
  30
0
  11
15.5331
  21
49.05553
  31
0
  0
LINE
  8
0
  10
15.5331
  20
49.05553
  30
0
  11
15.62227
  21
48.99588
  31
0
  0
LINE
  8
0
  10
15.62227
  20
48.99588
  30
0
  11
15.71021
  21
48.93195
  31
0
  0
LINE
  8
0
  10
15.71021
  20
48.93195
  30
0
  11
15.79692
  21
48.864
  31
0
  0
LINE
  8
0
  10
15.79692
  20
48.864
  30
0
  11
15.88239
  21
48.79225
  31
0
  0
LINE
  8
0
  10
15.88239
  20
48.79225
  30
0
  11
15.96658
  21
48.71685
  31
0
  0
LINE
  8
0
  10
15.96658
  20
48.71685
  30
0
  11
16.04948
  21
48.63793
  31
0
  0
LINE
  8
0
  10
16.04948
  20
48.63793
  30
0
  11
16.13105
  21
48.55561
  31
0
  0
LINE
  8
0
  10
16.13105
  20
48.55561
  30
0
  11
16.19133
  21
48.4917
  31
0
  0
LINE
  8
0
  10
16.19133
  20
48.4917
  30
0
  11
15.87938
  21
47.5959
  31
0
  0
LINE
  8
0
  10
15.87938
  20
47.5959
  30
0
  11
15.79244
  21
47.58325
  31
0
  0
LINE
  8
0
  10
15.79244
  20
47.58325
  30
0
  11
15.67738
  21
47.5694
  31
0
  0
LINE
  8
0
  10
15.67738
  20
47.5694
  30
0
  11
15.56339
  21
47.55905
  31
0
  0
LINE
  8
0
  10
15.56339
  20
47.55905
  30
0
  11
15.45057
  21
47.55225
  31
0
  0
LINE
  8
0
  10
15.45057
  20
47.55225
  30
0
  11
15.33903
  21
47.54911
  31
0
  0
LINE
  8
0
  10
15.33903
  20
47.54911
  30
0
  11
15.22887
  21
47.54972
  31
0
  0
LINE
  8
0
  10
15.22887
  20
47.54972
  30
0
  11
15.12025
  21
47.55425
  31
0
  0
LINE
  8
0
  10
15.12025
  20
47.55425
  30
0
  11
15.0133
  21
47.56288
  31
0
  0
LINE
  8
0
  10
15.0133
  20
47.56288
  30
0
  11
14.90826
  21
47.57592
  31
0
  0
LINE
  8
0
  10
14.90826
  20
47.57592
  30
0
  11
14.80538
  21
47.59382
  31
0
  0
LINE
  8
0
  10
14.80538
  20
47.59382
  30
0
  11
14.70513
  21
47.61735
  31
0
  0
LINE
  8
0
  10
14.70513
  20
47.61735
  30
0
  11
14.60847
  21
47.6484
  31
0
  0
LINE
  8
0
  10
14.60847
  20
47.6484
  30
0
  11
14.56143
  21
47.66658
  31
0
  0
LINE
  8
0
  10
14.56143
  20
47.66658
  30
0
  11
14.51316
  21
47.68226
  31
0
  0
LINE
  8
0
  10
14.51316
  20
47.68226
  30
0
  11
14.46328
  21
47.69469
  31
0
  0
LINE
  8
0
  10
14.46328
  20
47.69469
  30
0
  11
14.41123
  21
47.70275
  31
0
  0
LINE
  8
0
  10
14.41123
  20
47.70275
  30
0
  11
14.38405
  21
47.70451
  31
0
  0
LINE
  8
0
  10
14.38405
  20
47.70451
  30
0
  11
14.35577
  21
47.70409
  31
0
  0
LINE
  8
0
  10
14.35577
  20
47.70409
  30
0
  11
14.32584
  21
47.70044
  31
0
  0
LINE
  8
0
  10
14.32584
  20
47.70044
  30
0
  11
14.29287
  21
47.69088
  31
0
  0
LINE
  8
0
  10
14.29287
  20
47.69088
  30
0
  11
14.24268
  21
47.64807
  31
0
  0
LINE
  8
0
  10
14.24268
  20
47.64807
  30
0
  11
13.78055
  21
46.885
  31
0
  0
LINE
  8
0
  10
13.78055
  20
46.885
  30
0
  11
13.76586
  21
46.82069
  31
0
  0
LINE
  8
0
  10
13.76586
  20
46.82069
  30
0
  11
13.77266
  21
46.78704
  31
0
  0
LINE
  8
0
  10
13.77266
  20
46.78704
  30
0
  11
13.78329
  21
46.75882
  31
0
  0
LINE
  8
0
  10
13.78329
  20
46.75882
  30
0
  11
13.79603
  21
46.73356
  31
0
  0
LINE
  8
0
  10
13.79603
  20
46.73356
  30
0
  11
13.81017
  21
46.7103
  31
0
  0
LINE
  8
0
  10
13.81017
  20
46.7103
  30
0
  11
13.84144
  21
46.6679
  31
0
  0
LINE
  8
0
  10
13.84144
  20
46.6679
  30
0
  11
13.87556
  21
46.62946
  31
0
  0
LINE
  8
0
  10
13.87556
  20
46.62946
  30
0
  11
13.91182
  21
46.59395
  31
0
  0
LINE
  8
0
  10
13.91182
  20
46.59395
  30
0
  11
13.94972
  21
46.56068
  31
0
  0
LINE
  8
0
  10
13.94972
  20
46.56068
  30
0
  11
14.02202
  21
46.48941
  31
0
  0
LINE
  8
0
  10
14.02202
  20
46.48941
  30
0
  11
14.08932
  21
46.41146
  31
0
  0
LINE
  8
0
  10
14.08932
  20
46.41146
  30
0
  11
14.15284
  21
46.32859
  31
0
  0
LINE
  8
0
  10
14.15284
  20
46.32859
  30
0
  11
14.21307
  21
46.24153
  31
0
  0
LINE
  8
0
  10
14.21307
  20
46.24153
  30
0
  11
14.27027
  21
46.15076
  31
0
  0
LINE
  8
0
  10
14.27027
  20
46.15076
  30
0
  11
14.3246
  21
46.05659
  31
0
  0
LINE
  8
0
  10
14.3246
  20
46.05659
  30
0
  11
14.37618
  21
45.95926
  31
0
  0
LINE
  8
0
  10
14.37618
  20
45.95926
  30
0
  11
14.42507
  21
45.85895
  31
0
  0
LINE
  8
0
  10
14.42507
  20
45.85895
  30
0
  11
14.47132
  21
45.75582
  31
0
  0
LINE
  8
0
  10
14.47132
  20
45.75582
  30
0
  11
14.51495
  21
45.65001
  31
0
  0
LINE
  8
0
  10
14.51495
  20
45.65001
  30
0
  11
14.55599
  21
45.54162
  31
0
  0
LINE
  8
0
  10
14.55599
  20
45.54162
  30
0
  11
14.58506
  21
45.45872
  31
0
  0
LINE
  8
0
  10
14.58506
  20
45.45872
  30
0
  11
13.93572
  21
44.76724
  31
0
  0
LINE
  8
0
  10
13.93572
  20
44.76724
  30
0
  11
13.85115
  21
44.79105
  31
0
  0
LINE
  8
0
  10
13.85115
  20
44.79105
  30
0
  11
13.74041
  21
44.8252
  31
0
  0
LINE
  8
0
  10
13.74041
  20
44.8252
  30
0
  11
13.63206
  21
44.8621
  31
0
  0
LINE
  8
0
  10
13.63206
  20
44.8621
  30
0
  11
13.52624
  21
44.90178
  31
0
  0
LINE
  8
0
  10
13.52624
  20
44.90178
  30
0
  11
13.42306
  21
44.94428
  31
0
  0
LINE
  8
0
  10
13.42306
  20
44.94428
  30
0
  11
13.32267
  21
44.98965
  31
0
  0
LINE
  8
0
  10
13.32267
  20
44.98965
  30
0
  11
13.22528
  21
45.03796
  31
0
  0
LINE
  8
0
  10
13.22528
  20
45.03796
  30
0
  11
13.13109
  21
45.08935
  31
0
  0
LINE
  8
0
  10
13.13109
  20
45.08935
  30
0
  11
13.04043
  21
45.14399
  31
0
  0
LINE
  8
0
  10
13.04043
  20
45.14399
  30
0
  11
12.95373
  21
45.20218
  31
0
  0
LINE
  8
0
  10
12.95373
  20
45.20218
  30
0
  11
12.87171
  21
45.26445
  31
0
  0
LINE
  8
0
  10
12.87171
  20
45.26445
  30
0
  11
12.79604
  21
45.33213
  31
0
  0
LINE
  8
0
  10
12.79604
  20
45.33213
  30
0
  11
12.76046
  21
45.36787
  31
0
  0
LINE
  8
0
  10
12.76046
  20
45.36787
  30
0
  11
12.72274
  21
45.40183
  31
0
  0
LINE
  8
0
  10
12.72274
  20
45.40183
  30
0
  11
12.68224
  21
45.43347
  31
0
  0
LINE
  8
0
  10
12.68224
  20
45.43347
  30
0
  11
12.63796
  21
45.46201
  31
0
  0
LINE
  8
0
  10
12.63796
  20
45.46201
  30
0
  11
12.61385
  21
45.47467
  31
0
  0
LINE
  8
0
  10
12.61385
  20
45.47467
  30
0
  11
12.58784
  21
45.48579
  31
0
  0
LINE
  8
0
  10
12.58784
  20
45.48579
  30
0
  11
12.55901
  21
45.49463
  31
0
  0
LINE
  8
0
  10
12.55901
  20
45.49463
  30
0
  11
12.525
  21
45.49931
  31
0
  0
LINE
  8
0
  10
12.525
  20
45.49931
  30
0
  11
12.46174
  21
45.48061
  31
0
  0
LINE
  8
0
  10
12.46174
  20
45.48061
  30
0
  11
11.72919
  21
44.97148
  31
0
  0
LINE
  8
0
  10
11.72919
  20
44.97148
  30
0
  11
11.68962
  21
44.9187
  31
0
  0
LINE
  8
0
  10
11.68962
  20
44.9187
  30
0
  11
11.68215
  21
44.8852
  31
0
  0
LINE
  8
0
  10
11.68215
  20
44.8852
  30
0
  11
11.68038
  21
44.85509
  31
0
  0
LINE
  8
0
  10
11.68038
  20
44.85509
  30
0
  11
11.68174
  21
44.82684
  31
0
  0
LINE
  8
0
  10
11.68174
  20
44.82684
  30
0
  11
11.6852
  21
44.79983
  31
0
  0
LINE
  8
0
  10
11.6852
  20
44.79983
  30
0
  11
11.69652
  21
44.74838
  31
0
  0
LINE
  8
0
  10
11.69652
  20
44.74838
  30
0
  11
11.71205
  21
44.69938
  31
0
  0
LINE
  8
0
  10
11.71205
  20
44.69938
  30
0
  11
11.73074
  21
44.65219
  31
0
  0
LINE
  8
0
  10
11.73074
  20
44.65219
  30
0
  11
11.75183
  21
44.60639
  31
0
  0
LINE
  8
0
  10
11.75183
  20
44.60639
  30
0
  11
11.78889
  21
44.51187
  31
0
  0
LINE
  8
0
  10
11.78889
  20
44.51187
  30
0
  11
11.81867
  21
44.41329
  31
0
  0
LINE
  8
0
  10
11.81867
  20
44.41329
  30
0
  11
11.84299
  21
44.31174
  31
0
  0
LINE
  8
0
  10
11.84299
  20
44.31174
  30
0
  11
11.8626
  21
44.20772
  31
0
  0
LINE
  8
0
  10
11.8626
  20
44.20772
  30
0
  11
11.87793
  21
44.10153
  31
0
  0
LINE
  8
0
  10
11.87793
  20
44.10153
  30
0
  11
11.88927
  21
43.9934
  31
0
  0
LINE
  8
0
  10
11.88927
  20
43.9934
  30
0
  11
11.8968
  21
43.8835
  31
0
  0
LINE
  8
0
  10
11.8968
  20
43.8835
  30
0
  11
11.90066
  21
43.77198
  31
0
  0
LINE
  8
0
  10
11.90066
  20
43.77198
  30
0
  11
11.90097
  21
43.65896
  31
0
  0
LINE
  8
0
  10
11.90097
  20
43.65896
  30
0
  11
11.89779
  21
43.54455
  31
0
  0
LINE
  8
0
  10
11.89779
  20
43.54455
  30
0
  11
11.89119
  21
43.42885
  31
0
  0
LINE
  8
0
  10
11.89119
  20
43.42885
  30
0
  11
11.88403
  21
43.34128
  31
0
  0
LINE
  8
0
  10
11.88403
  20
43.34128
  30
0
  11
11.00959
  21
42.9737
  31
0
  0
LINE
  8
0
  10
11.00959
  20
42.9737
  30
0
  11
10.94201
  21
43.02985
  31
0
  0
LINE
  8
0
  10
10.94201
  20
43.02985
  30
0
  11
10.85473
  21
43.10609
  31
0
  0
LINE
  8
0
  10
10.85473
  20
43.10609
  30
0
  11
10.77076
  21
43.18386
  31
0
  0
LINE
  8
0
  10
10.77076
  20
43.18386
  30
0
  11
10.69022
  21
43.26316
  31
0
  0
LINE
  8
0
  10
10.69022
  20
43.26316
  30
0
  11
10.61325
  21
43.34395
  31
0
  0
LINE
  8
0
  10
10.61325
  20
43.34395
  30
0
  11
10.54
  21
43.42622
  31
0
  0
LINE
  8
0
  10
10.54
  20
43.42622
  30
0
  11
10.47067
  21
43.50998
  31
0
  0
LINE
  8
0
  10
10.47067
  20
43.50998
  30
0
  11
10.40553
  21
43.59523
  31
0
  0
LINE
  8
0
  10
10.40553
  20
43.59523
  30
0
  11
10.34493
  21
43.68202
  31
0
  0
LINE
  8
0
  10
10.34493
  20
43.68202
  30
0
  11
10.28939
  21
43.77044
  31
0
  0
LINE
  8
0
  10
10.28939
  20
43.77044
  30
0
  11
10.2398
  21
43.86069
  31
0
  0
LINE
  8
0
  10
10.2398
  20
43.86069
  30
0
  11
10.1982
  21
43.9533
  31
0
  0
LINE
  8
0
  10
10.1982
  20
43.9533
  30
0
  11
10.18023
  21
44.00042
  31
0
  0
LINE
  8
0
  10
10.18023
  20
44.00042
  30
0
  11
10.15958
  21
44.04678
  31
0
  0
LINE
  8
0
  10
10.15958
  20
44.04678
  30
0
  11
10.13545
  21
44.09217
  31
0
  0
LINE
  8
0
  10
10.13545
  20
44.09217
  30
0
  11
10.10661
  21
44.13625
  31
0
  0
LINE
  8
0
  10
10.10661
  20
44.13625
  30
0
  11
10.08973
  21
44.15762
  31
0
  0
LINE
  8
0
  10
10.08973
  20
44.15762
  30
0
  11
10.07049
  21
44.17836
  31
0
  0
LINE
  8
0
  10
10.07049
  20
44.17836
  30
0
  11
10.04775
  21
44.19816
  31
0
  0
LINE
  8
0
  10
10.04775
  20
44.19816
  30
0
  11
10.01859
  21
44.21626
  31
0
  0
LINE
  8
0
  10
10.01859
  20
44.21626
  30
0
  11
9.95319
  21
44.22491
  31
0
  0
LINE
  8
0
  10
9.95319
  20
44.22491
  30
0
  11
9.07689
  21
44.05775
  31
0
  0
LINE
  8
0
  10
9.07689
  20
44.05775
  30
0
  11
9.01927
  21
44.02563
  31
0
  0
LINE
  8
0
  10
9.01927
  20
44.02563
  30
0
  11
8.99882
  21
43.99806
  31
0
  0
LINE
  8
0
  10
8.99882
  20
43.99806
  30
0
  11
8.98496
  21
43.97128
  31
0
  0
LINE
  8
0
  10
8.98496
  20
43.97128
  30
0
  11
8.97471
  21
43.94492
  31
0
  0
LINE
  8
0
  10
8.97471
  20
43.94492
  30
0
  11
8.96688
  21
43.91884
  31
0
  0
LINE
  8
0
  10
8.96688
  20
43.91884
  30
0
  11
8.9563
  21
43.86723
  31
0
  0
LINE
  8
0
  10
8.9563
  20
43.86723
  30
0
  11
8.95056
  21
43.81615
  31
0
  0
LINE
  8
0
  10
8.95056
  20
43.81615
  30
0
  11
8.94843
  21
43.76544
  31
0
  0
LINE
  8
0
  10
8.94843
  20
43.76544
  30
0
  11
8.94907
  21
43.71502
  31
0
  0
LINE
  8
0
  10
8.94907
  20
43.71502
  30
0
  11
8.94448
  21
43.6136
  31
0
  0
LINE
  8
0
  10
8.94448
  20
43.6136
  30
0
  11
8.9316
  21
43.51143
  31
0
  0
LINE
  8
0
  10
8.9316
  20
43.51143
  30
0
  11
8.91251
  21
43.40877
  31
0
  0
LINE
  8
0
  10
8.91251
  20
43.40877
  30
0
  11
8.88811
  21
43.30576
  31
0
  0
LINE
  8
0
  10
8.88811
  20
43.30576
  30
0
  11
8.85893
  21
43.20252
  31
0
  0
LINE
  8
0
  10
8.85893
  20
43.20252
  30
0
  11
8.82531
  21
43.09913
  31
0
  0
LINE
  8
0
  10
8.82531
  20
43.09913
  30
0
  11
8.78749
  21
42.99567
  31
0
  0
LINE
  8
0
  10
8.78749
  20
42.99567
  30
0
  11
8.74566
  21
42.89221
  31
0
  0
LINE
  8
0
  10
8.74566
  20
42.89221
  30
0
  11
8.69996
  21
42.78884
  31
0
  0
LINE
  8
0
  10
8.69996
  20
42.78884
  30
0
  11
8.65052
  21
42.68561
  31
0
  0
LINE
  8
0
  10
8.65052
  20
42.68561
  30
0
  11
8.59744
  21
42.5826
  31
0
  0
LINE
  8
0
  10
8.59744
  20
42.5826
  30
0
  11
8.55528
  21
42.50551
  31
0
  0
LINE
  8
0
  10
8.55528
  20
42.50551
  30
0
  11
7.60693
  21
42.52538
  31
0
  0
LINE
  8
0
  10
7.60693
  20
42.52538
  30
0
  11
7.56803
  21
42.60416
  31
0
  0
LINE
  8
0
  10
7.56803
  20
42.60416
  30
0
  11
7.5193
  21
42.70931
  31
0
  0
LINE
  8
0
  10
7.5193
  20
42.70931
  30
0
  11
7.47423
  21
42.81451
  31
0
  0
LINE
  8
0
  10
7.47423
  20
42.81451
  30
0
  11
7.43291
  21
42.91971
  31
0
  0
LINE
  8
0
  10
7.43291
  20
42.91971
  30
0
  11
7.39545
  21
43.02483
  31
0
  0
LINE
  8
0
  10
7.39545
  20
43.02483
  30
0
  11
7.36199
  21
43.12978
  31
0
  0
LINE
  8
0
  10
7.36199
  20
43.12978
  30
0
  11
7.33273
  21
43.23449
  31
0
  0
LINE
  8
0
  10
7.33273
  20
43.23449
  30
0
  11
7.30789
  21
43.33886
  31
0
  0
LINE
  8
0
  10
7.30789
  20
43.33886
  30
0
  11
7.28783
  21
43.4428
  31
0
  0
LINE
  8
0
  10
7.28783
  20
43.4428
  30
0
  11
7.27306
  21
43.54617
  31
0
  0
LINE
  8
0
  10
7.27306
  20
43.54617
  30
0
  11
7.26446
  21
43.64879
  31
0
  0
LINE
  8
0
  10
7.26446
  20
43.64879
  30
0
  11
7.26412
  21
43.75031
  31
0
  0
LINE
  8
0
  10
7.26412
  20
43.75031
  30
0
  11
7.26687
  21
43.80067
  31
0
  0
LINE
  8
0
  10
7.26687
  20
43.80067
  30
0
  11
7.26687
  21
43.85142
  31
0
  0
LINE
  8
0
  10
7.26687
  20
43.85142
  30
0
  11
7.26328
  21
43.9027
  31
0
  0
LINE
  8
0
  10
7.26328
  20
43.9027
  30
0
  11
7.25486
  21
43.9547
  31
0
  0
LINE
  8
0
  10
7.25486
  20
43.9547
  30
0
  11
7.24814
  21
43.98109
  31
0
  0
LINE
  8
0
  10
7.24814
  20
43.98109
  30
0
  11
7.239
  21
44.00785
  31
0
  0
LINE
  8
0
  10
7.239
  20
44.00785
  30
0
  11
7.22628
  21
44.03519
  31
0
  0
LINE
  8
0
  10
7.22628
  20
44.03519
  30
0
  11
7.207
  21
44.0636
  31
0
  0
LINE
  8
0
  10
7.207
  20
44.0636
  30
0
  11
7.15077
  21
44.0981
  31
0
  0
LINE
  8
0
  10
7.15077
  20
44.0981
  30
0
  11
6.28225
  21
44.30181
  31
0
  0
LINE
  8
0
  10
6.28225
  20
44.30181
  30
0
  11
6.21654
  21
44.2959
  31
0
  0
LINE
  8
0
  10
6.21654
  20
44.2959
  30
0
  11
6.18664
  21
44.27904
  31
0
  0
LINE
  8
0
  10
6.18664
  20
44.27904
  30
0
  11
6.16309
  21
44.2602
  31
0
  0
LINE
  8
0
  10
6.16309
  20
44.2602
  30
0
  11
6.143
  21
44.24029
  31
0
  0
LINE
  8
0
  10
6.143
  20
44.24029
  30
0
  11
6.12525
  21
44.21965
  31
0
  0
LINE
  8
0
  10
6.12525
  20
44.21965
  30
0
  11
6.09459
  21
44.17681
  31
0
  0
LINE
  8
0
  10
6.09459
  20
44.17681
  30
0
  11
6.06857
  21
44.13248
  31
0
  0
LINE
  8
0
  10
6.06857
  20
44.13248
  30
0
  11
6.046
  21
44.08702
  31
0
  0
LINE
  8
0
  10
6.046
  20
44.08702
  30
0
  11
6.02608
  21
44.04069
  31
0
  0
LINE
  8
0
  10
6.02608
  20
44.04069
  30
0
  11
5.98063
  21
43.94991
  31
0
  0
LINE
  8
0
  10
5.98063
  20
43.94991
  30
0
  11
5.9273
  21
43.86182
  31
0
  0
LINE
  8
0
  10
5.9273
  20
43.86182
  30
0
  11
5.86811
  21
43.77579
  31
0
  0
LINE
  8
0
  10
5.86811
  20
43.77579
  30
0
  11
5.80393
  21
43.69162
  31
0
  0
LINE
  8
0
  10
5.80393
  20
43.69162
  30
0
  11
5.73528
  21
43.60917
  31
0
  0
LINE
  8
0
  10
5.73528
  20
43.60917
  30
0
  11
5.6625
  21
43.52839
  31
0
  0
LINE
  8
0
  10
5.6625
  20
43.52839
  30
0
  11
5.58587
  21
43.44926
  31
0
  0
LINE
  8
0
  10
5.58587
  20
43.44926
  30
0
  11
5.50558
  21
43.37176
  31
0
  0
LINE
  8
0
  10
5.50558
  20
43.37176
  30
0
  11
5.42179
  21
43.29591
  31
0
  0
LINE
  8
0
  10
5.42179
  20
43.29591
  30
0
  11
5.33464
  21
43.22171
  31
0
  0
LINE
  8
0
  10
5.33464
  20
43.22171
  30
0
  11
5.24424
  21
43.1492
  31
0
  0
LINE
  8
0
  10
5.24424
  20
43.1492
  30
0
  11
5.17438
  21
43.09593
  31
0
  0
LINE
  8
0
  10
5.17438
  20
43.09593
  30
0
  11
4.31609
  21
43.4998
  31
0
  0
LINE
  8
0
  10
4.31609
  20
43.4998
  30
0
  11
4.3126
  21
43.58759
  31
0
  0
LINE
  8
0
  10
4.3126
  20
43.58759
  30
0
  11
4.31086
  21
43.70347
  31
0
  0
LINE
  8
0
  10
4.31086
  20
43.70347
  30
0
  11
4.31247
  21
43.81792
  31
0
  0
LINE
  8
0
  10
4.31247
  20
43.81792
  30
0
  11
4.31751
  21
43.93083
  31
0
  0
LINE
  8
0
  10
4.31751
  20
43.93083
  30
0
  11
4.32604
  21
44.04209
  31
0
  0
LINE
  8
0
  10
4.32604
  20
44.04209
  30
0
  11
4.33817
  21
44.15158
  31
0
  0
LINE
  8
0
  10
4.33817
  20
44.15158
  30
0
  11
4.35402
  21
44.25914
  31
0
  0
LINE
  8
0
  10
4.35402
  20
44.25914
  30
0
  11
4.37379
  21
44.36459
  31
0
  0
LINE
  8
0
  10
4.37379
  20
44.36459
  30
0
  11
4.39774
  21
44.4677
  31
0
  0
LINE
  8
0
  10
4.39774
  20
44.4677
  30
0
  11
4.42629
  21
44.56814
  31
0
  0
LINE
  8
0
  10
4.42629
  20
44.56814
  30
0
  11
4.46017
  21
44.66539
  31
0
  0
LINE
  8
0
  10
4.46017
  20
44.66539
  30
0
  11
4.50115
  21
44.75827
  31
0
  0
LINE
  8
0
  10
4.50115
  20
44.75827
  30
0
  11
4.52415
  21
44.80315
  31
0
  0
LINE
  8
0
  10
4.52415
  20
44.80315
  30
0
  11
4.54479
  21
44.84952
  31
0
  0
LINE
  8
0
  10
4.54479
  20
44.84952
  30
0
  11
4.56236
  21
44.89782
  31
0
  0
LINE
  8
0
  10
4.56236
  20
44.89782
  30
0
  11
4.57583
  21
44.94875
  31
0
  0
LINE
  8
0
  10
4.57583
  20
44.94875
  30
0
  11
4.58041
  21
44.97559
  31
0
  0
LINE
  8
0
  10
4.58041
  20
44.97559
  30
0
  11
4.58295
  21
45.00376
  31
0
  0
LINE
  8
0
  10
4.58295
  20
45.00376
  30
0
  11
4.58245
  21
45.03391
  31
0
  0
LINE
  8
0
  10
4.58245
  20
45.03391
  30
0
  11
4.57639
  21
45.0677
  31
0
  0
LINE
  8
0
  10
4.57639
  20
45.0677
  30
0
  11
4.53906
  21
45.12209
  31
0
  0
LINE
  8
0
  10
4.53906
  20
45.12209
  30
0
  11
3.82848
  21
45.66145
  31
0
  0
LINE
  8
0
  10
3.82848
  20
45.66145
  30
0
  11
3.76605
  21
45.68278
  31
0
  0
LINE
  8
0
  10
3.76605
  20
45.68278
  30
0
  11
3.73188
  21
45.67953
  31
0
  0
LINE
  8
0
  10
3.73188
  20
45.67953
  30
0
  11
3.7027
  21
45.67191
  31
0
  0
LINE
  8
0
  10
3.7027
  20
45.67191
  30
0
  11
3.67625
  21
45.66189
  31
0
  0
LINE
  8
0
  10
3.67625
  20
45.66189
  30
0
  11
3.65163
  21
45.65025
  31
0
  0
LINE
  8
0
  10
3.65163
  20
45.65025
  30
0
  11
3.6062
  21
45.62359
  31
0
  0
LINE
  8
0
  10
3.6062
  20
45.62359
  30
0
  11
3.5644
  21
45.59367
  31
0
  0
LINE
  8
0
  10
3.5644
  20
45.59367
  30
0
  11
3.52529
  21
45.56132
  31
0
  0
LINE
  8
0
  10
3.52529
  20
45.56132
  30
0
  11
3.48825
  21
45.5271
  31
0
  0
LINE
  8
0
  10
3.48825
  20
45.5271
  30
0
  11
3.40981
  21
45.46265
  31
0
  0
LINE
  8
0
  10
3.40981
  20
45.46265
  30
0
  11
3.32526
  21
45.40387
  31
0
  0
LINE
  8
0
  10
3.32526
  20
45.40387
  30
0
  11
3.23619
  21
45.34936
  31
0
  0
LINE
  8
0
  10
3.23619
  20
45.34936
  30
0
  11
3.14332
  21
45.29856
  31
0
  0
LINE
  8
0
  10
3.14332
  20
45.29856
  30
0
  11
3.04707
  21
45.25117
  31
0
  0
LINE
  8
0
  10
3.04707
  20
45.25117
  30
0
  11
2.94774
  21
45.20697
  31
0
  0
LINE
  8
0
  10
2.94774
  20
45.20697
  30
0
  11
2.84554
  21
45.16585
  31
0
  0
LINE
  8
0
  10
2.84554
  20
45.16585
  30
0
  11
2.74067
  21
45.12771
  31
0
  0
LINE
  8
0
  10
2.74067
  20
45.12771
  30
0
  11
2.63328
  21
45.0925
  31
0
  0
LINE
  8
0
  10
2.63328
  20
45.0925
  30
0
  11
2.52348
  21
45.06016
  31
0
  0
LINE
  8
0
  10
2.52348
  20
45.06016
  30
0
  11
2.4114
  21
45.03068
  31
0
  0
LINE
  8
0
  10
2.4114
  20
45.03068
  30
0
  11
2.32591
  21
45.01043
  31
0
  0
LINE
  8
0
  10
2.32591
  20
45.01043
  30
0
  11
1.7061
  21
45.72849
  31
0
  0
LINE
  8
0
  10
1.7061
  20
45.72849
  30
0
  11
1.73862
  21
45.81011
  31
0
  0
LINE
  8
0
  10
1.73862
  20
45.81011
  30
0
  11
1.78416
  21
45.91668
  31
0
  0
LINE
  8
0
  10
1.78416
  20
45.91668
  30
0
  11
1.83218
  21
46.02057
  31
0
  0
LINE
  8
0
  10
1.83218
  20
46.02057
  30
0
  11
1.88271
  21
46.12167
  31
0
  0
LINE
  8
0
  10
1.88271
  20
46.12167
  30
0
  11
1.93576
  21
46.21985
  31
0
  0
LINE
  8
0
  10
1.93576
  20
46.21985
  30
0
  11
1.99137
  21
46.31494
  31
0
  0
LINE
  8
0
  10
1.99137
  20
46.31494
  30
0
  11
2.0496
  21
46.40675
  31
0
  0
LINE
  8
0
  10
2.0496
  20
46.40675
  30
0
  11
2.11055
  21
46.49504
  31
0
  0
LINE
  8
0
  10
2.11055
  20
46.49504
  30
0
  11
2.17437
  21
46.5795
  31
0
  0
LINE
  8
0
  10
2.17437
  20
46.5795
  30
0
  11
2.2413
  21
46.65964
  31
0
  0
LINE
  8
0
  10
2.2413
  20
46.65964
  30
0
  11
2.31181
  21
46.7347
  31
0
  0
LINE
  8
0
  10
2.31181
  20
46.7347
  30
0
  11
2.38702
  21
46.80288
  31
0
  0
LINE
  8
0
  10
2.38702
  20
46.80288
  30
0
  11
2.42629
  21
46.83453
  31
0
  0
LINE
  8
0
  10
2.42629
  20
46.83453
  30
0
  11
2.464
  21
46.86849
  31
0
  0
LINE
  8
0
  10
2.464
  20
46.86849
  30
0
  11
2.49971
  21
46.90547
  31
0
  0
LINE
  8
0
  10
2.49971
  20
46.90547
  30
0
  11
2.53272
  21
46.94652
  31
0
  0
LINE
  8
0
  10
2.53272
  20
46.94652
  30
0
  11
2.54783
  21
46.96918
  31
0
  0
LINE
  8
0
  10
2.54783
  20
46.96918
  30
0
  11
2.5616
  21
46.99388
  31
0
  0
LINE
  8
0
  10
2.5616
  20
46.99388
  30
0
  11
2.57341
  21
47.02163
  31
0
  0
LINE
  8
0
  10
2.57341
  20
47.02163
  30
0
  11
2.58162
  21
47.05496
  31
0
  0
LINE
  8
0
  10
2.58162
  20
47.05496
  30
0
  11
2.56963
  21
47.11983
  31
0
  0
LINE
  8
0
  10
2.56963
  20
47.11983
  30
0
  11
2.13986
  21
47.90158
  31
0
  0
LINE
  8
0
  10
2.13986
  20
47.90158
  30
0
  11
2.09151
  21
47.94646
  31
0
  0
LINE
  8
0
  10
2.09151
  20
47.94646
  30
0
  11
2.05897
  21
47.95739
  31
0
  0
LINE
  8
0
  10
2.05897
  20
47.95739
  30
0
  11
2.02922
  21
47.96229
  31
0
  0
LINE
  8
0
  10
2.02922
  20
47.96229
  30
0
  11
2.00098
  21
47.9639
  31
0
  0
LINE
  8
0
  10
2.00098
  20
47.9639
  30
0
  11
1.97375
  21
47.96328
  31
0
  0
LINE
  8
0
  10
1.97375
  20
47.96328
  30
0
  11
1.9214
  21
47.9574
  31
0
  0
LINE
  8
0
  10
1.9214
  20
47.9574
  30
0
  11
1.87105
  21
47.94707
  31
0
  0
LINE
  8
0
  10
1.87105
  20
47.94707
  30
0
  11
1.82217
  21
47.93343
  31
0
  0
LINE
  8
0
  10
1.82217
  20
47.93343
  30
0
  11
1.7744
  21
47.91723
  31
0
  0
LINE
  8
0
  10
1.7744
  20
47.91723
  30
0
  11
1.67653
  21
47.89026
  31
0
  0
LINE
  8
0
  10
1.67653
  20
47.89026
  30
0
  11
1.57538
  21
47.87095
  31
0
  0
LINE
  8
0
  10
1.57538
  20
47.87095
  30
0
  11
1.47185
  21
47.85738
  31
0
  0
LINE
  8
0
  10
1.47185
  20
47.85738
  30
0
  11
1.36635
  21
47.84874
  31
0
  0
LINE
  8
0
  10
1.36635
  20
47.84874
  30
0
  11
1.25914
  21
47.84459
  31
0
  0
LINE
  8
0
  10
1.25914
  20
47.84459
  30
0
  11
1.15041
  21
47.84462
  31
0
  0
LINE
  8
0
  10
1.15041
  20
47.84462
  30
0
  11
1.04033
  21
47.84862
  31
0
  0
LINE
  8
0
  10
1.04033
  20
47.84862
  30
0
  11
0.92901
  21
47.85644
  31
0
  0
LINE
  8
0
  10
0.92901
  20
47.85644
  30
0
  11
0.81658
  21
47.86795
  31
0
  0
LINE
  8
0
  10
0.81658
  20
47.86795
  30
0
  11
0.70312
  21
47.88307
  31
0
  0
LINE
  8
0
  10
0.70312
  20
47.88307
  30
0
  11
0.58875
  21
47.90172
  31
0
  0
LINE
  8
0
  10
0.58875
  20
47.90172
  30
0
  11
0.50241
  21
47.918
  31
0
  0
LINE
  8
0
  10
0.50241
  20
47.918
  30
0
  11
0.22824
  21
48.82608
  31
0
  0
LINE
  8
0
  10
0.22824
  20
48.82608
  30
0
  11
0.29115
  21
48.88741
  31
0
  0
LINE
  8
0
  10
0.29115
  20
48.88741
  30
0
  11
0.37609
  21
48.96625
  31
0
  0
LINE
  8
0
  10
0.37609
  20
48.96625
  30
0
  11
0.46223
  21
49.04162
  31
0
  0
LINE
  8
0
  10
0.46223
  20
49.04162
  30
0
  11
0.5495
  21
49.11343
  31
0
  0
LINE
  8
0
  10
0.5495
  20
49.11343
  30
0
  11
0.6379
  21
49.18154
  31
0
  0
LINE
  8
0
  10
0.6379
  20
49.18154
  30
0
  11
0.72738
  21
49.24579
  31
0
  0
LINE
  8
0
  10
0.72738
  20
49.24579
  30
0
  11
0.81792
  21
49.30598
  31
0
  0
LINE
  8
0
  10
0.81792
  20
49.30598
  30
0
  11
0.90951
  21
49.36185
  31
0
  0
LINE
  8
0
  10
0.90951
  20
49.36185
  30
0
  11
1.00216
  21
49.41305
  31
0
  0
LINE
  8
0
  10
1.00216
  20
49.41305
  30
0
  11
1.09591
  21
49.45904
  31
0
  0
LINE
  8
0
  10
1.09591
  20
49.45904
  30
0
  11
1.19085
  21
49.49893
  31
0
  0
LINE
  8
0
  10
1.19085
  20
49.49893
  30
0
  11
1.28729
  21
49.53062
  31
0
  0
LINE
  8
0
  10
1.28729
  20
49.53062
  30
0
  11
1.33603
  21
49.54357
  31
0
  0
LINE
  8
0
  10
1.33603
  20
49.54357
  30
0
  11
1.3843
  21
49.55925
  31
0
  0
LINE
  8
0
  10
1.3843
  20
49.55925
  30
0
  11
1.43196
  21
49.57851
  31
0
  0
LINE
  8
0
  10
1.43196
  20
49.57851
  30
0
  11
1.47882
  21
49.60259
  31
0
  0
LINE
  8
0
  10
1.47882
  20
49.60259
  30
0
  11
1.50183
  21
49.61714
  31
0
  0
LINE
  8
0
  10
1.50183
  20
49.61714
  30
0
  11
1.52447
  21
49.6341
  31
0
  0
LINE
  8
0
  10
1.52447
  20
49.6341
  30
0
  11
1.54654
  21
49.65465
  31
0
  0
LINE
  8
0
  10
1.54654
  20
49.65465
  30
0
  11
1.56759
  21
49.68176
  31
0
  0
LINE
  8
0
  10
1.56759
  20
49.68176
  30
0
  11
1.58303
  21
49.7459
  31
0
  0
LINE
  8
0
  10
1.58303
  20
49.7459
  30
0
  11
1.50838
  21
50.63487
  31
0
  0
LINE
  8
0
  10
1.50838
  20
50.63487
  30
0
  11
1.48246
  21
50.69553
  31
0
  0
LINE
  8
0
  10
1.48246
  20
50.69553
  30
0
  11
1.45718
  21
50.71875
  31
0
  0
LINE
  8
0
  10
1.45718
  20
50.71875
  30
0
  11
1.43199
  21
50.73533
  31
0
  0
LINE
  8
0
  10
1.43199
  20
50.73533
  30
0
  11
1.40685
  21
50.74828
  31
0
  0
LINE
  8
0
  10
1.40685
  20
50.74828
  30
0
  11
1.38173
  21
50.75879
  31
0
  0
LINE
  8
0
  10
1.38173
  20
50.75879
  30
0
  11
1.33151
  21
50.77472
  31
0
  0
LINE
  8
0
  10
1.33151
  20
50.77472
  30
0
  11
1.28131
  21
50.78576
  31
0
  0
LINE
  8
0
  10
1.28131
  20
50.78576
  30
0
  11
1.2311
  21
50.79318
  31
0
  0
LINE
  8
0
  10
1.2311
  20
50.79318
  30
0
  11
1.18088
  21
50.79781
  31
0
  0
LINE
  8
0
  10
1.18088
  20
50.79781
  30
0
  11
1.0805
  21
50.81298
  31
0
  0
LINE
  8
0
  10
1.0805
  20
50.81298
  30
0
  11
0.98024
  21
50.83647
  31
0
  0
LINE
  8
0
  10
0.98024
  20
50.83647
  30
0
  11
0.88014
  21
50.86619
  31
0
  0
LINE
  8
0
  10
0.88014
  20
50.86619
  30
0
  11
0.78025
  21
50.90122
  31
0
  0
LINE
  8
0
  10
0.78025
  20
50.90122
  30
0
  11
0.68062
  21
50.94103
  31
0
  0
LINE
  8
0
  10
0.68062
  20
50.94103
  30
0
  11
0.58131
  21
50.98528
  31
0
  0
LINE
  8
0
  10
0.58131
  20
50.98528
  30
0
  11
0.48237
  21
51.03371
  31
0
  0
LINE
  8
0
  10
0.48237
  20
51.03371
  30
0
  11
0.38385
  21
51.08612
  31
0
  0
LINE
  8
0
  10
0.38385
  20
51.08612
  30
0
  11
0.28582
  21
51.14237
  31
0
  0
LINE
  8
0
  10
0.28582
  20
51.14237
  30
0
  11
0.18833
  21
51.20233
  31
0
  0
LINE
  8
0
  10
0.18833
  20
51.20233
  30
0
  11
0.09142
  21
51.26589
  31
0
  0
LINE
  8
0
  10
0.09142
  20
51.26589
  30
0
  11
0.01917
  21
51.31588
  31
0
  0
LINE
  8
0
  10
0.01917
  20
51.31588
  30
0
  11
0.13806
  21
52.25696
  31
0
  0
LINE
  8
0
  10
0.13806
  20
52.25696
  30
0
  11
0.22047
  21
52.28741
  31
0
  0
LINE
  8
0
  10
0.22047
  20
52.28741
  30
0
  11
0.33014
  21
52.32487
  31
0
  0
LINE
  8
0
  10
0.33014
  20
52.32487
  30
0
  11
0.43948
  21
52.3587
  31
0
  0
LINE
  8
0
  10
0.43948
  20
52.3587
  30
0
  11
0.54842
  21
52.3888
  31
0
  0
LINE
  8
0
  10
0.54842
  20
52.3888
  30
0
  11
0.65687
  21
52.41507
  31
0
  0
LINE
  8
0
  10
0.65687
  20
52.41507
  30
0
  11
0.76475
  21
52.43737
  31
0
  0
LINE
  8
0
  10
0.76475
  20
52.43737
  30
0
  11
0.87194
  21
52.45553
  31
0
  0
LINE
  8
0
  10
0.87194
  20
52.45553
  30
0
  11
0.97834
  21
52.46932
  31
0
  0
LINE
  8
0
  10
0.97834
  20
52.46932
  30
0
  11
1.08381
  21
52.47841
  31
0
  0
LINE
  8
0
  10
1.08381
  20
52.47841
  30
0
  11
1.18815
  21
52.48229
  31
0
  0
LINE
  8
0
  10
1.18815
  20
52.48229
  30
0
  11
1.29111
  21
52.48012
  31
0
  0
LINE
  8
0
  10
1.29111
  20
52.48012
  30
0
  11
1.39211
  21
52.46984
  31
0
  0
LINE
  8
0
  10
1.39211
  20
52.46984
  30
0
  11
1.4419
  21
52.46184
  31
0
  0
LINE
  8
0
  10
1.4419
  20
52.46184
  30
0
  11
1.49238
  21
52.45654
  31
0
  0
LINE
  8
0
  10
1.49238
  20
52.45654
  30
0
  11
1.54375
  21
52.45475
  31
0
  0
LINE
  8
0
  10
1.54375
  20
52.45475
  30
0
  11
1.59635
  21
52.45769
  31
0
  0
LINE
  8
0
  10
1.59635
  20
52.45769
  30
0
  11
1.62329
  21
52.46162
  31
0
  0
LINE
  8
0
  10
1.62329
  20
52.46162
  30
0
  11
1.65087
  21
52.46791
  31
0
  0
LINE
  8
0
  10
1.65087
  20
52.46791
  30
0
  11
1.67939
  21
52.4777
  31
0
  0
LINE
  8
0
  10
1.67939
  20
52.4777
  30
0
  11
1.70965
  21
52.49391
  31
0
  0
LINE
  8
0
  10
1.70965
  20
52.49391
  30
0
  11
1.74984
  21
52.54622
  31
0
  0
LINE
  8
0
  10
1.74984
  20
52.54622
  30
0
  11
2.04322
  21
53.38869
  31
0
  0
LINE
  8
0
  10
2.04322
  20
53.38869
  30
0
  11
2.04422
  21
53.45466
  31
0
  0
LINE
  8
0
  10
2.04422
  20
53.45466
  30
0
  11
2.03057
  21
53.48615
  31
0
  0
LINE
  8
0
  10
2.03057
  20
53.48615
  30
0
  11
2.0143
  21
53.51154
  31
0
  0
LINE
  8
0
  10
2.0143
  20
53.51154
  30
0
  11
1.9966
  21
53.5336
  31
0
  0
LINE
  8
0
  10
1.9966
  20
53.5336
  30
0
  11
1.97792
  21
53.55342
  31
0
  0
LINE
  8
0
  10
1.97792
  20
53.55342
  30
0
  11
1.93853
  21
53.58839
  31
0
  0
LINE
  8
0
  10
1.93853
  20
53.58839
  30
0
  11
1.89715
  21
53.6189
  31
0
  0
LINE
  8
0
  10
1.89715
  20
53.6189
  30
0
  11
1.8543
  21
53.6461
  31
0
  0
LINE
  8
0
  10
1.8543
  20
53.6461
  30
0
  11
1.81031
  21
53.67075
  31
0
  0
LINE
  8
0
  10
1.81031
  20
53.67075
  30
0
  11
1.72478
  21
53.72544
  31
0
  0
LINE
  8
0
  10
1.72478
  20
53.72544
  30
0
  11
1.64274
  21
53.78769
  31
0
  0
LINE
  8
0
  10
1.64274
  20
53.78769
  30
0
  11
1.56338
  21
53.85554
  31
0
  0
LINE
  8
0
  10
1.56338
  20
53.85554
  30
0
  11
1.48637
  21
53.92817
  31
0
  0
LINE
  8
0
  10
1.48637
  20
53.92817
  30
0
  11
1.41155
  21
54.00507
  31
0
  0
LINE
  8
0
  10
1.41155
  20
54.00507
  30
0
  11
1.33882
  21
54.08588
  31
0
  0
LINE
  8
0
  10
1.33882
  20
54.08588
  30
0
  11
1.26813
  21
54.17037
  31
0
  0
LINE
  8
0
  10
1.26813
  20
54.17037
  30
0
  11
1.19946
  21
54.25832
  31
0
  0
LINE
  8
0
  10
1.19946
  20
54.25832
  30
0
  11
1.13278
  21
54.34958
  31
0
  0
LINE
  8
0
  10
1.13278
  20
54.34958
  30
0
  11
1.0681
  21
54.44401
  31
0
  0
LINE
  8
0
  10
1.0681
  20
54.44401
  30
0
  11
1.00543
  21
54.54149
  31
0
  0
LINE
  8
0
  10
1.00543
  20
54.54149
  30
0
  11
0.95975
  21
54.61654
  31
0
  0
LINE
  8
0
  10
0.95975
  20
54.61654
  30
0
  11
1.45113
  21
55.42791
  31
0
  0
LINE
  8
0
  10
1.45113
  20
55.42791
  30
0
  11
1.5388
  21
55.4222
  31
0
  0
LINE
  8
0
  10
1.5388
  20
55.4222
  30
0
  11
1.65423
  21
55.41183
  31
0
  0
LINE
  8
0
  10
1.65423
  20
55.41183
  30
0
  11
1.76788
  21
55.39826
  31
0
  0
LINE
  8
0
  10
1.76788
  20
55.39826
  30
0
  11
1.87964
  21
55.38145
  31
0
  0
LINE
  8
0
  10
1.87964
  20
55.38145
  30
0
  11
1.98941
  21
55.36133
  31
0
  0
LINE
  8
0
  10
1.98941
  20
55.36133
  30
0
  11
2.09702
  21
55.33783
  31
0
  0
LINE
  8
0
  10
2.09702
  20
55.33783
  30
0
  11
2.20234
  21
55.31082
  31
0
  0
LINE
  8
0
  10
2.20234
  20
55.31082
  30
0
  11
2.30515
  21
55.28014
  31
0
  0
LINE
  8
0
  10
2.30515
  20
55.28014
  30
0
  11
2.40519
  21
55.24554
  31
0
  0
LINE
  8
0
  10
2.40519
  20
55.24554
  30
0
  11
2.5021
  21
55.20665
  31
0
  0
LINE
  8
0
  10
2.5021
  20
55.20665
  30
0
  11
2.59527
  21
55.16278
  31
0
  0
LINE
  8
0
  10
2.59527
  20
55.16278
  30
0
  11
2.68335
  21
55.11232
  31
0
  0
LINE
  8
0
  10
2.68335
  20
55.11232
  30
0
  11
2.72559
  21
55.08476
  31
0
  0
LINE
  8
0
  10
2.72559
  20
55.08476
  30
0
  11
2.76954
  21
55.05938
  31
0
  0
LINE
  8
0
  10
2.76954
  20
55.05938
  30
0
  11
2.81575
  21
55.03685
  31
0
  0
LINE
  8
0
  10
2.81575
  20
55.03685
  30
0
  11
2.86499
  21
55.01814
  31
0
  0
LINE
  8
0
  10
2.86499
  20
55.01814
  30
0
  11
2.8912
  21
55.01077
  31
0
  0
LINE
  8
0
  10
2.8912
  20
55.01077
  30
0
  11
2.91895
  21
55.0053
  31
0
  0
LINE
  8
0
  10
2.91895
  20
55.0053
  30
0
  11
2.94899
  21
55.00265
  31
0
  0
LINE
  8
0
  10
2.94899
  20
55.00265
  30
0
  11
2.98323
  21
55.00515
  31
0
  0
LINE
  8
0
  10
2.98323
  20
55.00515
  30
0
  11
3.04122
  21
55.03659
  31
0
  0
LINE
  8
0
  10
3.04122
  20
55.03659
  30
0
  11
3.65191
  21
55.6869
  31
0
  0
LINE
  8
0
  10
3.65191
  20
55.6869
  30
0
  11
3.67964
  21
55.74675
  31
0
  0
LINE
  8
0
  10
3.67964
  20
55.74675
  30
0
  11
3.67998
  21
55.78108
  31
0
  0
LINE
  8
0
  10
3.67998
  20
55.78108
  30
0
  11
3.67545
  21
55.81089
  31
0
  0
LINE
  8
0
  10
3.67545
  20
55.81089
  30
0
  11
3.66825
  21
55.83824
  31
0
  0
LINE
  8
0
  10
3.66825
  20
55.83824
  30
0
  11
3.65925
  21
55.86395
  31
0
  0
LINE
  8
0
  10
3.65925
  20
55.86395
  30
0
  11
3.63748
  21
55.91192
  31
0
  0
LINE
  8
0
  10
3.63748
  20
55.91192
  30
0
  11
3.6121
  21
55.95661
  31
0
  0
LINE
  8
0
  10
3.6121
  20
55.95661
  30
0
  11
3.58401
  21
55.99889
  31
0
  0
LINE
  8
0
  10
3.58401
  20
55.99889
  30
0
  11
3.55386
  21
56.03931
  31
0
  0
LINE
  8
0
  10
3.55386
  20
56.03931
  30
0
  11
3.49796
  21
56.12405
  31
0
  0
LINE
  8
0
  10
3.49796
  20
56.12405
  30
0
  11
3.44833
  21
56.21429
  31
0
  0
LINE
  8
0
  10
3.44833
  20
56.21429
  30
0
  11
3.40343
  21
56.30856
  31
0
  0
LINE
  8
0
  10
3.40343
  20
56.30856
  30
0
  11
3.36262
  21
56.40623
  31
0
  0
LINE
  8
0
  10
3.36262
  20
56.40623
  30
0
  11
3.32555
  21
56.50691
  31
0
  0
LINE
  8
0
  10
3.32555
  20
56.50691
  30
0
  11
3.29198
  21
56.61032
  31
0
  0
LINE
  8
0
  10
3.29198
  20
56.61032
  30
0
  11
3.26176
  21
56.71625
  31
0
  0
LINE
  8
0
  10
3.26176
  20
56.71625
  30
0
  11
3.23479
  21
56.82453
  31
0
  0
LINE
  8
0
  10
3.23479
  20
56.82453
  30
0
  11
3.211
  21
56.93502
  31
0
  0
LINE
  8
0
  10
3.211
  20
56.93502
  30
0
  11
3.19032
  21
57.0476
  31
0
  0
LINE
  8
0
  10
3.19032
  20
57.0476
  30
0
  11
3.17272
  21
57.16214
  31
0
  0
LINE
  8
0
  10
3.17272
  20
57.16214
  30
0
  11
3.16152
  21
57.24928
  31
0
  0
LINE
  8
0
  10
3.16152
  20
57.24928
  30
0
  11
3.94043
  21
57.79064
  31
0
  0
LINE
  8
0
  10
3.94043
  20
57.79064
  30
0
  11
4.0182
  21
57.74977
  31
0
  0
LINE
  8
0
  10
4.0182
  20
57.74977
  30
0
  11
4.11942
  21
57.69334
  31
0
  0
LINE
  8
0
  10
4.11942
  20
57.69334
  30
0
  11
4.21773
  21
57.63472
  31
0
  0
LINE
  8
0
  10
4.21773
  20
57.63472
  30
0
  11
4.31299
  21
57.5739
  31
0
  0
LINE
  8
0
  10
4.31299
  20
57.5739
  30
0
  11
4.40508
  21
57.51088
  31
0
  0
LINE
  8
0
  10
4.40508
  20
57.51088
  30
0
  11
4.49384
  21
57.44564
  31
0
  0
LINE
  8
0
  10
4.49384
  20
57.44564
  30
0
  11
4.57906
  21
57.37813
  31
0
  0
LINE
  8
0
  10
4.57906
  20
57.37813
  30
0
  11
4.6605
  21
57.30828
  31
0
  0
LINE
  8
0
  10
4.6605
  20
57.30828
  30
0
  11
4.73783
  21
57.23599
  31
0
  0
LINE
  8
0
  10
4.73783
  20
57.23599
  30
0
  11
4.81053
  21
57.16104
  31
0
  0
LINE
  8
0
  10
4.81053
  20
57.16104
  30
0
  11
4.87781
  21
57.08308
  31
0
  0
LINE
  8
0
  10
4.87781
  20
57.08308
  30
0
  11
4.93776
  21
57.00114
  31
0
  0
LINE
  8
0
  10
4.93776
  20
57.00114
  30
0
  11
4.96513
  21
56.95879
  31
0
  0
LINE
  8
0
  10
4.96513
  20
56.95879
  30
0
  11
4.99496
  21
56.91773
  31
0
  0
LINE
  8
0
  10
4.99496
  20
56.91773
  30
0
  11
5.02801
  21
56.87836
  31
0
  0
LINE
  8
0
  10
5.02801
  20
56.87836
  30
0
  11
5.06538
  21
56.84123
  31
0
  0
LINE
  8
0
  10
5.06538
  20
56.84123
  30
0
  11
5.08633
  21
56.82384
  31
0
  0
LINE
  8
0
  10
5.08633
  20
56.82384
  30
0
  11
5.10946
  21
56.80755
  31
0
  0
LINE
  8
0
  10
5.10946
  20
56.80755
  30
0
  11
5.13582
  21
56.79291
  31
0
  0
LINE
  8
0
  10
5.13582
  20
56.79291
  30
0
  11
5.16812
  21
56.78127
  31
0
  0
LINE
  8
0
  10
5.16812
  20
56.78127
  30
0
  11
5.23388
  21
56.7864
  31
0
  0
LINE
  8
0
  10
5.23388
  20
56.7864
  30
0
  11
6.05627
  21
57.1321
  31
0
  0
LINE
  8
0
  10
6.05627
  20
57.1321
  30
0
  11
6.10596
  21
57.1755
  31
0
  0
LINE
  8
0
  10
6.10596
  20
57.1755
  30
0
  11
6.12023
  21
57.20672
  31
0
  0
LINE
  8
0
  10
6.12023
  20
57.20672
  30
0
  11
6.12822
  21
57.2358
  31
0
  0
LINE
  8
0
  10
6.12822
  20
57.2358
  30
0
  11
6.13276
  21
57.26372
  31
0
  0
LINE
  8
0
  10
6.13276
  20
57.26372
  30
0
  11
6.135
  21
57.29086
  31
0
  0
LINE
  8
0
  10
6.135
  20
57.29086
  30
0
  11
6.13462
  21
57.34353
  31
0
  0
LINE
  8
0
  10
6.13462
  20
57.34353
  30
0
  11
6.12961
  21
57.39469
  31
0
  0
LINE
  8
0
  10
6.12961
  20
57.39469
  30
0
  11
6.12115
  21
57.44473
  31
0
  0
LINE
  8
0
  10
6.12115
  20
57.44473
  30
0
  11
6.11004
  21
57.49393
  31
0
  0
LINE
  8
0
  10
6.11004
  20
57.49393
  30
0
  11
6.09344
  21
57.59408
  31
0
  0
LINE
  8
0
  10
6.09344
  20
57.59408
  30
0
  11
6.08481
  21
57.6967
  31
0
  0
LINE
  8
0
  10
6.08481
  20
57.6967
  30
0
  11
6.08213
  21
57.80108
  31
0
  0
LINE
  8
0
  10
6.08213
  20
57.80108
  30
0
  11
6.08458
  21
57.90691
  31
0
  0
LINE
  8
0
  10
6.08458
  20
57.90691
  30
0
  11
6.09166
  21
58.01396
  31
0
  0
LINE
  8
0
  10
6.09166
  20
58.01396
  30
0
  11
6.10305
  21
58.12209
  31
0
  0
LINE
  8
0
  10
6.10305
  20
58.12209
  30
0
  11
6.11854
  21
58.23115
  31
0
  0
LINE
  8
0
  10
6.11854
  20
58.23115
  30
0
  11
6.13794
  21
58.34104
  31
0
  0
LINE
  8
0
  10
6.13794
  20
58.34104
  30
0
  11
6.16114
  21
58.45166
  31
0
  0
LINE
  8
0
  10
6.16114
  20
58.45166
  30
0
  11
6.18804
  21
58.56291
  31
0
  0
LINE
  8
0
  10
6.18804
  20
58.56291
  30
0
  11
6.21855
  21
58.67471
  31
0
  0
LINE
  8
0
  10
6.21855
  20
58.67471
  30
0
  11
6.24376
  21
58.75887
  31
0
  0
LINE
  8
0
  10
6.24376
  20
58.75887
  30
0
  11
7.17552
  21
58.93662
  31
0
  0
LINE
  8
0
  10
7.17552
  20
58.93662
  30
0
  11
7.22994
  21
58.86764
  31
0
  0
LINE
  8
0
  10
7.22994
  20
58.86764
  30
0
  11
7.29947
  21
58.77492
  31
0
  0
LINE
  8
0
  10
7.29947
  20
58.77492
  30
0
  11
7.36543
  21
58.68139
  31
0
  0
LINE
  8
0
  10
7.36543
  20
58.68139
  30
0
  11
7.42772
  21
58.58708
  31
0
  0
LINE
  8
0
  10
7.42772
  20
58.58708
  30
0
  11
7.48622
  21
58.49205
  31
0
  0
LINE
  8
0
  10
7.48622
  20
58.49205
  30
0
  11
7.54076
  21
58.39635
  31
0
  0
LINE
  8
0
  10
7.54076
  20
58.39635
  30
0
  11
7.59116
  21
58.30001
  31
0
  0
LINE
  8
0
  10
7.59116
  20
58.30001
  30
0
  11
7.63715
  21
58.20308
  31
0
  0
LINE
  8
0
  10
7.63715
  20
58.20308
  30
0
  11
7.67838
  21
58.10558
  31
0
  0
LINE
  8
0
  10
7.67838
  20
58.10558
  30
0
  11
7.71432
  21
58.00754
  31
0
  0
LINE
  8
0
  10
7.71432
  20
58.00754
  30
0
  11
7.74407
  21
57.90895
  31
0
  0
LINE
  8
0
  10
7.74407
  20
57.90895
  30
0
  11
7.76551
  21
57.80972
  31
0
  0
LINE
  8
0
  10
7.76551
  20
57.80972
  30
0
  11
7.77329
  21
57.7599
  31
0
  0
LINE
  8
0
  10
7.77329
  20
57.7599
  30
0
  11
7.78384
  21
57.71025
  31
0
  0
LINE
  8
0
  10
7.78384
  20
57.71025
  30
0
  11
7.79801
  21
57.66084
  31
0
  0
LINE
  8
0
  10
7.79801
  20
57.66084
  30
0
  11
7.81706
  21
57.61173
  31
0
  0
LINE
  8
0
  10
7.81706
  20
57.61173
  30
0
  11
7.82913
  21
57.58731
  31
0
  0
LINE
  8
0
  10
7.82913
  20
57.58731
  30
0
  11
7.84363
  21
57.56303
  31
0
  0
LINE
  8
0
  10
7.84363
  20
57.56303
  30
0
  11
7.86176
  21
57.53894
  31
0
  0
LINE
  8
0
  10
7.86176
  20
57.53894
  30
0
  11
7.88652
  21
57.51516
  31
0
  0
LINE
  8
0
  10
7.88652
  20
57.51516
  30
0
  11
7.94869
  21
57.4931
  31
0
  0
LINE
  8
0
  10
7.94869
  20
57.4931
  30
0
  11
8.84059
  21
57.47442
  31
0
  0
LINE
  8
0
  10
8.84059
  20
57.47442
  30
0
  11
8.90363
  21
57.49386
  31
0
  0
LINE
  8
0
  10
8.90363
  20
57.49386
  30
0
  11
8.92937
  21
57.51657
  31
0
  0
LINE
  8
0
  10
8.92937
  20
57.51657
  30
0
  11
8.94849
  21
57.53989
  31
0
  0
LINE
  8
0
  10
8.94849
  20
57.53989
  30
0
  11
8.964
  21
57.56354
  31
0
  0
LINE
  8
0
  10
8.964
  20
57.56354
  30
0
  11
8.97708
  21
57.58743
  31
0
  0
LINE
  8
0
  10
8.97708
  20
57.58743
  30
0
  11
8.99816
  21
57.6357
  31
0
  0
LINE
  8
0
  10
8.99816
  20
57.6357
  30
0
  11
9.01439
  21
57.68448
  31
0
  0
LINE
  8
0
  10
9.01439
  20
57.68448
  30
0
  11
9.02702
  21
57.73363
  31
0
  0
LINE
  8
0
  10
9.02702
  20
57.73363
  30
0
  11
9.03688
  21
57.78309
  31
0
  0
LINE
  8
0
  10
9.03688
  20
57.78309
  30
0
  11
9.06245
  21
57.88134
  31
0
  0
LINE
  8
0
  10
9.06245
  20
57.88134
  30
0
  11
9.0963
  21
57.9786
  31
0
  0
LINE
  8
0
  10
9.0963
  20
57.9786
  30
0
  11
9.13632
  21
58.07504
  31
0
  0
LINE
  8
0
  10
9.13632
  20
58.07504
  30
0
  11
9.18159
  21
58.17073
  31
0
  0
LINE
  8
0
  10
9.18159
  20
58.17073
  30
0
  11
9.2316
  21
58.26565
  31
0
  0
LINE
  8
0
  10
9.2316
  20
58.26565
  30
0
  11
9.28599
  21
58.35979
  31
0
  0
LINE
  8
0
  10
9.28599
  20
58.35979
  30
0
  11
9.34449
  21
58.45313
  31
0
  0
LINE
  8
0
  10
9.34449
  20
58.45313
  30
0
  11
9.40692
  21
58.54562
  31
0
  0
LINE
  8
0
  10
9.40692
  20
58.54562
  30
0
  11
9.47311
  21
58.63724
  31
0
  0
LINE
  8
0
  10
9.47311
  20
58.63724
  30
0
  11
9.54293
  21
58.72793
  31
0
  0
LINE
  8
0
  10
9.54293
  20
58.72793
  30
0
  11
9.61627
  21
58.81766
  31
0
  0
LINE
  8
0
  10
9.61627
  20
58.81766
  30
0
  11
9.67354
  21
58.88429
  31
0
  0
LINE
  8
0
  10
9.67354
  20
58.88429
  30
0
  11
10.59704
  21
58.66769
  31
0
  0
LINE
  8
0
  10
10.59704
  20
58.66769
  30
0
  11
10.6187
  21
58.58254
  31
0
  0
LINE
  8
0
  10
10.6187
  20
58.58254
  30
0
  11
10.6445
  21
58.46956
  31
0
  0
LINE
  8
0
  10
10.6445
  20
58.46956
  30
0
  11
10.66671
  21
58.35728
  31
0
  0
LINE
  8
0
  10
10.66671
  20
58.35728
  30
0
  11
10.68526
  21
58.24579
  31
0
  0
LINE
  8
0
  10
10.68526
  20
58.24579
  30
0
  11
10.70005
  21
58.13518
  31
0
  0
LINE
  8
0
  10
10.70005
  20
58.13518
  30
0
  11
10.71095
  21
58.02557
  31
0
  0
LINE
  8
0
  10
10.71095
  20
58.02557
  30
0
  11
10.71781
  21
57.91706
  31
0
  0
LINE
  8
0
  10
10.71781
  20
57.91706
  30
0
  11
10.7204
  21
57.8098
  31
0
  0
LINE
  8
0
  10
10.7204
  20
57.8098
  30
0
  11
10.71841
  21
57.70397
  31
0
  0
LINE
  8
0
  10
10.71841
  20
57.70397
  30
0
  11
10.71137
  21
57.59979
  31
0
  0
LINE
  8
0
  10
10.71137
  20
57.59979
  30
0
  11
10.69844
  21
57.49762
  31
0
  0
LINE
  8
0
  10
10.69844
  20
57.49762
  30
0
  11
10.67767
  21
57.39825
  31
0
  0
LINE
  8
0
  10
10.67767
  20
57.39825
  30
0
  11
10.66451
  21
57.34956
  31
0
  0
LINE
  8
0
  10
10.66451
  20
57.34956
  30
0
  11
10.65396
  21
57.29992
  31
0
  0
LINE
  8
0
  10
10.65396
  20
57.29992
  30
0
  11
10.64681
  21
57.24902
  31
0
  0
LINE
  8
0
  10
10.64681
  20
57.24902
  30
0
  11
10.64423
  21
57.1964
  31
0
  0
LINE
  8
0
  10
10.64423
  20
57.1964
  30
0
  11
10.64532
  21
57.16919
  31
0
  0
LINE
  8
0
  10
10.64532
  20
57.16919
  30
0
  11
10.6487
  21
57.14111
  31
0
  0
LINE
  8
0
  10
10.6487
  20
57.14111
  30
0
  11
10.65546
  21
57.11172
  31
0
  0
LINE
  8
0
  10
10.65546
  20
57.11172
  30
0
  11
10.66841
  21
57.07993
  31
0
  0
LINE
  8
0
  10
10.66841
  20
57.07993
  30
0
  11
10.71624
  21
57.03449
  31
0
  0
LINE
  8
0
  10
10.71624
  20
57.03449
  30
0
  11
11.52343
  21
56.65466
  31
0
  0
LINE
  8
0
  10
11.52343
  20
56.65466
  30
0
  11
11.58892
  21
56.64677
  31
0
  0
LINE
  8
0
  10
11.58892
  20
56.64677
  30
0
  11
11.62167
  21
56.65706
  31
0
  0
LINE
  8
0
  10
11.62167
  20
56.65706
  30
0
  11
11.64863
  21
56.67058
  31
0
  0
LINE
  8
0
  10
11.64863
  20
56.67058
  30
0
  11
11.67242
  21
56.68588
  31
0
  0
LINE
  8
0
  10
11.67242
  20
56.68588
  30
0
  11
11.69408
  21
56.70238
  31
0
  0
LINE
  8
0
  10
11.69408
  20
56.70238
  30
0
  11
11.73298
  21
56.73791
  31
0
  0
LINE
  8
0
  10
11.73298
  20
56.73791
  30
0
  11
11.76764
  21
56.77586
  31
0
  0
LINE
  8
0
  10
11.76764
  20
56.77586
  30
0
  11
11.79917
  21
56.81563
  31
0
  0
LINE
  8
0
  10
11.79917
  20
56.81563
  30
0
  11
11.82829
  21
56.85681
  31
0
  0
LINE
  8
0
  10
11.82829
  20
56.85681
  30
0
  11
11.89161
  21
56.93616
  31
0
  0
LINE
  8
0
  10
11.89161
  20
56.93616
  30
0
  11
11.96209
  21
57.01124
  31
0
  0
LINE
  8
0
  10
11.96209
  20
57.01124
  30
0
  11
12.03788
  21
57.08307
  31
0
  0
LINE
  8
0
  10
12.03788
  20
57.08307
  30
0
  11
12.11816
  21
57.15207
  31
0
  0
LINE
  8
0
  10
12.11816
  20
57.15207
  30
0
  11
12.20245
  21
57.21844
  31
0
  0
LINE
  8
0
  10
12.20245
  20
57.21844
  30
0
  11
12.29043
  21
57.28232
  31
0
  0
LINE
  8
0
  10
12.29043
  20
57.28232
  30
0
  11
12.38184
  21
57.34379
  31
0
  0
LINE
  8
0
  10
12.38184
  20
57.34379
  30
0
  11
12.47649
  21
57.4029
  31
0
  0
LINE
  8
0
  10
12.47649
  20
57.4029
  30
0
  11
12.57422
  21
57.45968
  31
0
  0
LINE
  8
0
  10
12.57422
  20
57.45968
  30
0
  11
12.67489
  21
57.51413
  31
0
  0
LINE
  8
0
  10
12.67489
  20
57.51413
  30
0
  11
12.77839
  21
57.56627
  31
0
  0
LINE
  8
0
  10
12.77839
  20
57.56627
  30
0
  11
12.8578
  21
57.60385
  31
0
  0
LINE
  8
0
  10
12.8578
  20
57.60385
  30
0
  11
13.61336
  21
57.03035
  31
0
  0
LINE
  8
0
  10
13.61336
  20
57.03035
  30
0
  11
13.59852
  21
56.94375
  31
0
  0
LINE
  8
0
  10
13.59852
  20
56.94375
  30
0
  11
13.57614
  21
56.83005
  31
0
  0
LINE
  8
0
  10
13.57614
  20
56.83005
  30
0
  11
13.55076
  21
56.71844
  31
0
  0
LINE
  8
0
  10
13.55076
  20
56.71844
  30
0
  11
13.52236
  21
56.60904
  31
0
  0
LINE
  8
0
  10
13.52236
  20
56.60904
  30
0
  11
13.49088
  21
56.50198
  31
0
  0
LINE
  8
0
  10
13.49088
  20
56.50198
  30
0
  11
13.45626
  21
56.39741
  31
0
  0
LINE
  8
0
  10
13.45626
  20
56.39741
  30
0
  11
13.41839
  21
56.2955
  31
0
  0
LINE
  8
0
  10
13.41839
  20
56.2955
  30
0
  11
13.37713
  21
56.19646
  31
0
  0
LINE
  8
0
  10
13.37713
  20
56.19646
  30
0
  11
13.33226
  21
56.10058
  31
0
  0
LINE
  8
0
  10
13.33226
  20
56.10058
  30
0
  11
13.28346
  21
56.00827
  31
0
  0
LINE
  8
0
  10
13.28346
  20
56.00827
  30
0
  11
13.23009
  21
55.92019
  31
0
  0
LINE
  8
0
  10
13.23009
  20
55.92019
  30
0
  11
13.1707
  21
55.83786
  31
0
  0
LINE
  8
0
  10
13.1707
  20
55.83786
  30
0
  11
13.13887
  21
55.79874
  31
0
  0
LINE
  8
0
  10
13.13887
  20
55.79874
  30
0
  11
13.10904
  21
55.75768
  31
0
  0
LINE
  8
0
  10
13.10904
  20
55.75768
  30
0
  11
13.08181
  21
55.71409
  31
0
  0
LINE
  8
0
  10
13.08181
  20
55.71409
  30
0
  11
13.05805
  21
55.66707
  31
0
  0
LINE
  8
0
  10
13.05805
  20
55.66707
  30
0
  11
13.04798
  21
55.64177
  31
0
  0
LINE
  8
0
  10
13.04798
  20
55.64177
  30
0
  11
13.03964
  21
55.61474
  31
0
  0
LINE
  8
0
  10
13.03964
  20
55.61474
  30
0
  11
13.03387
  21
55.58514
  31
0
  0
LINE
  8
0
  10
13.03387
  20
55.58514
  30
0
  11
13.03277
  21
55.55083
  31
0
  0
LINE
  8
0
  10
13.03277
  20
55.55083
  30
0
  11
13.05798
  21
55.48987
  31
0
  0
LINE
  8
0
  10
13.05798
  20
55.48987
  30
0
  11
13.64089
  21
54.81456
  31
0
  0
LINE
  8
0
  10
13.64089
  20
54.81456
  30
0
  11
13.69752
  21
54.78072
  31
0
  0
LINE
  8
0
  10
13.69752
  20
54.78072
  30
0
  11
13.73162
  21
54.77679
  31
0
  0
LINE
  8
0
  10
13.73162
  20
54.77679
  30
0
  11
13.76174
  21
54.77818
  31
0
  0
LINE
  8
0
  10
13.76174
  20
54.77818
  30
0
  11
13.7897
  21
54.78248
  31
0
  0
LINE
  8
0
  10
13.7897
  20
54.78248
  30
0
  11
13.8162
  21
54.78875
  31
0
  0
LINE
  8
0
  10
13.8162
  20
54.78875
  30
0
  11
13.86618
  21
54.80538
  31
0
  0
LINE
  8
0
  10
13.86618
  20
54.80538
  30
0
  11
13.91329
  21
54.82595
  31
0
  0
LINE
  8
0
  10
13.91329
  20
54.82595
  30
0
  11
13.95827
  21
54.84947
  31
0
  0
LINE
  8
0
  10
13.95827
  20
54.84947
  30
0
  11
14.00162
  21
54.87523
  31
0
  0
LINE
  8
0
  10
14.00162
  20
54.87523
  30
0
  11
14.09174
  21
54.92197
  31
0
  0
LINE
  8
0
  10
14.09174
  20
54.92197
  30
0
  11
14.18667
  21
54.96189
  31
0
  0
LINE
  8
0
  10
14.18667
  20
54.96189
  30
0
  11
14.28512
  21
54.99669
  31
0
  0
LINE
  8
0
  10
14.28512
  20
54.99669
  30
0
  11
14.38652
  21
55.02707
  31
0
  0
LINE
  8
0
  10
14.38652
  20
55.02707
  30
0
  11
14.49052
  21
55.05342
  31
0
  0
LINE
  8
0
  10
14.49052
  20
55.05342
  30
0
  11
14.59688
  21
55.07599
  31
0
  0
LINE
  8
0
  10
14.59688
  20
55.07599
  30
0
  11
14.70539
  21
55.09497
  31
0
  0
LINE
  8
0
  10
14.70539
  20
55.09497
  30
0
  11
14.81589
  21
55.11047
  31
0
  0
LINE
  8
0
  10
14.81589
  20
55.11047
  30
0
  11
14.92827
  21
55.12259
  31
0
  0
LINE
  8
0
  10
14.92827
  20
55.12259
  30
0
  11
15.04238
  21
55.13139
  31
0
  0
LINE
  8
0
  10
15.04238
  20
55.13139
  30
0
  11
15.15814
  21
55.13692
  31
0
  0
LINE
  8
0
  10
15.15814
  20
55.13692
  30
0
  11
15.24598
  21
55.13895
  31
0
  0
LINE
  8
0
  10
15.24598
  20
55.13895
  30
0
  11
15.70295
  21
54.30772
  31
0
  0
LINE
  8
0
  10
15.70295
  20
54.30772
  30
0
  11
15.65417
  21
54.23464
  31
0
  0
LINE
  8
0
  10
15.65417
  20
54.23464
  30
0
  11
15.58747
  21
54.13987
  31
0
  0
LINE
  8
0
  10
15.58747
  20
54.13987
  30
0
  11
15.51889
  21
54.04823
  31
0
  0
LINE
  8
0
  10
15.51889
  20
54.04823
  30
0
  11
15.44845
  21
53.95985
  31
0
  0
LINE
  8
0
  10
15.44845
  20
53.95985
  30
0
  11
15.37615
  21
53.87485
  31
0
  0
LINE
  8
0
  10
15.37615
  20
53.87485
  30
0
  11
15.30199
  21
53.7934
  31
0
  0
LINE
  8
0
  10
15.30199
  20
53.7934
  30
0
  11
15.22594
  21
53.7157
  31
0
  0
LINE
  8
0
  10
15.22594
  20
53.7157
  30
0
  11
15.14796
  21
53.642
  31
0
  0
LINE
  8
0
  10
15.14796
  20
53.642
  30
0
  11
15.06798
  21
53.57266
  31
0
  0
LINE
  8
0
  10
15.06798
  20
53.57266
  30
0
  11
14.98585
  21
53.50819
  31
0
  0
LINE
  8
0
  10
14.98585
  20
53.50819
  30
0
  11
14.90128
  21
53.44943
  31
0
  0
LINE
  8
0
  10
14.90128
  20
53.44943
  30
0
  11
14.81353
  21
53.39838
  31
0
  0
LINE
  8
0
  10
14.81353
  20
53.39838
  30
0
  11
14.76854
  21
53.37558
  31
0
  0
LINE
  8
0
  10
14.76854
  20
53.37558
  30
0
  11
14.72459
  21
53.3502
  31
0
  0
LINE
  8
0
  10
14.72459
  20
53.3502
  30
0
  11
14.68198
  21
53.32145
  31
0
  0
LINE
  8
0
  10
14.68198
  20
53.32145
  30
0
  11
14.64115
  21
53.28816
  31
0
  0
LINE
  8
0
  10
14.64115
  20
53.28816
  30
0
  11
14.62166
  21
53.26915
  31
0
  0
LINE
  8
0
  10
14.62166
  20
53.26915
  30
0
  11
14.60305
  21
53.24785
  31
0
  0
LINE
  8
0
  10
14.60305
  20
53.24785
  30
0
  11
14.58573
  21
53.22316
  31
0
  0
LINE
  8
0
  10
14.58573
  20
53.22316
  30
0
  11
14.57078
  21
53.19226
  31
0
  0
LINE
  8
0
  10
14.57078
  20
53.19226
  30
0
  11
14.56901
  21
53.12632
  31
0
  0
LINE
  8
0
  10
14.56901
  20
53.12632
  30
0
  11
14.82685
  21
52.2723
  31
0
  0
LINE
  8
0
  10
14.82685
  20
52.2723
  30
0
  11
14.86482
  21
52.21835
  31
0
  0
LINE
  8
0
  10
14.86482
  20
52.21835
  30
0
  11
14.89438
  21
52.20089
  31
0
  0
LINE
  8
0
  10
14.89438
  20
52.20089
  30
0
  11
14.92246
  21
52.18991
  31
0
  0
LINE
  8
0
  10
14.92246
  20
52.18991
  30
0
  11
14.94975
  21
52.18247
  31
0
  0
LINE
  8
0
  10
14.94975
  20
52.18247
  30
0
  11
14.97651
  21
52.17741
  31
0
  0
LINE
  8
0
  10
14.97651
  20
52.17741
  30
0
  11
15.02893
  21
52.17228
  31
0
  0
LINE
  8
0
  10
15.02893
  20
52.17228
  30
0
  11
15.08034
  21
52.17191
  31
0
  0
LINE
  8
0
  10
15.08034
  20
52.17191
  30
0
  11
15.13099
  21
52.1751
  31
0
  0
LINE
  8
0
  10
15.13099
  20
52.1751
  30
0
  11
15.18107
  21
52.181
  31
0
  0
LINE
  8
0
  10
15.18107
  20
52.181
  30
0
  11
15.28241
  21
52.18704
  31
0
  0
LINE
  8
0
  10
15.28241
  20
52.18704
  30
0
  11
15.38537
  21
52.1849
  31
0
  0
LINE
  8
0
  10
15.38537
  20
52.1849
  30
0
  11
15.48946
  21
52.17665
  31
0
  0
LINE
  8
0
  10
15.48946
  20
52.17665
  30
0
  11
15.59445
  21
52.16316
  31
0
  0
LINE
  8
0
  10
15.59445
  20
52.16316
  30
0
  11
15.70018
  21
52.14493
  31
0
  0
LINE
  8
0
  10
15.70018
  20
52.14493
  30
0
  11
15.80652
  21
52.12229
  31
0
  0
LINE
  8
0
  10
15.80652
  20
52.12229
  30
0
  11
15.91337
  21
52.09549
  31
0
  0
LINE
  8
0
  10
15.91337
  20
52.09549
  30
0
  11
16.02063
  21
52.06471
  31
0
  0
LINE
  8
0
  10
16.02063
  20
52.06471
  30
0
  11
16.12821
  21
52.03007
  31
0
  0
LINE
  8
0
  10
16.12821
  20
52.03007
  30
0
  11
16.23605
  21
51.99169
  31
0
  0
LINE
  8
0
  10
16.23605
  20
51.99169
  30
0
  11
16.34405
  21
51.94966
  31
0
  0
LINE
  8
0
  10
16.34405
  20
51.94966
  30
0
  11
16.42511
  21
51.91579
  31
0
  0
LINE
  8
0
  10
16.42511
  20
51.91579
  30
0
  11
16.50449
  21
50.97056
  31
0
  0
LINE
  8
0
  10
16.50449
  20
50.97056
  30
0
  11
16.4302
  21
50.92364
  31
0
  0
LINE
  8
0
  10
16.4302
  20
50.92364
  30
0
  11
16.33072
  21
50.86419
  31
0
  0
LINE
  8
0
  10
16.33072
  20
50.86419
  30
0
  11
16.2308
  21
50.80837
  31
0
  0
LINE
  8
0
  10
16.2308
  20
50.80837
  30
0
  11
16.1305
  21
50.75628
  31
0
  0
LINE
  8
0
  10
16.1305
  20
50.75628
  30
0
  11
16.02988
  21
50.70803
  31
0
  0
LINE
  8
0
  10
16.02988
  20
50.70803
  30
0
  11
15.929
  21
50.66379
  31
0
  0
LINE
  8
0
  10
15.929
  20
50.66379
  30
0
  11
15.82792
  21
50.62374
  31
0
  0
LINE
  8
0
  10
15.82792
  20
50.62374
  30
0
  11
15.72671
  21
50.58813
  31
0
  0
LINE
  8
0
  10
15.72671
  20
50.58813
  30
0
  11
15.62544
  21
50.55732
  31
0
  0
LINE
  8
0
  10
15.62544
  20
50.55732
  30
0
  11
15.52418
  21
50.53182
  31
0
  0
LINE
  8
0
  10
15.52418
  20
50.53182
  30
0
  11
15.42302
  21
50.51254
  31
0
  0
LINE
  8
0
  10
15.42302
  20
50.51254
  30
0
  11
15.3221
  21
50.50159
  31
0
  0
LINE
  8
0
  10
15.3221
  20
50.50159
  30
0
  11
15.27173
  21
50.49907
  31
0
  0
LINE
  8
0
  10
15.27173
  20
50.49907
  30
0
  11
15.22125
  21
50.49376
  31
0
  0
LINE
  8
0
  10
15.22125
  20
50.49376
  30
0
  11
15.17063
  21
50.48483
  31
0
  0
LINE
  8
0
  10
15.17063
  20
50.48483
  30
0
  11
15.1198
  21
50.47102
  31
0
  0
LINE
  8
0
  10
15.1198
  20
50.47102
  30
0
  11
15.09426
  21
50.46157
  31
0
  0
LINE
  8
0
  10
15.09426
  20
50.46157
  30
0
  11
15.06859
  21
50.44969
  31
0
  0
LINE
  8
0
  10
15.06859
  20
50.44969
  30
0
  11
15.04273
  21
50.43418
  31
0
  0
LINE
  8
0
  10
15.04273
  20
50.43418
  30
0
  11
15.0165
  21
50.41203
  31
0
  0
LINE
  8
0
  10
15.0165
  20
50.41203
  30
0
  11
14.98806
  21
50.35251
  31
0
  0
LINE
  8
0
  10
14.98806
  20
50.35251
  30
0
  11
14.87625
  21
49.46745
  31
0
  0
LINE
  8
0
  10
8.75367
  20
50.75367
  30
0
  11
8.75367
  21
50.75367
  31
0
  0
LINE
  8
0
  10
8.75367
  20
50.75367
  30
0
  11
8.73663
  21
50.88308
  31
0
  0
LINE
  8
0
  10
8.73663
  20
50.88308
  30
0
  11
8.68668
  21
51.00367
  31
0
  0
LINE
  8
0
  10
8.68668
  20
51.00367
  30
0
  11
8.60722
  21
51.10722
  31
0
  0
LINE
  8
0
  10
8.60722
  20
51.10722
  30
0
  11
8.50367
  21
51.18668
  31
0
  0
LINE
  8
0
  10
8.50367
  20
51.18668
  30
0
  11
8.38308
  21
51.23663
  31
0
  0
LINE
  8
0
  10
8.38308
  20
51.23663
  30
0
  11
8.25367
  21
51.25367
  31
0
  0
LINE
  8
0
  10
8.25367
  20
51.25367
  30
0
  11
8.12426
  21
51.23663
  31
0
  0
LINE
  8
0
  10
8.12426
  20
51.23663
  30
0
  11
8.00367
  21
51.18668
  31
0
  0
LINE
  8
0
  10
8.00367
  20
51.18668
  30
0
  11
7.90011
  21
51.10722
  31
0
  0
LINE
  8
0
  10
7.90011
  20
51.10722
  30
0
  11
7.82066
  21
51.00367
  31
0
  0
LINE
  8
0
  10
7.82066
  20
51.00367
  30
0
  11
7.77071
  21
50.88308
  31
0
  0
LINE
  8
0
  10
7.77071
  20
50.88308
  30
0
  11
7.75367
  21
50.75367
  31
0
  0
LINE
  8
0
  10
7.75367
  20
50.75367
  30
0
  11
7.77071
  21
50.62426
  31
0
  0
LINE
  8
0
  10
7.77071
  20
50.62426
  30
0
  11
7.82066
  21
50.50367
  31
0
  0
LINE
  8
0
  10
7.82066
  20
50.50367
  30
0
  11
7.90011
  21
50.40011
  31
0
  0
LINE
  8
0
  10
7.90011
  20
50.40011
  30
0
  11
8.00367
  21
50.32066
  31
0
  0
LINE
  8
0
  10
8.00367
  20
50.32066
  30
0
  11
8.12426
  21
50.27071
  31
0
  0
LINE
  8
0
  10
8.12426
  20
50.27071
  30
0
  11
8.25367
  21
50.25367
  31
0
  0
LINE
  8
0
  10
8.25367
  20
50.25367
  30
0
  11
8.38308
  21
50.27071
  31
0
  0
LINE
  8
0
  10
8.38308
  20
50.27071
  30
0
  11
8.50367
  21
50.32066
  31
0
  0
LINE
  8
0
  10
8.50367
  20
50.32066
  30
0
  11
8.60722
  21
50.40011
  31
0
  0
LINE
  8
0
  10
8.60722
  20
50.40011
  30
0
  11
8.68668
  21
50.50367
  31
0
  0
LINE
  8
0
  10
8.68668
  20
50.50367
  30
0
  11
8.73663
  21
50.62426
  31
0
  0
LINE
  8
0
  10
8.73663
  20
50.62426
  30
0
  11
8.75367
  21
50.75367
  31
0
  0
LINE
  8
0
  10
8.75367
  20
50.75367
  30
0
  11
8.75367
  21
50.75367
  31
0
  0
LINE
  8
0
  10
14.02424
  20
47.25889
  30
0
  11
15.31356
  21
46.47805
  31
0
  0
LINE
  8
0
  10
12.10389
  20
45.21392
  30
0
  11
12.96415
  21
43.97618
  31
0
  0
LINE
  8
0
  10
9.5178
  20
44.12683
  30
0
  11
9.80025
  21
42.6462
  31
0
  0
LINE
  8
0
  10
6.71314
  20
44.18558
  30
0
  11
6.36894
  21
42.71807
  31
0
  0
LINE
  8
0
  10
4.17484
  20
45.38001
  30
0
  11
3.26351
  21
44.17937
  31
0
  0
LINE
  8
0
  10
2.34181
  20
47.5036
  30
0
  11
1.02092
  21
46.77743
  31
0
  0
LINE
  8
0
  10
1.531
  20
50.18915
  30
0
  11
0.02895
  21
50.06302
  31
0
  0
LINE
  8
0
  10
1.88259
  20
52.97231
  30
0
  11
0.4591
  21
53.46802
  31
0
  0
LINE
  8
0
  10
3.3358
  20
55.37185
  30
0
  11
2.237
  21
56.40369
  31
0
  0
LINE
  8
0
  10
5.63936
  20
56.97286
  30
0
  11
5.05524
  21
58.36242
  31
0
  0
LINE
  8
0
  10
8.39495
  20
57.49852
  30
0
  11
8.42652
  21
59.00553
  31
0
  0
LINE
  8
0
  10
11.12612
  20
56.85793
  30
0
  11
11.76791
  21
58.22181
  31
0
  0
LINE
  8
0
  10
13.36061
  20
55.16186
  30
0
  11
14.50165
  21
56.14678
  31
0
  0
LINE
  8
0
  10
14.71206
  20
52.70357
  30
0
  11
16.15507
  21
53.13924
  31
0
  0
LINE
  8
0
  10
14.9468
  20
49.90813
  30
0
  11
16.44225
  21
49.71921
  31
0
  0
LINE
  8
0
  10
15.75367
  20
50.75367
  30
0
  11
15.75367
  21
50.75367
  31
0
  0
LINE
  8
0
  10
15.75367
  20
50.75367
  30
0
  11
15.73887
  21
51.2246
  31
0
  0
LINE
  8
0
  10
15.73887
  20
51.2246
  30
0
  11
15.69453
  21
51.69367
  31
0
  0
LINE
  8
0
  10
15.69453
  20
51.69367
  30
0
  11
15.62082
  21
52.15903
  31
0
  0
LINE
  8
0
  10
15.62082
  20
52.15903
  30
0
  11
15.51804
  21
52.61884
  31
0
  0
LINE
  8
0
  10
15.51804
  20
52.61884
  30
0
  11
15.38659
  21
53.0713
  31
0
  0
LINE
  8
0
  10
15.38659
  20
53.0713
  30
0
  11
15.22699
  21
53.5146
  31
0
  0
LINE
  8
0
  10
15.22699
  20
53.5146
  30
0
  11
15.03987
  21
53.94701
  31
0
  0
LINE
  8
0
  10
15.03987
  20
53.94701
  30
0
  11
14.82597
  21
54.36682
  31
0
  0
LINE
  8
0
  10
14.82597
  20
54.36682
  30
0
  11
14.58613
  21
54.77237
  31
0
  0
LINE
  8
0
  10
14.58613
  20
54.77237
  30
0
  11
14.3213
  21
55.16206
  31
0
  0
LINE
  8
0
  10
14.3213
  20
55.16206
  30
0
  11
14.03252
  21
55.53435
  31
0
  0
LINE
  8
0
  10
14.03252
  20
55.53435
  30
0
  11
13.72093
  21
55.88777
  31
0
  0
LINE
  8
0
  10
13.72093
  20
55.88777
  30
0
  11
13.38777
  21
56.22093
  31
0
  0
LINE
  8
0
  10
13.38777
  20
56.22093
  30
0
  11
13.03435
  21
56.53252
  31
0
  0
LINE
  8
0
  10
13.03435
  20
56.53252
  30
0
  11
12.66206
  21
56.8213
  31
0
  0
LINE
  8
0
  10
12.66206
  20
56.8213
  30
0
  11
12.27237
  21
57.08613
  31
0
  0
LINE
  8
0
  10
12.27237
  20
57.08613
  30
0
  11
11.86682
  21
57.32597
  31
0
  0
LINE
  8
0
  10
11.86682
  20
57.32597
  30
0
  11
11.44701
  21
57.53987
  31
0
  0
LINE
  8
0
  10
11.44701
  20
57.53987
  30
0
  11
11.0146
  21
57.72699
  31
0
  0
LINE
  8
0
  10
11.0146
  20
57.72699
  30
0
  11
10.5713
  21
57.88659
  31
0
  0
LINE
  8
0
  10
10.5713
  20
57.88659
  30
0
  11
10.11884
  21
58.01804
  31
0
  0
LINE
  8
0
  10
10.11884
  20
58.01804
  30
0
  11
9.65903
  21
58.12082
  31
0
  0
LINE
  8
0
  10
9.65903
  20
58.12082
  30
0
  11
9.19367
  21
58.19453
  31
0
  0
LINE
  8
0
  10
9.19367
  20
58.19453
  30
0
  11
8.7246
  21
58.23887
  31
0
  0
LINE
  8
0
  10
8.7246
  20
58.23887
  30
0
  11
8.25367
  21
58.25367
  31
0
  0
LINE
  8
0
  10
8.25367
  20
58.25367
  30
0
  11
7.78274
  21
58.23887
  31
0
  0
LINE
  8
0
  10
7.78274
  20
58.23887
  30
0
  11
7.31367
  21
58.19453
  31
0
  0
LINE
  8
0
  10
7.31367
  20
58.19453
  30
0
  11
6.84831
  21
58.12082
  31
0
  0
LINE
  8
0
  10
6.84831
  20
58.12082
  30
0
  11
6.38849
  21
58.01804
  31
0
  0
LINE
  8
0
  10
6.38849
  20
58.01804
  30
0
  11
5.93604
  21
57.88659
  31
0
  0
LINE
  8
0
  10
5.93604
  20
57.88659
  30
0
  11
5.49273
  21
57.72699
  31
0
  0
LINE
  8
0
  10
5.49273
  20
57.72699
  30
0
  11
5.06032
  21
57.53987
  31
0
  0
LINE
  8
0
  10
5.06032
  20
57.53987
  30
0
  11
4.64052
  21
57.32597
  31
0
  0
LINE
  8
0
  10
4.64052
  20
57.32597
  30
0
  11
4.23497
  21
57.08613
  31
0
  0
LINE
  8
0
  10
4.23497
  20
57.08613
  30
0
  11
3.84528
  21
56.8213
  31
0
  0
LINE
  8
0
  10
3.84528
  20
56.8213
  30
0
  11
3.47299
  21
56.53252
  31
0
  0
LINE
  8
0
  10
3.47299
  20
56.53252
  30
0
  11
3.11956
  21
56.22093
  31
0
  0
LINE
  8
0
  10
3.11956
  20
56.22093
  30
0
  11
2.7864
  21
55.88777
  31
0
  0
LINE
  8
0
  10
2.7864
  20
55.88777
  30
0
  11
2.47482
  21
55.53435
  31
0
  0
LINE
  8
0
  10
2.47482
  20
55.53435
  30
0
  11
2.18604
  21
55.16206
  31
0
  0
LINE
  8
0
  10
2.18604
  20
55.16206
  30
0
  11
1.92121
  21
54.77237
  31
0
  0
LINE
  8
0
  10
1.92121
  20
54.77237
  30
0
  11
1.68137
  21
54.36682
  31
0
  0
LINE
  8
0
  10
1.68137
  20
54.36682
  30
0
  11
1.46747
  21
53.94701
  31
0
  0
LINE
  8
0
  10
1.46747
  20
53.94701
  30
0
  11
1.28034
  21
53.5146
  31
0
  0
LINE
  8
0
  10
1.28034
  20
53.5146
  30
0
  11
1.12074
  21
53.0713
  31
0
  0
LINE
  8
0
  10
1.12074
  20
53.0713
  30
0
  11
0.98929
  21
52.61884
  31
0
  0
LINE
  8
0
  10
0.98929
  20
52.61884
  30
0
  11
0.88651
  21
52.15903
  31
0
  0
LINE
  8
0
  10
0.88651
  20
52.15903
  30
0
  11
0.81281
  21
51.69367
  31
0
  0
LINE
  8
0
  10
0.81281
  20
51.69367
  30
0
  11
0.76847
  21
51.2246
  31
0
  0
LINE
  8
0
  10
0.76847
  20
51.2246
  30
0
  11
0.75367
  21
50.75367
  31
0
  0
LINE
  8
0
  10
0.75367
  20
50.75367
  30
0
  11
0.76847
  21
50.28274
  31
0
  0
LINE
  8
0
  10
0.76847
  20
50.28274
  30
0
  11
0.81281
  21
49.81367
  31
0
  0
LINE
  8
0
  10
0.81281
  20
49.81367
  30
0
  11
0.88651
  21
49.34831
  31
0
  0
LINE
  8
0
  10
0.88651
  20
49.34831
  30
0
  11
0.98929
  21
48.88849
  31
0
  0
LINE
  8
0
  10
0.98929
  20
48.88849
  30
0
  11
1.12074
  21
48.43604
  31
0
  0
LINE
  8
0
  10
1.12074
  20
48.43604
  30
0
  11
1.28034
  21
47.99273
  31
0
  0
LINE
  8
0
  10
1.28034
  20
47.99273
  30
0
  11
1.46747
  21
47.56032
  31
0
  0
LINE
  8
0
  10
1.46747
  20
47.56032
  30
0
  11
1.68137
  21
47.14052
  31
0
  0
LINE
  8
0
  10
1.68137
  20
47.14052
  30
0
  11
1.92121
  21
46.73497
  31
0
  0
LINE
  8
0
  10
1.92121
  20
46.73497
  30
0
  11
2.18604
  21
46.34528
  31
0
  0
LINE
  8
0
  10
2.18604
  20
46.34528
  30
0
  11
2.47482
  21
45.97299
  31
0
  0
LINE
  8
0
  10
2.47482
  20
45.97299
  30
0
  11
2.7864
  21
45.61956
  31
0
  0
LINE
  8
0
  10
2.7864
  20
45.61956
  30
0
  11
3.11956
  21
45.2864
  31
0
  0
LINE
  8
0
  10
3.11956
  20
45.2864
  30
0
  11
3.47299
  21
44.97482
  31
0
  0
LINE
  8
0
  10
3.47299
  20
44.97482
  30
0
  11
3.84528
  21
44.68604
  31
0
  0
LINE
  8
0
  10
3.84528
  20
44.68604
  30
0
  11
4.23497
  21
44.42121
  31
0
  0
LINE
  8
0
  10
4.23497
  20
44.42121
  30
0
  11
4.64052
  21
44.18137
  31
0
  0
LINE
  8
0
  10
4.64052
  20
44.18137
  30
0
  11
5.06032
  21
43.96747
  31
0
  0
LINE
  8
0
  10
5.06032
  20
43.96747
  30
0
  11
5.49273
  21
43.78034
  31
0
  0
LINE
  8
0
  10
5.49273
  20
43.78034
  30
0
  11
5.93604
  21
43.62074
  31
0
  0
LINE
  8
0
  10
5.93604
  20
43.62074
  30
0
  11
6.38849
  21
43.48929
  31
0
  0
LINE
  8
0
  10
6.38849
  20
43.48929
  30
0
  11
6.84831
  21
43.38651
  31
0
  0
LINE
  8
0
  10
6.84831
  20
43.38651
  30
0
  11
7.31367
  21
43.31281
  31
0
  0
LINE
  8
0
  10
7.31367
  20
43.31281
  30
0
  11
7.78274
  21
43.26847
  31
0
  0
LINE
  8
0
  10
7.78274
  20
43.26847
  30
0
  11
8.25367
  21
43.25367
  31
0
  0
LINE
  8
0
  10
8.25367
  20
43.25367
  30
0
  11
8.7246
  21
43.26847
  31
0
  0
LINE
  8
0
  10
8.7246
  20
43.26847
  30
0
  11
9.19367
  21
43.31281
  31
0
  0
LINE
  8
0
  10
9.19367
  20
43.31281
  30
0
  11
9.65903
  21
43.38651
  31
0
  0
LINE
  8
0
  10
9.65903
  20
43.38651
  30
0
  11
10.11884
  21
43.48929
  31
0
  0
LINE
  8
0
  10
10.11884
  20
43.48929
  30
0
  11
10.5713
  21
43.62074
  31
0
  0
LINE
  8
0
  10
10.5713
  20
43.62074
  30
0
  11
11.0146
  21
43.78034
  31
0
  0
LINE
  8
0
  10
11.0146
  20
43.78034
  30
0
  11
11.44701
  21
43.96747
  31
0
  0
LINE
  8
0
  10
11.44701
  20
43.96747
  30
0
  11
11.86682
  21
44.18137
  31
0
  0
LINE
  8
0
  10
11.86682
  20
44.18137
  30
0
  11
12.27237
  21
44.42121
  31
0
  0
LINE
  8
0
  10
12.27237
  20
44.42121
  30
0
  11
12.66206
  21
44.68604
  31
0
  0
LINE
  8
0
  10
12.66206
  20
44.68604
  30
0
  11
13.03435
  21
44.97482
  31
0
  0
LINE
  8
0
  10
13.03435
  20
44.97482
  30
0
  11
13.38777
  21
45.2864
  31
0
  0
LINE
  8
0
  10
13.38777
  20
45.2864
  30
0
  11
13.72093
  21
45.61956
  31
0
  0
LINE
  8
0
  10
13.72093
  20
45.61956
  30
0
  11
14.03252
  21
45.97299
  31
0
  0
LINE
  8
0
  10
14.03252
  20
45.97299
  30
0
  11
14.3213
  21
46.34528
  31
0
  0
LINE
  8
0
  10
14.3213
  20
46.34528
  30
0
  11
14.58613
  21
46.73497
  31
0
  0
LINE
  8
0
  10
14.58613
  20
46.73497
  30
0
  11
14.82597
  21
47.14052
  31
0
  0
LINE
  8
0
  10
14.82597
  20
47.14052
  30
0
  11
15.03987
  21
47.56032
  31
0
  0
LINE
  8
0
  10
15.03987
  20
47.56032
  30
0
  11
15.22699
  21
47.99273
  31
0
  0
LINE
  8
0
  10
15.22699
  20
47.99273
  30
0
  11
15.38659
  21
48.43604
  31
0
  0
LINE
  8
0
  10
15.38659
  20
48.43604
  30
0
  11
15.51804
  21
48.88849
  31
0
  0
LINE
  8
0
  10
15.51804
  20
48.88849
  30
0
  11
15.62082
  21
49.34831
  31
0
  0
LINE
  8
0
  10
15.62082
  20
49.34831
  30
0
  11
15.69453
  21
49.81367
  31
0
  0
LINE
  8
0
  10
15.69453
  20
49.81367
  30
0
  11
15.73887
  21
50.28274
  31
0
  0
LINE
  8
0
  10
15.73887
  20
50.28274
  30
0
  11
15.75367
  21
50.75367
  31
0
  0
LINE
  8
0
  10
15.75367
  20
50.75367
  30
0
  11
15.75367
  21
50.75367
  31
0
  0
LINE
  8
0
  10
5.50245
  20
50.75367
  30
0
  11
11.00489
  21
50.75367
  31
0
  0
LINE
  8
0
  10
8.25367
  20
48.00245
  30
0
  11
8.25367
  21
53.50489
  31
0
  0
LINE
  8
0
  10
16.54617
  20
48.79844
  30
0
  11
16.54617
  21
48.79844
  31
0
  0
LINE
  8
0
  10
16.54617
  20
48.79844
  30
0
  11
16.45085
  21
48.8246
  31
0
  0
LINE
  8
0
  10
16.45085
  20
48.8246
  30
0
  11
16.2602
  21
48.87894
  31
0
  0
LINE
  8
0
  10
16.2602
  20
48.87894
  30
0
  11
15.87886
  21
48.99543
  31
0
  0
LINE
  8
0
  10
15.87886
  20
48.99543
  30
0
  11
15.49753
  21
49.12193
  31
0
  0
LINE
  8
0
  10
15.49753
  20
49.12193
  30
0
  11
15.11629
  21
49.25799
  31
0
  0
LINE
  8
0
  10
15.11629
  20
49.25799
  30
0
  11
15.02101
  21
49.29347
  31
0
  0
LINE
  8
0
  10
15.02101
  20
49.29347
  30
0
  11
15.00202
  21
50.30071
  31
0
  0
LINE
  8
0
  10
15.00202
  20
50.30071
  30
0
  11
15.0959
  21
50.33975
  31
0
  0
LINE
  8
0
  10
15.0959
  20
50.33975
  30
0
  11
15.47173
  21
50.49009
  31
0
  0
LINE
  8
0
  10
15.47173
  20
50.49009
  30
0
  11
15.84803
  21
50.63086
  31
0
  0
LINE
  8
0
  10
15.84803
  20
50.63086
  30
0
  11
16.22471
  21
50.76165
  31
0
  0
LINE
  8
0
  10
16.22471
  20
50.76165
  30
0
  11
16.41318
  21
50.82313
  31
0
  0
LINE
  8
0
  10
16.41318
  20
50.82313
  30
0
  11
16.50744
  21
50.85287
  31
0
  0
LINE
  8
0
  10
16.50744
  20
50.85287
  30
0
  11
16.5205
  21
51.89206
  31
0
  0
LINE
  8
0
  10
16.5205
  20
51.89206
  30
0
  11
16.42701
  21
51.92416
  31
0
  0
LINE
  8
0
  10
16.42701
  20
51.92416
  30
0
  11
16.24015
  21
51.99036
  31
0
  0
LINE
  8
0
  10
16.24015
  20
51.99036
  30
0
  11
15.86687
  21
52.13057
  31
0
  0
LINE
  8
0
  10
15.86687
  20
52.13057
  30
0
  11
15.49424
  21
52.28075
  31
0
  0
LINE
  8
0
  10
15.49424
  20
52.28075
  30
0
  11
15.1223
  21
52.44049
  31
0
  0
LINE
  8
0
  10
15.1223
  20
52.44049
  30
0
  11
15.02943
  21
52.48188
  31
0
  0
LINE
  8
0
  10
15.02943
  20
52.48188
  30
0
  11
15.07373
  21
53.48833
  31
0
  0
LINE
  8
0
  10
15.07373
  20
53.48833
  30
0
  11
15.16987
  21
53.52139
  31
0
  0
LINE
  8
0
  10
15.16987
  20
53.52139
  30
0
  11
15.5544
  21
53.64784
  31
0
  0
LINE
  8
0
  10
15.5544
  20
53.64784
  30
0
  11
15.93879
  21
53.76471
  31
0
  0
LINE
  8
0
  10
15.93879
  20
53.76471
  30
0
  11
16.32295
  21
53.87158
  31
0
  0
LINE
  8
0
  10
16.32295
  20
53.87158
  30
0
  11
16.5149
  21
53.92111
  31
0
  0
LINE
  8
0
  10
16.5149
  20
53.92111
  30
0
  11
16.61084
  21
53.94487
  31
0
  0
LINE
  8
0
  10
16.61084
  20
53.94487
  30
0
  11
16.68913
  21
54.9812
  31
0
  0
LINE
  8
0
  10
16.68913
  20
54.9812
  30
0
  11
16.59784
  21
55.01909
  31
0
  0
LINE
  8
0
  10
16.59784
  20
55.01909
  30
0
  11
16.41551
  21
55.0969
  31
0
  0
LINE
  8
0
  10
16.41551
  20
55.0969
  30
0
  11
16.05177
  21
55.26027
  31
0
  0
LINE
  8
0
  10
16.05177
  20
55.26027
  30
0
  11
15.6893
  21
55.43356
  31
0
  0
LINE
  8
0
  10
15.6893
  20
55.43356
  30
0
  11
15.32813
  21
55.61633
  31
0
  0
LINE
  8
0
  10
15.32813
  20
55.61633
  30
0
  11
15.23804
  21
55.66347
  31
0
  0
LINE
  8
0
  10
15.23804
  20
55.66347
  30
0
  11
15.34544
  21
56.66515
  31
0
  0
LINE
  8
0
  10
15.34544
  20
56.66515
  30
0
  11
15.44347
  21
56.69211
  31
0
  0
LINE
  8
0
  10
15.44347
  20
56.69211
  30
0
  11
15.83519
  21
56.79416
  31
0
  0
LINE
  8
0
  10
15.83519
  20
56.79416
  30
0
  11
16.22616
  21
56.88667
  31
0
  0
LINE
  8
0
  10
16.22616
  20
56.88667
  30
0
  11
16.61626
  21
56.96921
  31
0
  0
LINE
  8
0
  10
16.61626
  20
56.96921
  30
0
  11
16.81095
  21
57.00659
  31
0
  0
LINE
  8
0
  10
16.81095
  20
57.00659
  30
0
  11
16.90819
  21
57.02427
  31
0
  0
LINE
  8
0
  10
16.90819
  20
57.02427
  30
0
  11
17.05139
  21
58.05364
  31
0
  0
LINE
  8
0
  10
17.05139
  20
58.05364
  30
0
  11
16.96267
  21
58.0972
  31
0
  0
LINE
  8
0
  10
16.96267
  20
58.0972
  30
0
  11
16.78558
  21
58.1863
  31
0
  0
LINE
  8
0
  10
16.78558
  20
58.1863
  30
0
  11
16.43282
  21
58.37218
  31
0
  0
LINE
  8
0
  10
16.43282
  20
58.37218
  30
0
  11
16.08194
  21
58.56789
  31
0
  0
LINE
  8
0
  10
16.08194
  20
58.56789
  30
0
  11
15.73296
  21
58.77298
  31
0
  0
LINE
  8
0
  10
15.73296
  20
58.77298
  30
0
  11
15.64601
  21
58.82568
  31
0
  0
LINE
  8
0
  10
15.64601
  20
58.82568
  30
0
  11
15.8161
  21
59.81864
  31
0
  0
LINE
  8
0
  10
15.8161
  20
59.81864
  30
0
  11
15.91563
  21
59.8394
  31
0
  0
LINE
  8
0
  10
15.91563
  20
59.8394
  30
0
  11
16.31297
  21
59.91665
  31
0
  0
LINE
  8
0
  10
16.31297
  20
59.91665
  30
0
  11
16.70898
  21
59.98442
  31
0
  0
LINE
  8
0
  10
16.70898
  20
59.98442
  30
0
  11
17.1035
  21
60.04231
  31
0
  0
LINE
  8
0
  10
17.1035
  20
60.04231
  30
0
  11
17.30015
  21
60.06739
  31
0
  0
LINE
  8
0
  10
17.30015
  20
60.06739
  30
0
  11
17.39831
  21
60.07893
  31
0
  0
LINE
  8
0
  10
17.39831
  20
60.07893
  30
0
  11
17.60586
  21
61.09728
  31
0
  0
LINE
  8
0
  10
17.60586
  20
61.09728
  30
0
  11
17.52005
  21
61.14632
  31
0
  0
LINE
  8
0
  10
17.52005
  20
61.14632
  30
0
  11
17.34891
  21
61.24636
  31
0
  0
LINE
  8
0
  10
17.34891
  20
61.24636
  30
0
  11
17.00851
  21
61.45403
  31
0
  0
LINE
  8
0
  10
17.00851
  20
61.45403
  30
0
  11
16.67062
  21
61.67138
  31
0
  0
LINE
  8
0
  10
16.67062
  20
61.67138
  30
0
  11
16.3352
  21
61.89799
  31
0
  0
LINE
  8
0
  10
16.3352
  20
61.89799
  30
0
  11
16.25173
  21
61.95604
  31
0
  0
LINE
  8
0
  10
16.25173
  20
61.95604
  30
0
  11
16.48383
  21
62.93636
  31
0
  0
LINE
  8
0
  10
16.48383
  20
62.93636
  30
0
  11
16.58447
  21
62.95083
  31
0
  0
LINE
  8
0
  10
16.58447
  20
62.95083
  30
0
  11
16.98588
  21
63.00298
  31
0
  0
LINE
  8
0
  10
16.98588
  20
63.00298
  30
0
  11
17.38537
  21
63.04575
  31
0
  0
LINE
  8
0
  10
17.38537
  20
63.04575
  30
0
  11
17.78274
  21
63.07875
  31
0
  0
LINE
  8
0
  10
17.78274
  20
63.07875
  30
0
  11
17.98057
  21
63.09143
  31
0
  0
LINE
  8
0
  10
17.98057
  20
63.09143
  30
0
  11
18.07927
  21
63.09679
  31
0
  0
LINE
  8
0
  10
18.07927
  20
63.09679
  30
0
  11
18.35035
  21
64.10009
  31
0
  0
LINE
  8
0
  10
18.35035
  20
64.10009
  30
0
  11
18.26779
  21
64.15442
  31
0
  0
LINE
  8
0
  10
18.26779
  20
64.15442
  30
0
  11
18.10326
  21
64.26502
  31
0
  0
LINE
  8
0
  10
18.10326
  20
64.26502
  30
0
  11
17.77658
  21
64.49365
  31
0
  0
LINE
  8
0
  10
17.77658
  20
64.49365
  30
0
  11
17.453
  21
64.73179
  31
0
  0
LINE
  8
0
  10
17.453
  20
64.73179
  30
0
  11
17.13247
  21
64.97901
  31
0
  0
LINE
  8
0
  10
17.13247
  20
64.97901
  30
0
  11
17.05282
  21
65.04219
  31
0
  0
LINE
  8
0
  10
17.05282
  20
65.04219
  30
0
  11
17.34601
  21
66.006
  31
0
  0
LINE
  8
0
  10
17.34601
  20
66.006
  30
0
  11
17.44736
  21
66.01412
  31
0
  0
LINE
  8
0
  10
17.44736
  20
66.01412
  30
0
  11
17.85126
  21
66.04096
  31
0
  0
LINE
  8
0
  10
17.85126
  20
66.04096
  30
0
  11
18.25264
  21
66.05857
  31
0
  0
LINE
  8
0
  10
18.25264
  20
66.05857
  30
0
  11
18.6513
  21
66.06655
  31
0
  0
LINE
  8
0
  10
18.6513
  20
66.06655
  30
0
  11
18.84954
  21
66.06678
  31
0
  0
LINE
  8
0
  10
18.84954
  20
66.06678
  30
0
  11
18.94837
  21
66.06593
  31
0
  0
LINE
  8
0
  10
18.94837
  20
66.06593
  30
0
  11
19.28192
  21
67.05023
  31
0
  0
LINE
  8
0
  10
19.28192
  20
67.05023
  30
0
  11
19.20293
  21
67.10964
  31
0
  0
LINE
  8
0
  10
19.20293
  20
67.10964
  30
0
  11
19.04567
  21
67.23035
  31
0
  0
LINE
  8
0
  10
19.04567
  20
67.23035
  30
0
  11
18.73399
  21
67.47904
  31
0
  0
LINE
  8
0
  10
18.73399
  20
67.47904
  30
0
  11
18.426
  21
67.73703
  31
0
  0
LINE
  8
0
  10
18.426
  20
67.73703
  30
0
  11
18.12163
  21
68.00389
  31
0
  0
LINE
  8
0
  10
18.12163
  20
68.00389
  30
0
  11
18.0461
  21
68.07194
  31
0
  0
LINE
  8
0
  10
18.0461
  20
68.07194
  30
0
  11
18.39924
  21
69.01545
  31
0
  0
LINE
  8
0
  10
18.39924
  20
69.01545
  30
0
  11
18.50089
  21
69.01718
  31
0
  0
LINE
  8
0
  10
18.50089
  20
69.01718
  30
0
  11
18.90568
  21
69.01861
  31
0
  0
LINE
  8
0
  10
18.90568
  20
69.01861
  30
0
  11
19.30737
  21
69.01098
  31
0
  0
LINE
  8
0
  10
19.30737
  20
69.01098
  30
0
  11
19.70575
  21
68.99391
  31
0
  0
LINE
  8
0
  10
19.70575
  20
68.99391
  30
0
  11
19.90361
  21
68.9817
  31
0
  0
LINE
  8
0
  10
19.90361
  20
68.9817
  30
0
  11
20.0022
  21
68.97465
  31
0
  0
LINE
  8
0
  10
20.0022
  20
68.97465
  30
0
  11
20.39689
  21
69.93606
  31
0
  0
LINE
  8
0
  10
20.39689
  20
69.93606
  30
0
  11
20.32179
  21
70.00031
  31
0
  0
LINE
  8
0
  10
20.32179
  20
70.00031
  30
0
  11
20.17242
  21
70.13065
  31
0
  0
LINE
  8
0
  10
20.17242
  20
70.13065
  30
0
  11
19.87697
  21
70.39843
  31
0
  0
LINE
  8
0
  10
19.87697
  20
70.39843
  30
0
  11
19.58579
  21
70.67525
  31
0
  0
LINE
  8
0
  10
19.58579
  20
70.67525
  30
0
  11
19.29877
  21
70.96069
  31
0
  0
LINE
  8
0
  10
19.29877
  20
70.96069
  30
0
  11
19.22766
  21
71.03335
  31
0
  0
LINE
  8
0
  10
19.22766
  20
71.03335
  30
0
  11
19.63935
  21
71.95282
  31
0
  0
LINE
  8
0
  10
19.63935
  20
71.95282
  30
0
  11
19.74091
  21
71.94817
  31
0
  0
LINE
  8
0
  10
19.74091
  20
71.94817
  30
0
  11
20.14499
  21
71.92418
  31
0
  0
LINE
  8
0
  10
20.14499
  20
71.92418
  30
0
  11
20.54541
  21
71.89134
  31
0
  0
LINE
  8
0
  10
20.54541
  20
71.89134
  30
0
  11
20.94193
  21
71.84929
  31
0
  0
LINE
  8
0
  10
20.94193
  20
71.84929
  30
0
  11
21.13863
  21
71.82468
  31
0
  0
LINE
  8
0
  10
21.13863
  20
71.82468
  30
0
  11
21.23658
  21
71.81145
  31
0
  0
LINE
  8
0
  10
21.23658
  20
71.81145
  30
0
  11
21.69087
  21
72.74619
  31
0
  0
LINE
  8
0
  10
21.69087
  20
72.74619
  30
0
  11
21.61995
  21
72.81503
  31
0
  0
LINE
  8
0
  10
21.61995
  20
72.81503
  30
0
  11
21.47906
  21
72.95449
  31
0
  0
LINE
  8
0
  10
21.47906
  20
72.95449
  30
0
  11
21.201
  21
73.24029
  31
0
  0
LINE
  8
0
  10
21.201
  20
73.24029
  30
0
  11
20.92778
  21
73.53484
  31
0
  0
LINE
  8
0
  10
20.92778
  20
73.53484
  30
0
  11
20.65925
  21
73.83774
  31
0
  0
LINE
  8
0
  10
20.65925
  20
73.83774
  30
0
  11
20.59284
  21
73.91473
  31
0
  0
LINE
  8
0
  10
20.59284
  20
73.91473
  30
0
  11
21.06145
  21
74.80653
  31
0
  0
LINE
  8
0
  10
21.06145
  20
74.80653
  30
0
  11
21.16252
  21
74.79551
  31
0
  0
LINE
  8
0
  10
21.16252
  20
74.79551
  30
0
  11
21.56429
  21
74.7462
  31
0
  0
LINE
  8
0
  10
21.56429
  20
74.7462
  30
0
  11
21.96186
  21
74.68828
  31
0
  0
LINE
  8
0
  10
21.96186
  20
74.68828
  30
0
  11
22.35496
  21
74.62142
  31
0
  0
LINE
  8
0
  10
22.35496
  20
74.62142
  30
0
  11
22.54973
  21
74.5845
  31
0
  0
LINE
  8
0
  10
22.54973
  20
74.5845
  30
0
  11
22.64665
  21
74.56515
  31
0
  0
LINE
  8
0
  10
22.64665
  20
74.56515
  30
0
  11
23.15874
  21
75.46951
  31
0
  0
LINE
  8
0
  10
23.15874
  20
75.46951
  30
0
  11
23.09228
  21
75.54267
  31
0
  0
LINE
  8
0
  10
23.09228
  20
75.54267
  30
0
  11
22.96042
  21
75.69071
  31
0
  0
LINE
  8
0
  10
22.96042
  20
75.69071
  30
0
  11
22.70086
  21
75.9934
  31
0
  0
LINE
  8
0
  10
22.70086
  20
75.9934
  30
0
  11
22.44667
  21
76.30453
  31
0
  0
LINE
  8
0
  10
22.44667
  20
76.30453
  30
0
  11
22.1977
  21
76.62369
  31
0
  0
LINE
  8
0
  10
22.1977
  20
76.62369
  30
0
  11
22.13625
  21
76.7047
  31
0
  0
LINE
  8
0
  10
22.13625
  20
76.7047
  30
0
  11
22.65993
  21
77.56532
  31
0
  0
LINE
  8
0
  10
22.65993
  20
77.56532
  30
0
  11
22.76011
  21
77.54797
  31
0
  0
LINE
  8
0
  10
22.76011
  20
77.54797
  30
0
  11
23.15799
  21
77.47353
  31
0
  0
LINE
  8
0
  10
23.15799
  20
77.47353
  30
0
  11
23.55114
  21
77.39076
  31
0
  0
LINE
  8
0
  10
23.55114
  20
77.39076
  30
0
  11
23.93926
  21
77.29935
  31
0
  0
LINE
  8
0
  10
23.93926
  20
77.29935
  30
0
  11
24.13133
  21
77.25028
  31
0
  0
LINE
  8
0
  10
24.13133
  20
77.25028
  30
0
  11
24.22685
  21
77.22487
  31
0
  0
LINE
  8
0
  10
24.22685
  20
77.22487
  30
0
  11
24.79471
  21
78.0953
  31
0
  0
LINE
  8
0
  10
24.79471
  20
78.0953
  30
0
  11
24.73298
  21
78.17249
  31
0
  0
LINE
  8
0
  10
24.73298
  20
78.17249
  30
0
  11
24.61068
  21
78.32851
  31
0
  0
LINE
  8
0
  10
24.61068
  20
78.32851
  30
0
  11
24.37063
  21
78.6469
  31
0
  0
LINE
  8
0
  10
24.37063
  20
78.6469
  30
0
  11
24.13648
  21
78.97338
  31
0
  0
LINE
  8
0
  10
24.13648
  20
78.97338
  30
0
  11
23.90804
  21
79.30754
  31
0
  0
LINE
  8
0
  10
23.90804
  20
79.30754
  30
0
  11
23.8518
  21
79.39225
  31
0
  0
LINE
  8
0
  10
23.8518
  20
79.39225
  30
0
  11
24.42848
  21
80.21829
  31
0
  0
LINE
  8
0
  10
24.42848
  20
80.21829
  30
0
  11
24.52738
  21
80.19469
  31
0
  0
LINE
  8
0
  10
24.52738
  20
80.19469
  30
0
  11
24.9198
  21
80.09541
  31
0
  0
LINE
  8
0
  10
24.9198
  20
80.09541
  30
0
  11
25.30697
  21
79.98812
  31
0
  0
LINE
  8
0
  10
25.30697
  20
79.98812
  30
0
  11
25.68859
  21
79.87251
  31
0
  0
LINE
  8
0
  10
25.68859
  20
79.87251
  30
0
  11
25.8772
  21
79.81148
  31
0
  0
LINE
  8
0
  10
25.8772
  20
79.81148
  30
0
  11
25.97094
  21
79.78013
  31
0
  0
LINE
  8
0
  10
25.97094
  20
79.78013
  30
0
  11
26.59233
  21
80.61318
  31
0
  0
LINE
  8
0
  10
26.59233
  20
80.61318
  30
0
  11
26.53556
  21
80.69409
  31
0
  0
LINE
  8
0
  10
26.53556
  20
80.69409
  30
0
  11
26.4233
  21
80.85749
  31
0
  0
LINE
  8
0
  10
26.4233
  20
80.85749
  30
0
  11
26.20373
  21
81.19032
  31
0
  0
LINE
  8
0
  10
26.20373
  20
81.19032
  30
0
  11
25.99053
  21
81.53086
  31
0
  0
LINE
  8
0
  10
25.99053
  20
81.53086
  30
0
  11
25.78352
  21
81.87871
  31
0
  0
LINE
  8
0
  10
25.78352
  20
81.87871
  30
0
  11
25.73271
  21
81.96678
  31
0
  0
LINE
  8
0
  10
25.73271
  20
81.96678
  30
0
  11
26.36013
  21
82.75498
  31
0
  0
LINE
  8
0
  10
26.36013
  20
82.75498
  30
0
  11
26.45734
  21
82.72521
  31
0
  0
LINE
  8
0
  10
26.45734
  20
82.72521
  30
0
  11
26.84276
  21
82.60149
  31
0
  0
LINE
  8
0
  10
26.84276
  20
82.60149
  30
0
  11
27.22243
  21
82.4701
  31
0
  0
LINE
  8
0
  10
27.22243
  20
82.4701
  30
0
  11
27.59604
  21
82.33076
  31
0
  0
LINE
  8
0
  10
27.59604
  20
82.33076
  30
0
  11
27.78044
  21
82.258
  31
0
  0
LINE
  8
0
  10
27.78044
  20
82.258
  30
0
  11
27.87202
  21
82.22083
  31
0
  0
LINE
  8
0
  10
27.87202
  20
82.22083
  30
0
  11
28.5445
  21
83.01322
  31
0
  0
LINE
  8
0
  10
28.5445
  20
83.01322
  30
0
  11
28.49292
  21
83.09754
  31
0
  0
LINE
  8
0
  10
28.49292
  20
83.09754
  30
0
  11
28.39114
  21
83.26766
  31
0
  0
LINE
  8
0
  10
28.39114
  20
83.26766
  30
0
  11
28.1929
  21
83.61363
  31
0
  0
LINE
  8
0
  10
28.1929
  20
83.61363
  30
0
  11
28.00151
  21
83.96688
  31
0
  0
LINE
  8
0
  10
28.00151
  20
83.96688
  30
0
  11
27.81675
  21
84.32704
  31
0
  0
LINE
  8
0
  10
27.81675
  20
84.32704
  30
0
  11
27.77157
  21
84.41812
  31
0
  0
LINE
  8
0
  10
27.77157
  20
84.41812
  30
0
  11
28.44724
  21
85.16537
  31
0
  0
LINE
  8
0
  10
28.44724
  20
85.16537
  30
0
  11
28.5424
  21
85.12956
  31
0
  0
LINE
  8
0
  10
28.5424
  20
85.12956
  30
0
  11
28.91928
  21
84.98188
  31
0
  0
LINE
  8
0
  10
28.91928
  20
84.98188
  30
0
  11
29.28996
  21
84.82691
  31
0
  0
LINE
  8
0
  10
29.28996
  20
84.82691
  30
0
  11
29.65407
  21
84.66439
  31
0
  0
LINE
  8
0
  10
29.65407
  20
84.66439
  30
0
  11
29.83355
  21
84.5802
  31
0
  0
LINE
  8
0
  10
29.83355
  20
84.5802
  30
0
  11
29.92261
  21
84.53735
  31
0
  0
LINE
  8
0
  10
29.92261
  20
84.53735
  30
0
  11
30.64352
  21
85.28595
  31
0
  0
LINE
  8
0
  10
30.64352
  20
85.28595
  30
0
  11
30.59734
  21
85.37334
  31
0
  0
LINE
  8
0
  10
30.59734
  20
85.37334
  30
0
  11
30.50644
  21
85.54951
  31
0
  0
LINE
  8
0
  10
30.50644
  20
85.54951
  30
0
  11
30.33031
  21
85.90724
  31
0
  0
LINE
  8
0
  10
30.33031
  20
85.90724
  30
0
  11
30.16148
  21
86.27181
  31
0
  0
LINE
  8
0
  10
30.16148
  20
86.27181
  30
0
  11
29.9997
  21
86.64287
  31
0
  0
LINE
  8
0
  10
29.9997
  20
86.64287
  30
0
  11
29.96033
  21
86.73661
  31
0
  0
LINE
  8
0
  10
29.96033
  20
86.73661
  30
0
  11
30.68158
  21
87.43996
  31
0
  0
LINE
  8
0
  10
30.68158
  20
87.43996
  30
0
  11
30.7743
  21
87.39824
  31
0
  0
LINE
  8
0
  10
30.7743
  20
87.39824
  30
0
  11
31.14117
  21
87.22719
  31
0
  0
LINE
  8
0
  10
31.14117
  20
87.22719
  30
0
  11
31.50139
  21
87.04925
  31
0
  0
LINE
  8
0
  10
31.50139
  20
87.04925
  30
0
  11
31.85458
  21
86.86419
  31
0
  0
LINE
  8
0
  10
31.85458
  20
86.86419
  30
0
  11
32.02841
  21
86.76889
  31
0
  0
LINE
  8
0
  10
32.02841
  20
86.76889
  30
0
  11
32.11461
  21
86.72053
  31
0
  0
LINE
  8
0
  10
32.11461
  20
86.72053
  30
0
  11
32.8811
  21
87.42239
  31
0
  0
LINE
  8
0
  10
32.8811
  20
87.42239
  30
0
  11
32.8405
  21
87.51251
  31
0
  0
LINE
  8
0
  10
32.8405
  20
87.51251
  30
0
  11
32.76084
  21
87.69404
  31
0
  0
LINE
  8
0
  10
32.76084
  20
87.69404
  30
0
  11
32.60752
  21
88.06213
  31
0
  0
LINE
  8
0
  10
32.60752
  20
88.06213
  30
0
  11
32.46192
  21
88.43658
  31
0
  0
LINE
  8
0
  10
32.46192
  20
88.43658
  30
0
  11
32.32375
  21
88.81706
  31
0
  0
LINE
  8
0
  10
32.32375
  20
88.81706
  30
0
  11
32.29035
  21
88.91308
  31
0
  0
LINE
  8
0
  10
32.29035
  20
88.91308
  30
0
  11
33.05434
  21
89.56976
  31
0
  0
LINE
  8
0
  10
33.05434
  20
89.56976
  30
0
  11
33.14426
  21
89.52231
  31
0
  0
LINE
  8
0
  10
33.14426
  20
89.52231
  30
0
  11
33.49967
  21
89.32855
  31
0
  0
LINE
  8
0
  10
33.49967
  20
89.32855
  30
0
  11
33.84799
  21
89.12835
  31
0
  0
LINE
  8
0
  10
33.84799
  20
89.12835
  30
0
  11
34.18887
  21
88.92147
  31
0
  0
LINE
  8
0
  10
34.18887
  20
88.92147
  30
0
  11
34.35638
  21
88.81545
  31
0
  0
LINE
  8
0
  10
34.35638
  20
88.81545
  30
0
  11
34.43937
  21
88.76177
  31
0
  0
LINE
  8
0
  10
34.43937
  20
88.76177
  30
0
  11
35.24841
  21
89.41412
  31
0
  0
LINE
  8
0
  10
35.24841
  20
89.41412
  30
0
  11
35.21355
  21
89.50661
  31
0
  0
LINE
  8
0
  10
35.21355
  20
89.50661
  30
0
  11
35.14545
  21
89.69278
  31
0
  0
LINE
  8
0
  10
35.14545
  20
89.69278
  30
0
  11
35.01555
  21
90.06977
  31
0
  0
LINE
  8
0
  10
35.01555
  20
90.06977
  30
0
  11
34.89374
  21
90.45263
  31
0
  0
LINE
  8
0
  10
34.89374
  20
90.45263
  30
0
  11
34.77974
  21
90.84103
  31
0
  0
LINE
  8
0
  10
34.77974
  20
90.84103
  30
0
  11
34.75243
  21
90.93897
  31
0
  0
LINE
  8
0
  10
34.75243
  20
90.93897
  30
0
  11
35.55615
  21
91.54637
  31
0
  0
LINE
  8
0
  10
35.55615
  20
91.54637
  30
0
  11
35.64291
  21
91.49337
  31
0
  0
LINE
  8
0
  10
35.64291
  20
91.49337
  30
0
  11
35.98545
  21
91.27768
  31
0
  0
LINE
  8
0
  10
35.98545
  20
91.27768
  30
0
  11
36.32052
  21
91.056
  31
0
  0
LINE
  8
0
  10
36.32052
  20
91.056
  30
0
  11
36.64773
  21
90.82813
  31
0
  0
LINE
  8
0
  10
36.64773
  20
90.82813
  30
0
  11
36.80825
  21
90.71179
  31
0
  0
LINE
  8
0
  10
36.80825
  20
90.71179
  30
0
  11
36.88771
  21
90.65301
  31
0
  0
LINE
  8
0
  10
36.88771
  20
90.65301
  30
0
  11
37.73612
  21
91.25327
  31
0
  0
LINE
  8
0
  10
37.73612
  20
91.25327
  30
0
  11
37.70713
  21
91.34777
  31
0
  0
LINE
  8
0
  10
37.70713
  20
91.34777
  30
0
  11
37.65086
  21
91.53785
  31
0
  0
LINE
  8
0
  10
37.65086
  20
91.53785
  30
0
  11
37.54488
  21
91.92225
  31
0
  0
LINE
  8
0
  10
37.54488
  20
91.92225
  30
0
  11
37.44735
  21
92.312
  31
0
  0
LINE
  8
0
  10
37.44735
  20
92.312
  30
0
  11
37.35797
  21
92.7068
  31
0
  0
LINE
  8
0
  10
37.35797
  20
92.7068
  30
0
  11
37.33686
  21
92.80625
  31
0
  0
LINE
  8
0
  10
37.33686
  20
92.80625
  30
0
  11
38.17713
  21
93.36199
  31
0
  0
LINE
  8
0
  10
38.17713
  20
93.36199
  30
0
  11
38.26039
  21
93.30365
  31
0
  0
LINE
  8
0
  10
38.26039
  20
93.30365
  30
0
  11
38.58871
  21
93.06688
  31
0
  0
LINE
  8
0
  10
38.58871
  20
93.06688
  30
0
  11
38.9092
  21
92.82459
  31
0
  0
LINE
  8
0
  10
38.9092
  20
92.82459
  30
0
  11
39.22146
  21
92.57663
  31
0
  0
LINE
  8
0
  10
39.22146
  20
92.57663
  30
0
  11
39.37436
  21
92.45044
  31
0
  0
LINE
  8
0
  10
39.37436
  20
92.45044
  30
0
  11
39.44997
  21
92.38679
  31
0
  0
LINE
  8
0
  10
39.44997
  20
92.38679
  30
0
  11
40.3344
  21
92.93259
  31
0
  0
LINE
  8
0
  10
40.3344
  20
92.93259
  30
0
  11
40.3114
  21
93.02872
  31
0
  0
LINE
  8
0
  10
40.3114
  20
93.02872
  30
0
  11
40.26717
  21
93.22196
  31
0
  0
LINE
  8
0
  10
40.26717
  20
93.22196
  30
0
  11
40.18554
  21
93.61226
  31
0
  0
LINE
  8
0
  10
40.18554
  20
93.61226
  30
0
  11
40.11268
  21
94.00736
  31
0
  0
LINE
  8
0
  10
40.11268
  20
94.00736
  30
0
  11
40.04826
  21
94.40699
  31
0
  0
LINE
  8
0
  10
40.04826
  20
94.40699
  30
0
  11
40.03344
  21
94.50758
  31
0
  0
LINE
  8
0
  10
40.03344
  20
94.50758
  30
0
  11
40.90695
  21
95.00946
  31
0
  0
LINE
  8
0
  10
40.90695
  20
95.00946
  30
0
  11
40.98638
  21
94.946
  31
0
  0
LINE
  8
0
  10
40.98638
  20
94.946
  30
0
  11
41.29918
  21
94.68908
  31
0
  0
LINE
  8
0
  10
41.29918
  20
94.68908
  30
0
  11
41.60383
  21
94.42715
  31
0
  0
LINE
  8
0
  10
41.60383
  20
94.42715
  30
0
  11
41.8999
  21
94.16007
  31
0
  0
LINE
  8
0
  10
41.8999
  20
94.16007
  30
0
  11
42.04458
  21
94.02454
  31
0
  0
LINE
  8
0
  10
42.04458
  20
94.02454
  30
0
  11
42.11604
  21
93.95626
  31
0
  0
LINE
  8
0
  10
42.11604
  20
93.95626
  30
0
  11
43.03299
  21
94.44545
  31
0
  0
LINE
  8
0
  10
43.03299
  20
94.44545
  30
0
  11
43.01608
  21
94.54283
  31
0
  0
LINE
  8
0
  10
43.01608
  20
94.54283
  30
0
  11
42.98407
  21
94.73847
  31
0
  0
LINE
  8
0
  10
42.98407
  20
94.73847
  30
0
  11
42.92711
  21
95.13312
  31
0
  0
LINE
  8
0
  10
42.92711
  20
95.13312
  30
0
  11
42.8792
  21
95.53202
  31
0
  0
LINE
  8
0
  10
42.8792
  20
95.53202
  30
0
  11
42.84
  21
95.93491
  31
0
  0
LINE
  8
0
  10
42.84
  20
95.93491
  30
0
  11
42.83152
  21
96.03623
  31
0
  0
LINE
  8
0
  10
42.83152
  20
96.03623
  30
0
  11
43.73482
  21
96.48227
  31
0
  0
LINE
  8
0
  10
43.73482
  20
96.48227
  30
0
  11
43.81011
  21
96.41395
  31
0
  0
LINE
  8
0
  10
43.81011
  20
96.41395
  30
0
  11
44.10617
  21
96.1379
  31
0
  0
LINE
  8
0
  10
44.10617
  20
96.1379
  30
0
  11
44.39376
  21
95.85735
  31
0
  0
LINE
  8
0
  10
44.39376
  20
95.85735
  30
0
  11
44.67248
  21
95.57221
  31
0
  0
LINE
  8
0
  10
44.67248
  20
95.57221
  30
0
  11
44.80836
  21
95.42786
  31
0
  0
LINE
  8
0
  10
44.80836
  20
95.42786
  30
0
  11
44.8754
  21
95.35523
  31
0
  0
LINE
  8
0
  10
44.8754
  20
95.35523
  30
0
  11
45.82126
  21
95.78588
  31
0
  0
LINE
  8
0
  10
45.82126
  20
95.78588
  30
0
  11
45.81049
  21
95.88413
  31
0
  0
LINE
  8
0
  10
45.81049
  20
95.88413
  30
0
  11
45.79083
  21
96.08139
  31
0
  0
LINE
  8
0
  10
45.79083
  20
96.08139
  30
0
  11
45.75876
  21
96.47884
  31
0
  0
LINE
  8
0
  10
45.75876
  20
96.47884
  30
0
  11
45.73599
  21
96.87996
  31
0
  0
LINE
  8
0
  10
45.73599
  20
96.87996
  30
0
  11
45.72216
  21
97.28451
  31
0
  0
LINE
  8
0
  10
45.72216
  20
97.28451
  30
0
  11
45.72007
  21
97.38616
  31
0
  0
LINE
  8
0
  10
45.72007
  20
97.38616
  30
0
  11
46.64959
  21
97.77461
  31
0
  0
LINE
  8
0
  10
46.64959
  20
97.77461
  30
0
  11
46.72045
  21
97.7017
  31
0
  0
LINE
  8
0
  10
46.72045
  20
97.7017
  30
0
  11
46.99858
  21
97.4076
  31
0
  0
LINE
  8
0
  10
46.99858
  20
97.4076
  30
0
  11
47.268
  21
97.10955
  31
0
  0
LINE
  8
0
  10
47.268
  20
97.10955
  30
0
  11
47.52826
  21
96.80746
  31
0
  0
LINE
  8
0
  10
47.52826
  20
96.80746
  30
0
  11
47.65481
  21
96.65487
  31
0
  0
LINE
  8
0
  10
47.65481
  20
96.65487
  30
0
  11
47.71715
  21
96.57817
  31
0
  0
LINE
  8
0
  10
47.71715
  20
96.57817
  30
0
  11
48.68818
  21
96.94859
  31
0
  0
LINE
  8
0
  10
48.68818
  20
96.94859
  30
0
  11
48.68361
  21
97.04732
  31
0
  0
LINE
  8
0
  10
48.68361
  20
97.04732
  30
0
  11
48.67637
  21
97.24543
  31
0
  0
LINE
  8
0
  10
48.67637
  20
97.24543
  30
0
  11
48.66932
  21
97.64411
  31
0
  0
LINE
  8
0
  10
48.66932
  20
97.64411
  30
0
  11
48.67179
  21
98.04586
  31
0
  0
LINE
  8
0
  10
48.67179
  20
98.04586
  30
0
  11
48.68339
  21
98.45049
  31
0
  0
LINE
  8
0
  10
48.68339
  20
98.45049
  30
0
  11
48.68768
  21
98.55207
  31
0
  0
LINE
  8
0
  10
48.68768
  20
98.55207
  30
0
  11
49.63976
  21
98.88138
  31
0
  0
LINE
  8
0
  10
49.63976
  20
98.88138
  30
0
  11
49.70589
  21
98.80416
  31
0
  0
LINE
  8
0
  10
49.70589
  20
98.80416
  30
0
  11
49.96502
  21
98.49318
  31
0
  0
LINE
  8
0
  10
49.96502
  20
98.49318
  30
0
  11
50.21518
  21
98.1788
  31
0
  0
LINE
  8
0
  10
50.21518
  20
98.1788
  30
0
  11
50.45597
  21
97.86097
  31
0
  0
LINE
  8
0
  10
50.45597
  20
97.86097
  30
0
  11
50.57268
  21
97.70073
  31
0
  0
LINE
  8
0
  10
50.57268
  20
97.70073
  30
0
  11
50.63009
  21
97.62027
  31
0
  0
LINE
  8
0
  10
50.63009
  20
97.62027
  30
0
  11
51.62246
  21
97.92898
  31
0
  0
LINE
  8
0
  10
51.62246
  20
97.92898
  30
0
  11
51.62409
  21
98.02781
  31
0
  0
LINE
  8
0
  10
51.62409
  20
98.02781
  30
0
  11
51.62931
  21
98.22598
  31
0
  0
LINE
  8
0
  10
51.62931
  20
98.22598
  30
0
  11
51.64731
  21
98.62431
  31
0
  0
LINE
  8
0
  10
51.64731
  20
98.62431
  30
0
  11
51.67499
  21
99.02512
  31
0
  0
LINE
  8
0
  10
51.67499
  20
99.02512
  30
0
  11
51.71198
  21
99.42822
  31
0
  0
LINE
  8
0
  10
51.71198
  20
99.42822
  30
0
  11
51.72264
  21
99.52933
  31
0
  0
LINE
  8
0
  10
51.72264
  20
99.52933
  30
0
  11
52.69352
  21
99.79821
  31
0
  0
LINE
  8
0
  10
52.69352
  20
99.79821
  30
0
  11
52.75468
  21
99.71699
  31
0
  0
LINE
  8
0
  10
52.75468
  20
99.71699
  30
0
  11
52.99376
  21
99.39035
  31
0
  0
LINE
  8
0
  10
52.99376
  20
99.39035
  30
0
  11
53.22369
  21
99.06089
  31
0
  0
LINE
  8
0
  10
53.22369
  20
99.06089
  30
0
  11
53.44405
  21
98.72857
  31
0
  0
LINE
  8
0
  10
53.44405
  20
98.72857
  30
0
  11
53.55047
  21
98.56131
  31
0
  0
LINE
  8
0
  10
53.55047
  20
98.56131
  30
0
  11
53.60271
  21
98.47741
  31
0
  0
LINE
  8
0
  10
53.60271
  20
98.47741
  30
0
  11
54.61251
  21
98.7232
  31
0
  0
LINE
  8
0
  10
54.61251
  20
98.7232
  30
0
  11
54.62034
  21
98.82172
  31
0
  0
LINE
  8
0
  10
54.62034
  20
98.82172
  30
0
  11
54.63799
  21
99.01918
  31
0
  0
LINE
  8
0
  10
54.63799
  20
99.01918
  30
0
  11
54.68097
  21
99.4156
  31
0
  0
LINE
  8
0
  10
54.68097
  20
99.4156
  30
0
  11
54.73377
  21
99.81388
  31
0
  0
LINE
  8
0
  10
54.73377
  20
99.81388
  30
0
  11
54.79599
  21
100.21386
  31
0
  0
LINE
  8
0
  10
54.79599
  20
100.21386
  30
0
  11
54.81298
  21
100.3141
  31
0
  0
LINE
  8
0
  10
54.81298
  20
100.3141
  30
0
  11
55.79882
  21
100.52149
  31
0
  0
LINE
  8
0
  10
55.79882
  20
100.52149
  30
0
  11
55.85476
  21
100.43659
  31
0
  0
LINE
  8
0
  10
55.85476
  20
100.43659
  30
0
  11
56.07286
  21
100.09558
  31
0
  0
LINE
  8
0
  10
56.07286
  20
100.09558
  30
0
  11
56.28165
  21
99.75233
  31
0
  0
LINE
  8
0
  10
56.28165
  20
99.75233
  30
0
  11
56.48071
  21
99.40683
  31
0
  0
LINE
  8
0
  10
56.48071
  20
99.40683
  30
0
  11
56.57642
  21
99.23322
  31
0
  0
LINE
  8
0
  10
56.57642
  20
99.23322
  30
0
  11
56.62328
  21
99.1462
  31
0
  0
LINE
  8
0
  10
56.62328
  20
99.1462
  30
0
  11
57.64652
  21
99.3281
  31
0
  0
LINE
  8
0
  10
57.64652
  20
99.3281
  30
0
  11
57.66053
  21
99.42594
  31
0
  0
LINE
  8
0
  10
57.66053
  20
99.42594
  30
0
  11
57.69055
  21
99.6219
  31
0
  0
LINE
  8
0
  10
57.69055
  20
99.6219
  30
0
  11
57.75833
  21
100.01483
  31
0
  0
LINE
  8
0
  10
57.75833
  20
100.01483
  30
0
  11
57.83603
  21
100.40901
  31
0
  0
LINE
  8
0
  10
57.83603
  20
100.40901
  30
0
  11
57.92324
  21
100.8043
  31
0
  0
LINE
  8
0
  10
57.92324
  20
100.8043
  30
0
  11
57.94649
  21
100.90327
  31
0
  0
LINE
  8
0
  10
57.94649
  20
100.90327
  30
0
  11
58.94341
  21
101.04835
  31
0
  0
LINE
  8
0
  10
58.94341
  20
101.04835
  30
0
  11
58.99391
  21
100.96011
  31
0
  0
LINE
  8
0
  10
58.99391
  20
100.96011
  30
0
  11
59.19017
  21
100.60608
  31
0
  0
LINE
  8
0
  10
59.19017
  20
100.60608
  30
0
  11
59.377
  21
100.2504
  31
0
  0
LINE
  8
0
  10
59.377
  20
100.2504
  30
0
  11
59.55396
  21
99.89307
  31
0
  0
LINE
  8
0
  10
59.55396
  20
99.89307
  30
0
  11
59.63858
  21
99.7138
  31
0
  0
LINE
  8
0
  10
59.63858
  20
99.7138
  30
0
  11
59.67989
  21
99.62401
  31
0
  0
LINE
  8
0
  10
59.67989
  20
99.62401
  30
0
  11
60.71254
  21
99.7413
  31
0
  0
LINE
  8
0
  10
60.71254
  20
99.7413
  30
0
  11
60.73266
  21
99.83807
  31
0
  0
LINE
  8
0
  10
60.73266
  20
99.83807
  30
0
  11
60.77492
  21
100.03175
  31
0
  0
LINE
  8
0
  10
60.77492
  20
100.03175
  30
0
  11
60.86724
  21
100.41966
  31
0
  0
LINE
  8
0
  10
60.86724
  20
100.41966
  30
0
  11
60.96954
  21
100.80818
  31
0
  0
LINE
  8
0
  10
60.96954
  20
100.80818
  30
0
  11
61.0814
  21
101.19721
  31
0
  0
LINE
  8
0
  10
61.0814
  20
101.19721
  30
0
  11
61.11082
  21
101.29453
  31
0
  0
LINE
  8
0
  10
61.11082
  20
101.29453
  30
0
  11
62.11488
  21
101.37673
  31
0
  0
LINE
  8
0
  10
62.11488
  20
101.37673
  30
0
  11
62.15974
  21
101.28548
  31
0
  0
LINE
  8
0
  10
62.15974
  20
101.28548
  30
0
  11
62.33338
  21
100.91983
  31
0
  0
LINE
  8
0
  10
62.33338
  20
100.91983
  30
0
  11
62.49751
  21
100.55312
  31
0
  0
LINE
  8
0
  10
62.49751
  20
100.55312
  30
0
  11
62.65168
  21
100.18539
  31
0
  0
LINE
  8
0
  10
62.65168
  20
100.18539
  30
0
  11
62.72488
  21
100.00116
  31
0
  0
LINE
  8
0
  10
62.72488
  20
100.00116
  30
0
  11
62.76047
  21
99.90895
  31
0
  0
LINE
  8
0
  10
62.76047
  20
99.90895
  30
0
  11
63.79844
  21
99.96117
  31
0
  0
LINE
  8
0
  10
63.79844
  20
99.96117
  30
0
  11
63.8246
  21
100.05648
  31
0
  0
LINE
  8
0
  10
63.8246
  20
100.05648
  30
0
  11
63.87894
  21
100.24713
  31
0
  0
LINE
  8
0
  10
63.87894
  20
100.24713
  30
0
  11
63.99543
  21
100.62848
  31
0
  0
LINE
  8
0
  10
63.99543
  20
100.62848
  30
0
  11
64.12193
  21
101.00981
  31
0
  0
LINE
  8
0
  10
64.12193
  20
101.00981
  30
0
  11
64.25799
  21
101.39104
  31
0
  0
LINE
  8
0
  10
64.25799
  20
101.39104
  30
0
  11
64.29347
  21
101.48633
  31
0
  0
LINE
  8
0
  10
64.29347
  20
101.48633
  30
0
  11
65.30071
  21
101.50531
  31
0
  0
LINE
  8
0
  10
65.30071
  20
101.50531
  30
0
  11
65.33975
  21
101.41144
  31
0
  0
LINE
  8
0
  10
65.33975
  20
101.41144
  30
0
  11
65.49009
  21
101.0356
  31
0
  0
LINE
  8
0
  10
65.49009
  20
101.0356
  30
0
  11
65.63086
  21
100.65931
  31
0
  0
LINE
  8
0
  10
65.63086
  20
100.65931
  30
0
  11
65.76165
  21
100.28262
  31
0
  0
LINE
  8
0
  10
65.76165
  20
100.28262
  30
0
  11
65.82313
  21
100.09416
  31
0
  0
LINE
  8
0
  10
65.82313
  20
100.09416
  30
0
  11
65.85287
  21
99.9999
  31
0
  0
LINE
  8
0
  10
65.85287
  20
99.9999
  30
0
  11
66.89206
  21
99.98684
  31
0
  0
LINE
  8
0
  10
66.89206
  20
99.98684
  30
0
  11
66.92416
  21
100.08032
  31
0
  0
LINE
  8
0
  10
66.92416
  20
100.08032
  30
0
  11
66.99036
  21
100.26718
  31
0
  0
LINE
  8
0
  10
66.99036
  20
100.26718
  30
0
  11
67.13057
  21
100.64046
  31
0
  0
LINE
  8
0
  10
67.13057
  20
100.64046
  30
0
  11
67.28075
  21
101.0131
  31
0
  0
LINE
  8
0
  10
67.28075
  20
101.0131
  30
0
  11
67.44049
  21
101.38504
  31
0
  0
LINE
  8
0
  10
67.44049
  20
101.38504
  30
0
  11
67.48188
  21
101.4779
  31
0
  0
LINE
  8
0
  10
67.48188
  20
101.4779
  30
0
  11
68.48833
  21
101.43361
  31
0
  0
LINE
  8
0
  10
68.48833
  20
101.43361
  30
0
  11
68.52139
  21
101.33747
  31
0
  0
LINE
  8
0
  10
68.52139
  20
101.33747
  30
0
  11
68.64784
  21
100.95293
  31
0
  0
LINE
  8
0
  10
68.64784
  20
100.95293
  30
0
  11
68.76471
  21
100.56854
  31
0
  0
LINE
  8
0
  10
68.76471
  20
100.56854
  30
0
  11
68.87158
  21
100.18439
  31
0
  0
LINE
  8
0
  10
68.87158
  20
100.18439
  30
0
  11
68.92111
  21
99.99244
  31
0
  0
LINE
  8
0
  10
68.92111
  20
99.99244
  30
0
  11
68.94487
  21
99.8965
  31
0
  0
LINE
  8
0
  10
68.94487
  20
99.8965
  30
0
  11
69.9812
  21
99.81821
  31
0
  0
LINE
  8
0
  10
69.9812
  20
99.81821
  30
0
  11
70.01909
  21
99.90949
  31
0
  0
LINE
  8
0
  10
70.01909
  20
99.90949
  30
0
  11
70.0969
  21
100.09183
  31
0
  0
LINE
  8
0
  10
70.0969
  20
100.09183
  30
0
  11
70.26027
  21
100.45557
  31
0
  0
LINE
  8
0
  10
70.26027
  20
100.45557
  30
0
  11
70.43356
  21
100.81804
  31
0
  0
LINE
  8
0
  10
70.43356
  20
100.81804
  30
0
  11
70.61633
  21
101.17921
  31
0
  0
LINE
  8
0
  10
70.61633
  20
101.17921
  30
0
  11
70.66347
  21
101.2693
  31
0
  0
LINE
  8
0
  10
70.66347
  20
101.2693
  30
0
  11
71.66515
  21
101.16189
  31
0
  0
LINE
  8
0
  10
71.66515
  20
101.16189
  30
0
  11
71.69211
  21
101.06386
  31
0
  0
LINE
  8
0
  10
71.69211
  20
101.06386
  30
0
  11
71.79416
  21
100.67215
  31
0
  0
LINE
  8
0
  10
71.79416
  20
100.67215
  30
0
  11
71.88667
  21
100.28118
  31
0
  0
LINE
  8
0
  10
71.88667
  20
100.28118
  30
0
  11
71.96921
  21
99.89107
  31
0
  0
LINE
  8
0
  10
71.96921
  20
99.89107
  30
0
  11
72.00659
  21
99.69639
  31
0
  0
LINE
  8
0
  10
72.00659
  20
99.69639
  30
0
  11
72.02427
  21
99.59915
  31
0
  0
LINE
  8
0
  10
72.02427
  20
99.59915
  30
0
  11
73.05364
  21
99.45594
  31
0
  0
LINE
  8
0
  10
73.05364
  20
99.45594
  30
0
  11
73.0972
  21
99.54467
  31
0
  0
LINE
  8
0
  10
73.0972
  20
99.54467
  30
0
  11
73.1863
  21
99.72176
  31
0
  0
LINE
  8
0
  10
73.1863
  20
99.72176
  30
0
  11
73.37218
  21
100.07452
  31
0
  0
LINE
  8
0
  10
73.37218
  20
100.07452
  30
0
  11
73.56789
  21
100.42539
  31
0
  0
LINE
  8
0
  10
73.56789
  20
100.42539
  30
0
  11
73.77298
  21
100.77438
  31
0
  0
LINE
  8
0
  10
73.77298
  20
100.77438
  30
0
  11
73.82568
  21
100.86133
  31
0
  0
LINE
  8
0
  10
73.82568
  20
100.86133
  30
0
  11
74.81864
  21
100.69124
  31
0
  0
LINE
  8
0
  10
74.81864
  20
100.69124
  30
0
  11
74.8394
  21
100.59171
  31
0
  0
LINE
  8
0
  10
74.8394
  20
100.59171
  30
0
  11
74.91665
  21
100.19436
  31
0
  0
LINE
  8
0
  10
74.91665
  20
100.19436
  30
0
  11
74.98442
  21
99.79835
  31
0
  0
LINE
  8
0
  10
74.98442
  20
99.79835
  30
0
  11
75.04231
  21
99.40384
  31
0
  0
LINE
  8
0
  10
75.04231
  20
99.40384
  30
0
  11
75.06739
  21
99.20719
  31
0
  0
LINE
  8
0
  10
75.06739
  20
99.20719
  30
0
  11
75.07893
  21
99.10903
  31
0
  0
LINE
  8
0
  10
75.07893
  20
99.10903
  30
0
  11
76.09728
  21
98.90147
  31
0
  0
LINE
  8
0
  10
76.09728
  20
98.90147
  30
0
  11
76.14632
  21
98.98728
  31
0
  0
LINE
  8
0
  10
76.14632
  20
98.98728
  30
0
  11
76.24636
  21
99.15843
  31
0
  0
LINE
  8
0
  10
76.24636
  20
99.15843
  30
0
  11
76.45403
  21
99.49882
  31
0
  0
LINE
  8
0
  10
76.45403
  20
99.49882
  30
0
  11
76.67138
  21
99.83672
  31
0
  0
LINE
  8
0
  10
76.67138
  20
99.83672
  30
0
  11
76.89799
  21
100.17214
  31
0
  0
LINE
  8
0
  10
76.89799
  20
100.17214
  30
0
  11
76.95604
  21
100.2556
  31
0
  0
LINE
  8
0
  10
76.95604
  20
100.2556
  30
0
  11
77.93636
  21
100.0235
  31
0
  0
LINE
  8
0
  10
77.93636
  20
100.0235
  30
0
  11
77.95083
  21
99.92287
  31
0
  0
LINE
  8
0
  10
77.95083
  20
99.92287
  30
0
  11
78.00298
  21
99.52145
  31
0
  0
LINE
  8
0
  10
78.00298
  20
99.52145
  30
0
  11
78.04575
  21
99.12197
  31
0
  0
LINE
  8
0
  10
78.04575
  20
99.12197
  30
0
  11
78.07875
  21
98.7246
  31
0
  0
LINE
  8
0
  10
78.07875
  20
98.7246
  30
0
  11
78.09143
  21
98.52676
  31
0
  0
LINE
  8
0
  10
78.09143
  20
98.52676
  30
0
  11
78.09679
  21
98.42807
  31
0
  0
LINE
  8
0
  10
78.09679
  20
98.42807
  30
0
  11
79.10009
  21
98.15698
  31
0
  0
LINE
  8
0
  10
79.10009
  20
98.15698
  30
0
  11
79.15442
  21
98.23955
  31
0
  0
LINE
  8
0
  10
79.15442
  20
98.23955
  30
0
  11
79.26502
  21
98.40407
  31
0
  0
LINE
  8
0
  10
79.26502
  20
98.40407
  30
0
  11
79.49365
  21
98.73076
  31
0
  0
LINE
  8
0
  10
79.49365
  20
98.73076
  30
0
  11
79.73179
  21
99.05434
  31
0
  0
LINE
  8
0
  10
79.73179
  20
99.05434
  30
0
  11
79.97901
  21
99.37486
  31
0
  0
LINE
  8
0
  10
79.97901
  20
99.37486
  30
0
  11
80.04219
  21
99.45452
  31
0
  0
LINE
  8
0
  10
80.04219
  20
99.45452
  30
0
  11
81.006
  21
99.16132
  31
0
  0
LINE
  8
0
  10
81.006
  20
99.16132
  30
0
  11
81.01412
  21
99.05998
  31
0
  0
LINE
  8
0
  10
81.01412
  20
99.05998
  30
0
  11
81.04096
  21
98.65608
  31
0
  0
LINE
  8
0
  10
81.04096
  20
98.65608
  30
0
  11
81.05857
  21
98.2547
  31
0
  0
LINE
  8
0
  10
81.05857
  20
98.2547
  30
0
  11
81.06655
  21
97.85604
  31
0
  0
LINE
  8
0
  10
81.06655
  20
97.85604
  30
0
  11
81.06678
  21
97.6578
  31
0
  0
LINE
  8
0
  10
81.06678
  20
97.6578
  30
0
  11
81.06593
  21
97.55896
  31
0
  0
LINE
  8
0
  10
81.06593
  20
97.55896
  30
0
  11
82.05023
  21
97.22541
  31
0
  0
LINE
  8
0
  10
82.05023
  20
97.22541
  30
0
  11
82.10964
  21
97.3044
  31
0
  0
LINE
  8
0
  10
82.10964
  20
97.3044
  30
0
  11
82.23035
  21
97.46166
  31
0
  0
LINE
  8
0
  10
82.23035
  20
97.46166
  30
0
  11
82.47904
  21
97.77334
  31
0
  0
LINE
  8
0
  10
82.47904
  20
97.77334
  30
0
  11
82.73703
  21
98.08133
  31
0
  0
LINE
  8
0
  10
82.73703
  20
98.08133
  30
0
  11
83.00389
  21
98.3857
  31
0
  0
LINE
  8
0
  10
83.00389
  20
98.3857
  30
0
  11
83.07194
  21
98.46124
  31
0
  0
LINE
  8
0
  10
83.07194
  20
98.46124
  30
0
  11
84.01545
  21
98.1081
  31
0
  0
LINE
  8
0
  10
84.01545
  20
98.1081
  30
0
  11
84.01718
  21
98.00644
  31
0
  0
LINE
  8
0
  10
84.01718
  20
98.00644
  30
0
  11
84.01861
  21
97.60166
  31
0
  0
LINE
  8
0
  10
84.01861
  20
97.60166
  30
0
  11
84.01098
  21
97.19997
  31
0
  0
LINE
  8
0
  10
84.01098
  20
97.19997
  30
0
  11
83.99391
  21
96.80159
  31
0
  0
LINE
  8
0
  10
83.99391
  20
96.80159
  30
0
  11
83.9817
  21
96.60373
  31
0
  0
LINE
  8
0
  10
83.9817
  20
96.60373
  30
0
  11
83.97465
  21
96.50514
  31
0
  0
LINE
  8
0
  10
83.97465
  20
96.50514
  30
0
  11
84.93606
  21
96.11044
  31
0
  0
LINE
  8
0
  10
84.93606
  20
96.11044
  30
0
  11
85.00031
  21
96.18555
  31
0
  0
LINE
  8
0
  10
85.00031
  20
96.18555
  30
0
  11
85.13065
  21
96.33491
  31
0
  0
LINE
  8
0
  10
85.13065
  20
96.33491
  30
0
  11
85.39843
  21
96.63037
  31
0
  0
LINE
  8
0
  10
85.39843
  20
96.63037
  30
0
  11
85.67525
  21
96.92155
  31
0
  0
LINE
  8
0
  10
85.67525
  20
96.92155
  30
0
  11
85.96069
  21
97.20856
  31
0
  0
LINE
  8
0
  10
85.96069
  20
97.20856
  30
0
  11
86.03335
  21
97.27967
  31
0
  0
LINE
  8
0
  10
86.03335
  20
97.27967
  30
0
  11
86.95282
  21
96.86799
  31
0
  0
LINE
  8
0
  10
86.95282
  20
96.86799
  30
0
  11
86.94817
  21
96.76643
  31
0
  0
LINE
  8
0
  10
86.94817
  20
96.76643
  30
0
  11
86.92418
  21
96.36235
  31
0
  0
LINE
  8
0
  10
86.92418
  20
96.36235
  30
0
  11
86.89134
  21
95.96193
  31
0
  0
LINE
  8
0
  10
86.89134
  20
95.96193
  30
0
  11
86.84929
  21
95.56541
  31
0
  0
LINE
  8
0
  10
86.84929
  20
95.56541
  30
0
  11
86.82468
  21
95.3687
  31
0
  0
LINE
  8
0
  10
86.82468
  20
95.3687
  30
0
  11
86.81145
  21
95.27076
  31
0
  0
LINE
  8
0
  10
86.81145
  20
95.27076
  30
0
  11
87.74619
  21
94.81647
  31
0
  0
LINE
  8
0
  10
87.74619
  20
94.81647
  30
0
  11
87.81503
  21
94.88739
  31
0
  0
LINE
  8
0
  10
87.81503
  20
94.88739
  30
0
  11
87.95449
  21
95.02828
  31
0
  0
LINE
  8
0
  10
87.95449
  20
95.02828
  30
0
  11
88.24029
  21
95.30633
  31
0
  0
LINE
  8
0
  10
88.24029
  20
95.30633
  30
0
  11
88.53484
  21
95.57956
  31
0
  0
LINE
  8
0
  10
88.53484
  20
95.57956
  30
0
  11
88.83774
  21
95.84809
  31
0
  0
LINE
  8
0
  10
88.83774
  20
95.84809
  30
0
  11
88.91473
  21
95.91449
  31
0
  0
LINE
  8
0
  10
88.91473
  20
95.91449
  30
0
  11
89.80653
  21
95.44589
  31
0
  0
LINE
  8
0
  10
89.80653
  20
95.44589
  30
0
  11
89.79551
  21
95.34482
  31
0
  0
LINE
  8
0
  10
89.79551
  20
95.34482
  30
0
  11
89.7462
  21
94.94304
  31
0
  0
LINE
  8
0
  10
89.7462
  20
94.94304
  30
0
  11
89.68828
  21
94.54548
  31
0
  0
LINE
  8
0
  10
89.68828
  20
94.54548
  30
0
  11
89.62142
  21
94.15238
  31
0
  0
LINE
  8
0
  10
89.62142
  20
94.15238
  30
0
  11
89.5845
  21
93.95761
  31
0
  0
LINE
  8
0
  10
89.5845
  20
93.95761
  30
0
  11
89.56515
  21
93.86068
  31
0
  0
LINE
  8
0
  10
89.56515
  20
93.86068
  30
0
  11
90.46951
  21
93.3486
  31
0
  0
LINE
  8
0
  10
90.46951
  20
93.3486
  30
0
  11
90.54267
  21
93.41506
  31
0
  0
LINE
  8
0
  10
90.54267
  20
93.41506
  30
0
  11
90.69071
  21
93.54691
  31
0
  0
LINE
  8
0
  10
90.69071
  20
93.54691
  30
0
  11
90.9934
  21
93.80647
  31
0
  0
LINE
  8
0
  10
90.9934
  20
93.80647
  30
0
  11
91.30453
  21
94.06066
  31
0
  0
LINE
  8
0
  10
91.30453
  20
94.06066
  30
0
  11
91.62369
  21
94.30964
  31
0
  0
LINE
  8
0
  10
91.62369
  20
94.30964
  30
0
  11
91.7047
  21
94.37108
  31
0
  0
LINE
  8
0
  10
91.7047
  20
94.37108
  30
0
  11
92.56532
  21
93.84741
  31
0
  0
LINE
  8
0
  10
92.56532
  20
93.84741
  30
0
  11
92.54797
  21
93.74723
  31
0
  0
LINE
  8
0
  10
92.54797
  20
93.74723
  30
0
  11
92.47353
  21
93.34934
  31
0
  0
LINE
  8
0
  10
92.47353
  20
93.34934
  30
0
  11
92.39076
  21
92.9562
  31
0
  0
LINE
  8
0
  10
92.39076
  20
92.9562
  30
0
  11
92.29935
  21
92.56807
  31
0
  0
LINE
  8
0
  10
92.29935
  20
92.56807
  30
0
  11
92.25028
  21
92.376
  31
0
  0
LINE
  8
0
  10
92.25028
  20
92.376
  30
0
  11
92.22487
  21
92.28048
  31
0
  0
LINE
  8
0
  10
92.22487
  20
92.28048
  30
0
  11
93.0953
  21
91.71263
  31
0
  0
LINE
  8
0
  10
93.0953
  20
91.71263
  30
0
  11
93.17249
  21
91.77436
  31
0
  0
LINE
  8
0
  10
93.17249
  20
91.77436
  30
0
  11
93.32851
  21
91.89666
  31
0
  0
LINE
  8
0
  10
93.32851
  20
91.89666
  30
0
  11
93.6469
  21
92.1367
  31
0
  0
LINE
  8
0
  10
93.6469
  20
92.1367
  30
0
  11
93.97338
  21
92.37086
  31
0
  0
LINE
  8
0
  10
93.97338
  20
92.37086
  30
0
  11
94.30754
  21
92.5993
  31
0
  0
LINE
  8
0
  10
94.30754
  20
92.5993
  30
0
  11
94.39225
  21
92.65554
  31
0
  0
LINE
  8
0
  10
94.39225
  20
92.65554
  30
0
  11
95.21829
  21
92.07885
  31
0
  0
LINE
  8
0
  10
95.21829
  20
92.07885
  30
0
  11
95.19469
  21
91.97996
  31
0
  0
LINE
  8
0
  10
95.19469
  20
91.97996
  30
0
  11
95.09541
  21
91.58754
  31
0
  0
LINE
  8
0
  10
95.09541
  20
91.58754
  30
0
  11
94.98812
  21
91.20036
  31
0
  0
LINE
  8
0
  10
94.98812
  20
91.20036
  30
0
  11
94.87251
  21
90.81875
  31
0
  0
LINE
  8
0
  10
94.87251
  20
90.81875
  30
0
  11
94.81148
  21
90.63013
  31
0
  0
LINE
  8
0
  10
94.81148
  20
90.63013
  30
0
  11
94.78013
  21
90.5364
  31
0
  0
LINE
  8
0
  10
94.78013
  20
90.5364
  30
0
  11
95.61318
  21
89.91501
  31
0
  0
LINE
  8
0
  10
95.61318
  20
89.91501
  30
0
  11
95.69409
  21
89.97177
  31
0
  0
LINE
  8
0
  10
95.69409
  20
89.97177
  30
0
  11
95.85749
  21
90.08404
  31
0
  0
LINE
  8
0
  10
95.85749
  20
90.08404
  30
0
  11
96.19032
  21
90.30361
  31
0
  0
LINE
  8
0
  10
96.19032
  20
90.30361
  30
0
  11
96.53086
  21
90.5168
  31
0
  0
LINE
  8
0
  10
96.53086
  20
90.5168
  30
0
  11
96.87871
  21
90.72382
  31
0
  0
LINE
  8
0
  10
96.87871
  20
90.72382
  30
0
  11
96.96678
  21
90.77462
  31
0
  0
LINE
  8
0
  10
96.96678
  20
90.77462
  30
0
  11
97.75498
  21
90.14721
  31
0
  0
LINE
  8
0
  10
97.75498
  20
90.14721
  30
0
  11
97.72521
  21
90.04999
  31
0
  0
LINE
  8
0
  10
97.72521
  20
90.04999
  30
0
  11
97.60149
  21
89.66458
  31
0
  0
LINE
  8
0
  10
97.60149
  20
89.66458
  30
0
  11
97.4701
  21
89.2849
  31
0
  0
LINE
  8
0
  10
97.4701
  20
89.2849
  30
0
  11
97.33076
  21
88.9113
  31
0
  0
LINE
  8
0
  10
97.33076
  20
88.9113
  30
0
  11
97.258
  21
88.72689
  31
0
  0
LINE
  8
0
  10
97.258
  20
88.72689
  30
0
  11
97.22083
  21
88.63531
  31
0
  0
LINE
  8
0
  10
97.22083
  20
88.63531
  30
0
  11
98.01322
  21
87.96284
  31
0
  0
LINE
  8
0
  10
98.01322
  20
87.96284
  30
0
  11
98.09754
  21
88.01441
  31
0
  0
LINE
  8
0
  10
98.09754
  20
88.01441
  30
0
  11
98.26766
  21
88.11619
  31
0
  0
LINE
  8
0
  10
98.26766
  20
88.11619
  30
0
  11
98.61363
  21
88.31443
  31
0
  0
LINE
  8
0
  10
98.61363
  20
88.31443
  30
0
  11
98.96688
  21
88.50582
  31
0
  0
LINE
  8
0
  10
98.96688
  20
88.50582
  30
0
  11
99.32704
  21
88.69059
  31
0
  0
LINE
  8
0
  10
99.32704
  20
88.69059
  30
0
  11
99.41812
  21
88.73576
  31
0
  0
LINE
  8
0
  10
99.41812
  20
88.73576
  30
0
  11
100.16537
  21
88.0601
  31
0
  0
LINE
  8
0
  10
100.16537
  20
88.0601
  30
0
  11
100.12956
  21
87.96494
  31
0
  0
LINE
  8
0
  10
100.12956
  20
87.96494
  30
0
  11
99.98188
  21
87.58805
  31
0
  0
LINE
  8
0
  10
99.98188
  20
87.58805
  30
0
  11
99.82691
  21
87.21738
  31
0
  0
LINE
  8
0
  10
99.82691
  20
87.21738
  30
0
  11
99.66439
  21
86.85326
  31
0
  0
LINE
  8
0
  10
99.66439
  20
86.85326
  30
0
  11
99.5802
  21
86.67379
  31
0
  0
LINE
  8
0
  10
99.5802
  20
86.67379
  30
0
  11
99.53735
  21
86.58472
  31
0
  0
LINE
  8
0
  10
99.53735
  20
86.58472
  30
0
  11
100.28595
  21
85.86382
  31
0
  0
LINE
  8
0
  10
100.28595
  20
85.86382
  30
0
  11
100.37334
  21
85.91
  31
0
  0
LINE
  8
0
  10
100.37334
  20
85.91
  30
0
  11
100.54951
  21
86.00089
  31
0
  0
LINE
  8
0
  10
100.54951
  20
86.00089
  30
0
  11
100.90724
  21
86.17702
  31
0
  0
LINE
  8
0
  10
100.90724
  20
86.17702
  30
0
  11
101.27181
  21
86.34585
  31
0
  0
LINE
  8
0
  10
101.27181
  20
86.34585
  30
0
  11
101.64287
  21
86.50764
  31
0
  0
LINE
  8
0
  10
101.64287
  20
86.50764
  30
0
  11
101.73661
  21
86.547
  31
0
  0
LINE
  8
0
  10
101.73661
  20
86.547
  30
0
  11
102.43996
  21
85.82575
  31
0
  0
LINE
  8
0
  10
102.43996
  20
85.82575
  30
0
  11
102.39824
  21
85.73303
  31
0
  0
LINE
  8
0
  10
102.39824
  20
85.73303
  30
0
  11
102.22719
  21
85.36616
  31
0
  0
LINE
  8
0
  10
102.22719
  20
85.36616
  30
0
  11
102.04925
  21
85.00595
  31
0
  0
LINE
  8
0
  10
102.04925
  20
85.00595
  30
0
  11
101.86419
  21
84.65276
  31
0
  0
LINE
  8
0
  10
101.86419
  20
84.65276
  30
0
  11
101.76889
  21
84.47892
  31
0
  0
LINE
  8
0
  10
101.76889
  20
84.47892
  30
0
  11
101.72053
  21
84.39272
  31
0
  0
LINE
  8
0
  10
101.72053
  20
84.39272
  30
0
  11
102.42239
  21
83.62624
  31
0
  0
LINE
  8
0
  10
102.42239
  20
83.62624
  30
0
  11
102.51251
  21
83.66684
  31
0
  0
LINE
  8
0
  10
102.51251
  20
83.66684
  30
0
  11
102.69404
  21
83.74649
  31
0
  0
LINE
  8
0
  10
102.69404
  20
83.74649
  30
0
  11
103.06213
  21
83.89981
  31
0
  0
LINE
  8
0
  10
103.06213
  20
83.89981
  30
0
  11
103.43658
  21
84.04542
  31
0
  0
LINE
  8
0
  10
103.43658
  20
84.04542
  30
0
  11
103.81706
  21
84.18358
  31
0
  0
LINE
  8
0
  10
103.81706
  20
84.18358
  30
0
  11
103.91308
  21
84.21699
  31
0
  0
LINE
  8
0
  10
103.91308
  20
84.21699
  30
0
  11
104.56976
  21
83.453
  31
0
  0
LINE
  8
0
  10
104.56976
  20
83.453
  30
0
  11
104.52231
  21
83.36308
  31
0
  0
LINE
  8
0
  10
104.52231
  20
83.36308
  30
0
  11
104.32855
  21
83.00767
  31
0
  0
LINE
  8
0
  10
104.32855
  20
83.00767
  30
0
  11
104.12835
  21
82.65934
  31
0
  0
LINE
  8
0
  10
104.12835
  20
82.65934
  30
0
  11
103.92147
  21
82.31846
  31
0
  0
LINE
  8
0
  10
103.92147
  20
82.31846
  30
0
  11
103.81545
  21
82.15096
  31
0
  0
LINE
  8
0
  10
103.81545
  20
82.15096
  30
0
  11
103.76177
  21
82.06797
  31
0
  0
LINE
  8
0
  10
103.76177
  20
82.06797
  30
0
  11
104.41412
  21
81.25892
  31
0
  0
LINE
  8
0
  10
104.41412
  20
81.25892
  30
0
  11
104.50661
  21
81.29378
  31
0
  0
LINE
  8
0
  10
104.50661
  20
81.29378
  30
0
  11
104.69278
  21
81.36188
  31
0
  0
LINE
  8
0
  10
104.69278
  20
81.36188
  30
0
  11
105.06977
  21
81.49179
  31
0
  0
LINE
  8
0
  10
105.06977
  20
81.49179
  30
0
  11
105.45263
  21
81.6136
  31
0
  0
LINE
  8
0
  10
105.45263
  20
81.6136
  30
0
  11
105.84103
  21
81.7276
  31
0
  0
LINE
  8
0
  10
105.84103
  20
81.7276
  30
0
  11
105.93897
  21
81.75491
  31
0
  0
LINE
  8
0
  10
105.93897
  20
81.75491
  30
0
  11
106.54637
  21
80.95119
  31
0
  0
LINE
  8
0
  10
106.54637
  20
80.95119
  30
0
  11
106.49337
  21
80.86443
  31
0
  0
LINE
  8
0
  10
106.49337
  20
80.86443
  30
0
  11
106.27768
  21
80.52189
  31
0
  0
LINE
  8
0
  10
106.27768
  20
80.52189
  30
0
  11
106.056
  21
80.18682
  31
0
  0
LINE
  8
0
  10
106.056
  20
80.18682
  30
0
  11
105.82813
  21
79.8596
  31
0
  0
LINE
  8
0
  10
105.82813
  20
79.8596
  30
0
  11
105.71179
  21
79.69908
  31
0
  0
LINE
  8
0
  10
105.71179
  20
79.69908
  30
0
  11
105.65301
  21
79.61962
  31
0
  0
LINE
  8
0
  10
105.65301
  20
79.61962
  30
0
  11
106.25327
  21
78.77122
  31
0
  0
LINE
  8
0
  10
106.25327
  20
78.77122
  30
0
  11
106.34777
  21
78.8002
  31
0
  0
LINE
  8
0
  10
106.34777
  20
78.8002
  30
0
  11
106.53785
  21
78.85648
  31
0
  0
LINE
  8
0
  10
106.53785
  20
78.85648
  30
0
  11
106.92225
  21
78.96246
  31
0
  0
LINE
  8
0
  10
106.92225
  20
78.96246
  30
0
  11
107.312
  21
79.05998
  31
0
  0
LINE
  8
0
  10
107.312
  20
79.05998
  30
0
  11
107.7068
  21
79.14937
  31
0
  0
LINE
  8
0
  10
107.7068
  20
79.14937
  30
0
  11
107.80625
  21
79.17048
  31
0
  0
LINE
  8
0
  10
107.80625
  20
79.17048
  30
0
  11
108.36199
  21
78.33021
  31
0
  0
LINE
  8
0
  10
108.36199
  20
78.33021
  30
0
  11
108.30365
  21
78.24694
  31
0
  0
LINE
  8
0
  10
108.30365
  20
78.24694
  30
0
  11
108.06688
  21
77.91862
  31
0
  0
LINE
  8
0
  10
108.06688
  20
77.91862
  30
0
  11
107.82459
  21
77.59813
  31
0
  0
LINE
  8
0
  10
107.82459
  20
77.59813
  30
0
  11
107.57663
  21
77.28587
  31
0
  0
LINE
  8
0
  10
107.57663
  20
77.28587
  30
0
  11
107.45044
  21
77.13297
  31
0
  0
LINE
  8
0
  10
107.45044
  20
77.13297
  30
0
  11
107.38679
  21
77.05736
  31
0
  0
LINE
  8
0
  10
107.38679
  20
77.05736
  30
0
  11
107.93259
  21
76.17294
  31
0
  0
LINE
  8
0
  10
107.93259
  20
76.17294
  30
0
  11
108.02872
  21
76.19593
  31
0
  0
LINE
  8
0
  10
108.02872
  20
76.19593
  30
0
  11
108.22196
  21
76.24016
  31
0
  0
LINE
  8
0
  10
108.22196
  20
76.24016
  30
0
  11
108.61226
  21
76.32179
  31
0
  0
LINE
  8
0
  10
108.61226
  20
76.32179
  30
0
  11
109.00736
  21
76.39466
  31
0
  0
LINE
  8
0
  10
109.00736
  20
76.39466
  30
0
  11
109.40699
  21
76.45908
  31
0
  0
LINE
  8
0
  10
109.40699
  20
76.45908
  30
0
  11
109.50758
  21
76.4739
  31
0
  0
LINE
  8
0
  10
109.50758
  20
76.4739
  30
0
  11
110.00946
  21
75.60039
  31
0
  0
LINE
  8
0
  10
110.00946
  20
75.60039
  30
0
  11
109.946
  21
75.52096
  31
0
  0
LINE
  8
0
  10
109.946
  20
75.52096
  30
0
  11
109.68908
  21
75.20815
  31
0
  0
LINE
  8
0
  10
109.68908
  20
75.20815
  30
0
  11
109.42715
  21
74.90351
  31
0
  0
LINE
  8
0
  10
109.42715
  20
74.90351
  30
0
  11
109.16007
  21
74.60743
  31
0
  0
LINE
  8
0
  10
109.16007
  20
74.60743
  30
0
  11
109.02454
  21
74.46276
  31
0
  0
LINE
  8
0
  10
109.02454
  20
74.46276
  30
0
  11
108.95626
  21
74.39129
  31
0
  0
LINE
  8
0
  10
108.95626
  20
74.39129
  30
0
  11
109.44545
  21
73.47434
  31
0
  0
LINE
  8
0
  10
109.44545
  20
73.47434
  30
0
  11
109.54283
  21
73.49126
  31
0
  0
LINE
  8
0
  10
109.54283
  20
73.49126
  30
0
  11
109.73847
  21
73.52327
  31
0
  0
LINE
  8
0
  10
109.73847
  20
73.52327
  30
0
  11
110.13312
  21
73.58023
  31
0
  0
LINE
  8
0
  10
110.13312
  20
73.58023
  30
0
  11
110.53202
  21
73.62814
  31
0
  0
LINE
  8
0
  10
110.53202
  20
73.62814
  30
0
  11
110.93491
  21
73.66734
  31
0
  0
LINE
  8
0
  10
110.93491
  20
73.66734
  30
0
  11
111.03623
  21
73.67581
  31
0
  0
LINE
  8
0
  10
111.03623
  20
73.67581
  30
0
  11
111.48227
  21
72.77252
  31
0
  0
LINE
  8
0
  10
111.48227
  20
72.77252
  30
0
  11
111.41395
  21
72.69722
  31
0
  0
LINE
  8
0
  10
111.41395
  20
72.69722
  30
0
  11
111.1379
  21
72.40117
  31
0
  0
LINE
  8
0
  10
111.1379
  20
72.40117
  30
0
  11
110.85735
  21
72.11357
  31
0
  0
LINE
  8
0
  10
110.85735
  20
72.11357
  30
0
  11
110.57221
  21
71.83485
  31
0
  0
LINE
  8
0
  10
110.57221
  20
71.83485
  30
0
  11
110.42786
  21
71.69897
  31
0
  0
LINE
  8
0
  10
110.42786
  20
71.69897
  30
0
  11
110.35523
  21
71.63194
  31
0
  0
LINE
  8
0
  10
110.35523
  20
71.63194
  30
0
  11
110.78588
  21
70.68608
  31
0
  0
LINE
  8
0
  10
110.78588
  20
70.68608
  30
0
  11
110.88413
  21
70.69685
  31
0
  0
LINE
  8
0
  10
110.88413
  20
70.69685
  30
0
  11
111.08139
  21
70.71651
  31
0
  0
LINE
  8
0
  10
111.08139
  20
70.71651
  30
0
  11
111.47884
  21
70.74858
  31
0
  0
LINE
  8
0
  10
111.47884
  20
70.74858
  30
0
  11
111.87996
  21
70.77134
  31
0
  0
LINE
  8
0
  10
111.87996
  20
70.77134
  30
0
  11
112.28451
  21
70.78517
  31
0
  0
LINE
  8
0
  10
112.28451
  20
70.78517
  30
0
  11
112.38616
  21
70.78727
  31
0
  0
LINE
  8
0
  10
112.38616
  20
70.78727
  30
0
  11
112.77461
  21
69.85774
  31
0
  0
LINE
  8
0
  10
112.77461
  20
69.85774
  30
0
  11
112.7017
  21
69.78689
  31
0
  0
LINE
  8
0
  10
112.7017
  20
69.78689
  30
0
  11
112.4076
  21
69.50875
  31
0
  0
LINE
  8
0
  10
112.4076
  20
69.50875
  30
0
  11
112.10955
  21
69.23934
  31
0
  0
LINE
  8
0
  10
112.10955
  20
69.23934
  30
0
  11
111.80746
  21
68.97907
  31
0
  0
LINE
  8
0
  10
111.80746
  20
68.97907
  30
0
  11
111.65487
  21
68.85253
  31
0
  0
LINE
  8
0
  10
111.65487
  20
68.85253
  30
0
  11
111.57817
  21
68.79018
  31
0
  0
LINE
  8
0
  10
111.57817
  20
68.79018
  30
0
  11
111.94859
  21
67.81915
  31
0
  0
LINE
  8
0
  10
111.94859
  20
67.81915
  30
0
  11
112.04732
  21
67.82373
  31
0
  0
LINE
  8
0
  10
112.04732
  20
67.82373
  30
0
  11
112.24543
  21
67.83096
  31
0
  0
LINE
  8
0
  10
112.24543
  20
67.83096
  30
0
  11
112.64411
  21
67.83801
  31
0
  0
LINE
  8
0
  10
112.64411
  20
67.83801
  30
0
  11
113.04586
  21
67.83555
  31
0
  0
LINE
  8
0
  10
113.04586
  20
67.83555
  30
0
  11
113.45049
  21
67.82395
  31
0
  0
LINE
  8
0
  10
113.45049
  20
67.82395
  30
0
  11
113.55207
  21
67.81966
  31
0
  0
LINE
  8
0
  10
113.55207
  20
67.81966
  30
0
  11
113.88138
  21
66.86758
  31
0
  0
LINE
  8
0
  10
113.88138
  20
66.86758
  30
0
  11
113.80416
  21
66.80144
  31
0
  0
LINE
  8
0
  10
113.80416
  20
66.80144
  30
0
  11
113.49318
  21
66.54232
  31
0
  0
LINE
  8
0
  10
113.49318
  20
66.54232
  30
0
  11
113.1788
  21
66.29215
  31
0
  0
LINE
  8
0
  10
113.1788
  20
66.29215
  30
0
  11
112.86097
  21
66.05137
  31
0
  0
LINE
  8
0
  10
112.86097
  20
66.05137
  30
0
  11
112.70073
  21
65.93465
  31
0
  0
LINE
  8
0
  10
112.70073
  20
65.93465
  30
0
  11
112.62027
  21
65.87725
  31
0
  0
LINE
  8
0
  10
112.62027
  20
65.87725
  30
0
  11
112.92898
  21
64.88488
  31
0
  0
LINE
  8
0
  10
112.92898
  20
64.88488
  30
0
  11
113.02781
  21
64.88324
  31
0
  0
LINE
  8
0
  10
113.02781
  20
64.88324
  30
0
  11
113.22598
  21
64.87802
  31
0
  0
LINE
  8
0
  10
113.22598
  20
64.87802
  30
0
  11
113.62431
  21
64.86003
  31
0
  0
LINE
  8
0
  10
113.62431
  20
64.86003
  30
0
  11
114.02512
  21
64.83234
  31
0
  0
LINE
  8
0
  10
114.02512
  20
64.83234
  30
0
  11
114.42822
  21
64.79536
  31
0
  0
LINE
  8
0
  10
114.42822
  20
64.79536
  30
0
  11
114.52933
  21
64.7847
  31
0
  0
LINE
  8
0
  10
114.52933
  20
64.7847
  30
0
  11
114.79821
  21
63.81382
  31
0
  0
LINE
  8
0
  10
114.79821
  20
63.81382
  30
0
  11
114.71699
  21
63.75266
  31
0
  0
LINE
  8
0
  10
114.71699
  20
63.75266
  30
0
  11
114.39035
  21
63.51358
  31
0
  0
LINE
  8
0
  10
114.39035
  20
63.51358
  30
0
  11
114.06089
  21
63.28364
  31
0
  0
LINE
  8
0
  10
114.06089
  20
63.28364
  30
0
  11
113.72857
  21
63.06329
  31
0
  0
LINE
  8
0
  10
113.72857
  20
63.06329
  30
0
  11
113.56131
  21
62.95687
  31
0
  0
LINE
  8
0
  10
113.56131
  20
62.95687
  30
0
  11
113.47741
  21
62.90463
  31
0
  0
LINE
  8
0
  10
113.47741
  20
62.90463
  30
0
  11
113.7232
  21
61.89483
  31
0
  0
LINE
  8
0
  10
113.7232
  20
61.89483
  30
0
  11
113.82172
  21
61.88699
  31
0
  0
LINE
  8
0
  10
113.82172
  20
61.88699
  30
0
  11
114.01918
  21
61.86934
  31
0
  0
LINE
  8
0
  10
114.01918
  20
61.86934
  30
0
  11
114.4156
  21
61.82637
  31
0
  0
LINE
  8
0
  10
114.4156
  20
61.82637
  30
0
  11
114.81388
  21
61.77357
  31
0
  0
LINE
  8
0
  10
114.81388
  20
61.77357
  30
0
  11
115.21386
  21
61.71135
  31
0
  0
LINE
  8
0
  10
115.21386
  20
61.71135
  30
0
  11
115.3141
  21
61.69436
  31
0
  0
LINE
  8
0
  10
115.3141
  20
61.69436
  30
0
  11
115.52149
  21
60.70851
  31
0
  0
LINE
  8
0
  10
115.52149
  20
60.70851
  30
0
  11
115.43659
  21
60.65258
  31
0
  0
LINE
  8
0
  10
115.43659
  20
60.65258
  30
0
  11
115.09558
  21
60.43447
  31
0
  0
LINE
  8
0
  10
115.09558
  20
60.43447
  30
0
  11
114.75233
  21
60.22568
  31
0
  0
LINE
  8
0
  10
114.75233
  20
60.22568
  30
0
  11
114.40683
  21
60.02663
  31
0
  0
LINE
  8
0
  10
114.40683
  20
60.02663
  30
0
  11
114.23322
  21
59.93092
  31
0
  0
LINE
  8
0
  10
114.23322
  20
59.93092
  30
0
  11
114.1462
  21
59.88405
  31
0
  0
LINE
  8
0
  10
114.1462
  20
59.88405
  30
0
  11
114.3281
  21
58.86081
  31
0
  0
LINE
  8
0
  10
114.3281
  20
58.86081
  30
0
  11
114.42594
  21
58.84681
  31
0
  0
LINE
  8
0
  10
114.42594
  20
58.84681
  30
0
  11
114.6219
  21
58.81679
  31
0
  0
LINE
  8
0
  10
114.6219
  20
58.81679
  30
0
  11
115.01483
  21
58.74901
  31
0
  0
LINE
  8
0
  10
115.01483
  20
58.74901
  30
0
  11
115.40901
  21
58.67131
  31
0
  0
LINE
  8
0
  10
115.40901
  20
58.67131
  30
0
  11
115.8043
  21
58.58409
  31
0
  0
LINE
  8
0
  10
115.8043
  20
58.58409
  30
0
  11
115.90327
  21
58.56084
  31
0
  0
LINE
  8
0
  10
115.90327
  20
58.56084
  30
0
  11
116.04835
  21
57.56392
  31
0
  0
LINE
  8
0
  10
116.04835
  20
57.56392
  30
0
  11
115.96011
  21
57.51343
  31
0
  0
LINE
  8
0
  10
115.96011
  20
57.51343
  30
0
  11
115.60608
  21
57.31717
  31
0
  0
LINE
  8
0
  10
115.60608
  20
57.31717
  30
0
  11
115.2504
  21
57.13034
  31
0
  0
LINE
  8
0
  10
115.2504
  20
57.13034
  30
0
  11
114.89307
  21
56.95338
  31
0
  0
LINE
  8
0
  10
114.89307
  20
56.95338
  30
0
  11
114.7138
  21
56.86875
  31
0
  0
LINE
  8
0
  10
114.7138
  20
56.86875
  30
0
  11
114.62401
  21
56.82744
  31
0
  0
LINE
  8
0
  10
114.62401
  20
56.82744
  30
0
  11
114.7413
  21
55.7948
  31
0
  0
LINE
  8
0
  10
114.7413
  20
55.7948
  30
0
  11
114.83807
  21
55.77468
  31
0
  0
LINE
  8
0
  10
114.83807
  20
55.77468
  30
0
  11
115.03175
  21
55.73242
  31
0
  0
LINE
  8
0
  10
115.03175
  20
55.73242
  30
0
  11
115.41966
  21
55.6401
  31
0
  0
LINE
  8
0
  10
115.41966
  20
55.6401
  30
0
  11
115.80818
  21
55.5378
  31
0
  0
LINE
  8
0
  10
115.80818
  20
55.5378
  30
0
  11
116.19721
  21
55.42594
  31
0
  0
LINE
  8
0
  10
116.19721
  20
55.42594
  30
0
  11
116.29453
  21
55.39652
  31
0
  0
LINE
  8
0
  10
116.29453
  20
55.39652
  30
0
  11
116.37673
  21
54.39245
  31
0
  0
LINE
  8
0
  10
116.37673
  20
54.39245
  30
0
  11
116.28548
  21
54.3476
  31
0
  0
LINE
  8
0
  10
116.28548
  20
54.3476
  30
0
  11
115.91983
  21
54.17396
  31
0
  0
LINE
  8
0
  10
115.91983
  20
54.17396
  30
0
  11
115.55312
  21
54.00983
  31
0
  0
LINE
  8
0
  10
115.55312
  20
54.00983
  30
0
  11
115.18539
  21
53.85565
  31
0
  0
LINE
  8
0
  10
115.18539
  20
53.85565
  30
0
  11
115.00116
  21
53.78246
  31
0
  0
LINE
  8
0
  10
115.00116
  20
53.78246
  30
0
  11
114.90895
  21
53.74686
  31
0
  0
LINE
  8
0
  10
114.90895
  20
53.74686
  30
0
  11
114.96117
  21
52.70889
  31
0
  0
LINE
  8
0
  10
114.96117
  20
52.70889
  30
0
  11
115.05648
  21
52.68274
  31
0
  0
LINE
  8
0
  10
115.05648
  20
52.68274
  30
0
  11
115.24713
  21
52.6284
  31
0
  0
LINE
  8
0
  10
115.24713
  20
52.6284
  30
0
  11
115.62848
  21
52.5119
  31
0
  0
LINE
  8
0
  10
115.62848
  20
52.5119
  30
0
  11
116.00981
  21
52.38541
  31
0
  0
LINE
  8
0
  10
116.00981
  20
52.38541
  30
0
  11
116.39104
  21
52.24934
  31
0
  0
LINE
  8
0
  10
116.39104
  20
52.24934
  30
0
  11
116.48633
  21
52.21387
  31
0
  0
LINE
  8
0
  10
116.48633
  20
52.21387
  30
0
  11
116.50531
  21
51.20663
  31
0
  0
LINE
  8
0
  10
116.50531
  20
51.20663
  30
0
  11
116.41144
  21
51.16759
  31
0
  0
LINE
  8
0
  10
116.41144
  20
51.16759
  30
0
  11
116.0356
  21
51.01725
  31
0
  0
LINE
  8
0
  10
116.0356
  20
51.01725
  30
0
  11
115.65931
  21
50.87647
  31
0
  0
LINE
  8
0
  10
115.65931
  20
50.87647
  30
0
  11
115.28262
  21
50.74569
  31
0
  0
LINE
  8
0
  10
115.28262
  20
50.74569
  30
0
  11
115.09416
  21
50.6842
  31
0
  0
LINE
  8
0
  10
115.09416
  20
50.6842
  30
0
  11
114.9999
  21
50.65447
  31
0
  0
LINE
  8
0
  10
114.9999
  20
50.65447
  30
0
  11
114.98684
  21
49.61527
  31
0
  0
LINE
  8
0
  10
114.98684
  20
49.61527
  30
0
  11
115.08032
  21
49.58318
  31
0
  0
LINE
  8
0
  10
115.08032
  20
49.58318
  30
0
  11
115.26718
  21
49.51698
  31
0
  0
LINE
  8
0
  10
115.26718
  20
49.51698
  30
0
  11
115.64046
  21
49.37677
  31
0
  0
LINE
  8
0
  10
115.64046
  20
49.37677
  30
0
  11
116.0131
  21
49.22658
  31
0
  0
LINE
  8
0
  10
116.0131
  20
49.22658
  30
0
  11
116.38504
  21
49.06684
  31
0
  0
LINE
  8
0
  10
116.38504
  20
49.06684
  30
0
  11
116.4779
  21
49.02546
  31
0
  0
LINE
  8
0
  10
116.4779
  20
49.02546
  30
0
  11
116.43361
  21
48.01901
  31
0
  0
LINE
  8
0
  10
116.43361
  20
48.01901
  30
0
  11
116.33747
  21
47.98594
  31
0
  0
LINE
  8
0
  10
116.33747
  20
47.98594
  30
0
  11
115.95293
  21
47.8595
  31
0
  0
LINE
  8
0
  10
115.95293
  20
47.8595
  30
0
  11
115.56854
  21
47.74263
  31
0
  0
LINE
  8
0
  10
115.56854
  20
47.74263
  30
0
  11
115.18439
  21
47.63576
  31
0
  0
LINE
  8
0
  10
115.18439
  20
47.63576
  30
0
  11
114.99244
  21
47.58623
  31
0
  0
LINE
  8
0
  10
114.99244
  20
47.58623
  30
0
  11
114.8965
  21
47.56247
  31
0
  0
LINE
  8
0
  10
114.8965
  20
47.56247
  30
0
  11
114.81821
  21
46.52614
  31
0
  0
LINE
  8
0
  10
114.81821
  20
46.52614
  30
0
  11
114.90949
  21
46.48824
  31
0
  0
LINE
  8
0
  10
114.90949
  20
46.48824
  30
0
  11
115.09183
  21
46.41044
  31
0
  0
LINE
  8
0
  10
115.09183
  20
46.41044
  30
0
  11
115.45557
  21
46.24707
  31
0
  0
LINE
  8
0
  10
115.45557
  20
46.24707
  30
0
  11
115.81804
  21
46.07378
  31
0
  0
LINE
  8
0
  10
115.81804
  20
46.07378
  30
0
  11
116.17921
  21
45.891
  31
0
  0
LINE
  8
0
  10
116.17921
  20
45.891
  30
0
  11
116.2693
  21
45.84387
  31
0
  0
LINE
  8
0
  10
116.2693
  20
45.84387
  30
0
  11
116.16189
  21
44.84219
  31
0
  0
LINE
  8
0
  10
116.16189
  20
44.84219
  30
0
  11
116.06386
  21
44.81522
  31
0
  0
LINE
  8
0
  10
116.06386
  20
44.81522
  30
0
  11
115.67215
  21
44.71317
  31
0
  0
LINE
  8
0
  10
115.67215
  20
44.71317
  30
0
  11
115.28118
  21
44.62067
  31
0
  0
LINE
  8
0
  10
115.28118
  20
44.62067
  30
0
  11
114.89107
  21
44.53813
  31
0
  0
LINE
  8
0
  10
114.89107
  20
44.53813
  30
0
  11
114.69639
  21
44.50075
  31
0
  0
LINE
  8
0
  10
114.69639
  20
44.50075
  30
0
  11
114.59915
  21
44.48306
  31
0
  0
LINE
  8
0
  10
114.59915
  20
44.48306
  30
0
  11
114.45594
  21
43.4537
  31
0
  0
LINE
  8
0
  10
114.45594
  20
43.4537
  30
0
  11
114.54467
  21
43.41014
  31
0
  0
LINE
  8
0
  10
114.54467
  20
43.41014
  30
0
  11
114.72176
  21
43.32104
  31
0
  0
LINE
  8
0
  10
114.72176
  20
43.32104
  30
0
  11
115.07452
  21
43.13515
  31
0
  0
LINE
  8
0
  10
115.07452
  20
43.13515
  30
0
  11
115.42539
  21
42.93945
  31
0
  0
LINE
  8
0
  10
115.42539
  20
42.93945
  30
0
  11
115.77438
  21
42.73435
  31
0
  0
LINE
  8
0
  10
115.77438
  20
42.73435
  30
0
  11
115.86133
  21
42.68165
  31
0
  0
LINE
  8
0
  10
115.86133
  20
42.68165
  30
0
  11
115.69124
  21
41.68869
  31
0
  0
LINE
  8
0
  10
115.69124
  20
41.68869
  30
0
  11
115.59171
  21
41.66794
  31
0
  0
LINE
  8
0
  10
115.59171
  20
41.66794
  30
0
  11
115.19436
  21
41.59068
  31
0
  0
LINE
  8
0
  10
115.19436
  20
41.59068
  30
0
  11
114.79835
  21
41.52291
  31
0
  0
LINE
  8
0
  10
114.79835
  20
41.52291
  30
0
  11
114.40384
  21
41.46503
  31
0
  0
LINE
  8
0
  10
114.40384
  20
41.46503
  30
0
  11
114.20719
  21
41.43995
  31
0
  0
LINE
  8
0
  10
114.20719
  20
41.43995
  30
0
  11
114.10903
  21
41.4284
  31
0
  0
LINE
  8
0
  10
114.10903
  20
41.4284
  30
0
  11
113.90147
  21
40.41006
  31
0
  0
LINE
  8
0
  10
113.90147
  20
40.41006
  30
0
  11
113.98728
  21
40.36102
  31
0
  0
LINE
  8
0
  10
113.98728
  20
40.36102
  30
0
  11
114.15843
  21
40.26098
  31
0
  0
LINE
  8
0
  10
114.15843
  20
40.26098
  30
0
  11
114.49882
  21
40.0533
  31
0
  0
LINE
  8
0
  10
114.49882
  20
40.0533
  30
0
  11
114.83672
  21
39.83595
  31
0
  0
LINE
  8
0
  10
114.83672
  20
39.83595
  30
0
  11
115.17214
  21
39.60935
  31
0
  0
LINE
  8
0
  10
115.17214
  20
39.60935
  30
0
  11
115.2556
  21
39.5513
  31
0
  0
LINE
  8
0
  10
115.2556
  20
39.5513
  30
0
  11
115.0235
  21
38.57097
  31
0
  0
LINE
  8
0
  10
115.0235
  20
38.57097
  30
0
  11
114.92287
  21
38.55651
  31
0
  0
LINE
  8
0
  10
114.92287
  20
38.55651
  30
0
  11
114.52145
  21
38.50436
  31
0
  0
LINE
  8
0
  10
114.52145
  20
38.50436
  30
0
  11
114.12197
  21
38.46159
  31
0
  0
LINE
  8
0
  10
114.12197
  20
38.46159
  30
0
  11
113.7246
  21
38.42859
  31
0
  0
LINE
  8
0
  10
113.7246
  20
38.42859
  30
0
  11
113.52676
  21
38.4159
  31
0
  0
LINE
  8
0
  10
113.52676
  20
38.4159
  30
0
  11
113.42807
  21
38.41055
  31
0
  0
LINE
  8
0
  10
113.42807
  20
38.41055
  30
0
  11
113.15698
  21
37.40724
  31
0
  0
LINE
  8
0
  10
113.15698
  20
37.40724
  30
0
  11
113.23955
  21
37.35291
  31
0
  0
LINE
  8
0
  10
113.23955
  20
37.35291
  30
0
  11
113.40407
  21
37.24232
  31
0
  0
LINE
  8
0
  10
113.40407
  20
37.24232
  30
0
  11
113.73076
  21
37.01369
  31
0
  0
LINE
  8
0
  10
113.73076
  20
37.01369
  30
0
  11
114.05434
  21
36.77555
  31
0
  0
LINE
  8
0
  10
114.05434
  20
36.77555
  30
0
  11
114.37486
  21
36.52833
  31
0
  0
LINE
  8
0
  10
114.37486
  20
36.52833
  30
0
  11
114.45452
  21
36.46515
  31
0
  0
LINE
  8
0
  10
114.45452
  20
36.46515
  30
0
  11
114.16132
  21
35.50134
  31
0
  0
LINE
  8
0
  10
114.16132
  20
35.50134
  30
0
  11
114.05998
  21
35.49322
  31
0
  0
LINE
  8
0
  10
114.05998
  20
35.49322
  30
0
  11
113.65608
  21
35.46637
  31
0
  0
LINE
  8
0
  10
113.65608
  20
35.46637
  30
0
  11
113.2547
  21
35.44877
  31
0
  0
LINE
  8
0
  10
113.2547
  20
35.44877
  30
0
  11
112.85604
  21
35.44079
  31
0
  0
LINE
  8
0
  10
112.85604
  20
35.44079
  30
0
  11
112.6578
  21
35.44055
  31
0
  0
LINE
  8
0
  10
112.6578
  20
35.44055
  30
0
  11
112.55896
  21
35.4414
  31
0
  0
LINE
  8
0
  10
112.55896
  20
35.4414
  30
0
  11
112.22541
  21
34.4571
  31
0
  0
LINE
  8
0
  10
112.22541
  20
34.4571
  30
0
  11
112.3044
  21
34.39769
  31
0
  0
LINE
  8
0
  10
112.3044
  20
34.39769
  30
0
  11
112.46166
  21
34.27699
  31
0
  0
LINE
  8
0
  10
112.46166
  20
34.27699
  30
0
  11
112.77334
  21
34.02829
  31
0
  0
LINE
  8
0
  10
112.77334
  20
34.02829
  30
0
  11
113.08133
  21
33.7703
  31
0
  0
LINE
  8
0
  10
113.08133
  20
33.7703
  30
0
  11
113.3857
  21
33.50345
  31
0
  0
LINE
  8
0
  10
113.3857
  20
33.50345
  30
0
  11
113.46124
  21
33.43539
  31
0
  0
LINE
  8
0
  10
113.46124
  20
33.43539
  30
0
  11
113.1081
  21
32.49189
  31
0
  0
LINE
  8
0
  10
113.1081
  20
32.49189
  30
0
  11
113.00644
  21
32.49015
  31
0
  0
LINE
  8
0
  10
113.00644
  20
32.49015
  30
0
  11
112.60166
  21
32.48872
  31
0
  0
LINE
  8
0
  10
112.60166
  20
32.48872
  30
0
  11
112.19997
  21
32.49636
  31
0
  0
LINE
  8
0
  10
112.19997
  20
32.49636
  30
0
  11
111.80159
  21
32.51342
  31
0
  0
LINE
  8
0
  10
111.80159
  20
32.51342
  30
0
  11
111.60373
  21
32.52564
  31
0
  0
LINE
  8
0
  10
111.60373
  20
32.52564
  30
0
  11
111.50514
  21
32.53269
  31
0
  0
LINE
  8
0
  10
111.50514
  20
32.53269
  30
0
  11
111.11044
  21
31.57127
  31
0
  0
LINE
  8
0
  10
111.11044
  20
31.57127
  30
0
  11
111.18555
  21
31.50702
  31
0
  0
LINE
  8
0
  10
111.18555
  20
31.50702
  30
0
  11
111.33491
  21
31.37668
  31
0
  0
LINE
  8
0
  10
111.33491
  20
31.37668
  30
0
  11
111.63037
  21
31.10891
  31
0
  0
LINE
  8
0
  10
111.63037
  20
31.10891
  30
0
  11
111.92155
  21
30.83209
  31
0
  0
LINE
  8
0
  10
111.92155
  20
30.83209
  30
0
  11
112.20856
  21
30.54665
  31
0
  0
LINE
  8
0
  10
112.20856
  20
30.54665
  30
0
  11
112.27967
  21
30.47398
  31
0
  0
LINE
  8
0
  10
112.27967
  20
30.47398
  30
0
  11
111.86799
  21
29.55452
  31
0
  0
LINE
  8
0
  10
111.86799
  20
29.55452
  30
0
  11
111.76643
  21
29.55917
  31
0
  0
LINE
  8
0
  10
111.76643
  20
29.55917
  30
0
  11
111.36235
  21
29.58316
  31
0
  0
LINE
  8
0
  10
111.36235
  20
29.58316
  30
0
  11
110.96193
  21
29.616
  31
0
  0
LINE
  8
0
  10
110.96193
  20
29.616
  30
0
  11
110.56541
  21
29.65804
  31
0
  0
LINE
  8
0
  10
110.56541
  20
29.65804
  30
0
  11
110.3687
  21
29.68266
  31
0
  0
LINE
  8
0
  10
110.3687
  20
29.68266
  30
0
  11
110.27076
  21
29.69589
  31
0
  0
LINE
  8
0
  10
110.27076
  20
29.69589
  30
0
  11
109.81647
  21
28.76115
  31
0
  0
LINE
  8
0
  10
109.81647
  20
28.76115
  30
0
  11
109.88739
  21
28.69231
  31
0
  0
LINE
  8
0
  10
109.88739
  20
28.69231
  30
0
  11
110.02828
  21
28.55285
  31
0
  0
LINE
  8
0
  10
110.02828
  20
28.55285
  30
0
  11
110.30633
  21
28.26705
  31
0
  0
LINE
  8
0
  10
110.30633
  20
28.26705
  30
0
  11
110.57956
  21
27.97249
  31
0
  0
LINE
  8
0
  10
110.57956
  20
27.97249
  30
0
  11
110.84809
  21
27.6696
  31
0
  0
LINE
  8
0
  10
110.84809
  20
27.6696
  30
0
  11
110.91449
  21
27.59261
  31
0
  0
LINE
  8
0
  10
110.91449
  20
27.59261
  30
0
  11
110.44589
  21
26.70081
  31
0
  0
LINE
  8
0
  10
110.44589
  20
26.70081
  30
0
  11
110.34482
  21
26.71182
  31
0
  0
LINE
  8
0
  10
110.34482
  20
26.71182
  30
0
  11
109.94304
  21
26.76114
  31
0
  0
LINE
  8
0
  10
109.94304
  20
26.76114
  30
0
  11
109.54548
  21
26.81906
  31
0
  0
LINE
  8
0
  10
109.54548
  20
26.81906
  30
0
  11
109.15238
  21
26.88592
  31
0
  0
LINE
  8
0
  10
109.15238
  20
26.88592
  30
0
  11
108.95761
  21
26.92283
  31
0
  0
LINE
  8
0
  10
108.95761
  20
26.92283
  30
0
  11
108.86068
  21
26.94219
  31
0
  0
LINE
  8
0
  10
108.86068
  20
26.94219
  30
0
  11
108.3486
  21
26.03782
  31
0
  0
LINE
  8
0
  10
108.3486
  20
26.03782
  30
0
  11
108.41506
  21
25.96466
  31
0
  0
LINE
  8
0
  10
108.41506
  20
25.96466
  30
0
  11
108.54691
  21
25.81663
  31
0
  0
LINE
  8
0
  10
108.54691
  20
25.81663
  30
0
  11
108.80647
  21
25.51394
  31
0
  0
LINE
  8
0
  10
108.80647
  20
25.51394
  30
0
  11
109.06066
  21
25.20281
  31
0
  0
LINE
  8
0
  10
109.06066
  20
25.20281
  30
0
  11
109.30964
  21
24.88364
  31
0
  0
LINE
  8
0
  10
109.30964
  20
24.88364
  30
0
  11
109.37108
  21
24.80264
  31
0
  0
LINE
  8
0
  10
109.37108
  20
24.80264
  30
0
  11
108.84741
  21
23.94202
  31
0
  0
LINE
  8
0
  10
108.84741
  20
23.94202
  30
0
  11
108.74723
  21
23.95936
  31
0
  0
LINE
  8
0
  10
108.74723
  20
23.95936
  30
0
  11
108.34934
  21
24.03381
  31
0
  0
LINE
  8
0
  10
108.34934
  20
24.03381
  30
0
  11
107.9562
  21
24.11658
  31
0
  0
LINE
  8
0
  10
107.9562
  20
24.11658
  30
0
  11
107.56807
  21
24.20799
  31
0
  0
LINE
  8
0
  10
107.56807
  20
24.20799
  30
0
  11
107.376
  21
24.25706
  31
0
  0
LINE
  8
0
  10
107.376
  20
24.25706
  30
0
  11
107.28048
  21
24.28246
  31
0
  0
LINE
  8
0
  10
107.28048
  20
24.28246
  30
0
  11
106.71263
  21
23.41203
  31
0
  0
LINE
  8
0
  10
106.71263
  20
23.41203
  30
0
  11
106.77436
  21
23.33485
  31
0
  0
LINE
  8
0
  10
106.77436
  20
23.33485
  30
0
  11
106.89666
  21
23.17883
  31
0
  0
LINE
  8
0
  10
106.89666
  20
23.17883
  30
0
  11
107.1367
  21
22.86043
  31
0
  0
LINE
  8
0
  10
107.1367
  20
22.86043
  30
0
  11
107.37086
  21
22.53396
  31
0
  0
LINE
  8
0
  10
107.37086
  20
22.53396
  30
0
  11
107.5993
  21
22.19979
  31
0
  0
LINE
  8
0
  10
107.5993
  20
22.19979
  30
0
  11
107.65554
  21
22.11509
  31
0
  0
LINE
  8
0
  10
107.65554
  20
22.11509
  30
0
  11
107.07885
  21
21.28905
  31
0
  0
LINE
  8
0
  10
107.07885
  20
21.28905
  30
0
  11
106.97996
  21
21.31265
  31
0
  0
LINE
  8
0
  10
106.97996
  20
21.31265
  30
0
  11
106.58754
  21
21.41193
  31
0
  0
LINE
  8
0
  10
106.58754
  20
21.41193
  30
0
  11
106.20036
  21
21.51922
  31
0
  0
LINE
  8
0
  10
106.20036
  20
21.51922
  30
0
  11
105.81875
  21
21.63482
  31
0
  0
LINE
  8
0
  10
105.81875
  20
21.63482
  30
0
  11
105.63013
  21
21.69586
  31
0
  0
LINE
  8
0
  10
105.63013
  20
21.69586
  30
0
  11
105.5364
  21
21.72721
  31
0
  0
LINE
  8
0
  10
105.5364
  20
21.72721
  30
0
  11
104.91501
  21
20.89415
  31
0
  0
LINE
  8
0
  10
104.91501
  20
20.89415
  30
0
  11
104.97177
  21
20.81324
  31
0
  0
LINE
  8
0
  10
104.97177
  20
20.81324
  30
0
  11
105.08404
  21
20.64985
  31
0
  0
LINE
  8
0
  10
105.08404
  20
20.64985
  30
0
  11
105.30361
  21
20.31701
  31
0
  0
LINE
  8
0
  10
105.30361
  20
20.31701
  30
0
  11
105.5168
  21
19.97648
  31
0
  0
LINE
  8
0
  10
105.5168
  20
19.97648
  30
0
  11
105.72382
  21
19.62863
  31
0
  0
LINE
  8
0
  10
105.72382
  20
19.62863
  30
0
  11
105.77462
  21
19.54056
  31
0
  0
LINE
  8
0
  10
105.77462
  20
19.54056
  30
0
  11
105.14721
  21
18.75236
  31
0
  0
LINE
  8
0
  10
105.14721
  20
18.75236
  30
0
  11
105.04999
  21
18.78212
  31
0
  0
LINE
  8
0
  10
105.04999
  20
18.78212
  30
0
  11
104.66458
  21
18.90585
  31
0
  0
LINE
  8
0
  10
104.66458
  20
18.90585
  30
0
  11
104.2849
  21
19.03724
  31
0
  0
LINE
  8
0
  10
104.2849
  20
19.03724
  30
0
  11
103.9113
  21
19.17657
  31
0
  0
LINE
  8
0
  10
103.9113
  20
19.17657
  30
0
  11
103.72689
  21
19.24933
  31
0
  0
LINE
  8
0
  10
103.72689
  20
19.24933
  30
0
  11
103.63531
  21
19.28651
  31
0
  0
LINE
  8
0
  10
103.63531
  20
19.28651
  30
0
  11
102.96284
  21
18.49411
  31
0
  0
LINE
  8
0
  10
102.96284
  20
18.49411
  30
0
  11
103.01441
  21
18.4098
  31
0
  0
LINE
  8
0
  10
103.01441
  20
18.4098
  30
0
  11
103.11619
  21
18.23968
  31
0
  0
LINE
  8
0
  10
103.11619
  20
18.23968
  30
0
  11
103.31443
  21
17.89371
  31
0
  0
LINE
  8
0
  10
103.31443
  20
17.89371
  30
0
  11
103.50582
  21
17.54046
  31
0
  0
LINE
  8
0
  10
103.50582
  20
17.54046
  30
0
  11
103.69059
  21
17.1803
  31
0
  0
LINE
  8
0
  10
103.69059
  20
17.1803
  30
0
  11
103.73576
  21
17.08922
  31
0
  0
LINE
  8
0
  10
103.73576
  20
17.08922
  30
0
  11
103.0601
  21
16.34197
  31
0
  0
LINE
  8
0
  10
103.0601
  20
16.34197
  30
0
  11
102.96494
  21
16.37777
  31
0
  0
LINE
  8
0
  10
102.96494
  20
16.37777
  30
0
  11
102.58805
  21
16.52546
  31
0
  0
LINE
  8
0
  10
102.58805
  20
16.52546
  30
0
  11
102.21738
  21
16.68043
  31
0
  0
LINE
  8
0
  10
102.21738
  20
16.68043
  30
0
  11
101.85326
  21
16.84295
  31
0
  0
LINE
  8
0
  10
101.85326
  20
16.84295
  30
0
  11
101.67379
  21
16.92714
  31
0
  0
LINE
  8
0
  10
101.67379
  20
16.92714
  30
0
  11
101.58472
  21
16.96999
  31
0
  0
LINE
  8
0
  10
101.58472
  20
16.96999
  30
0
  11
100.86382
  21
16.22139
  31
0
  0
LINE
  8
0
  10
100.86382
  20
16.22139
  30
0
  11
100.91
  21
16.134
  31
0
  0
LINE
  8
0
  10
100.91
  20
16.134
  30
0
  11
101.00089
  21
15.95783
  31
0
  0
LINE
  8
0
  10
101.00089
  20
15.95783
  30
0
  11
101.17702
  21
15.60009
  31
0
  0
LINE
  8
0
  10
101.17702
  20
15.60009
  30
0
  11
101.34585
  21
15.23552
  31
0
  0
LINE
  8
0
  10
101.34585
  20
15.23552
  30
0
  11
101.50764
  21
14.86447
  31
0
  0
LINE
  8
0
  10
101.50764
  20
14.86447
  30
0
  11
101.547
  21
14.77073
  31
0
  0
LINE
  8
0
  10
101.547
  20
14.77073
  30
0
  11
100.82575
  21
14.06738
  31
0
  0
LINE
  8
0
  10
100.82575
  20
14.06738
  30
0
  11
100.73303
  21
14.10909
  31
0
  0
LINE
  8
0
  10
100.73303
  20
14.10909
  30
0
  11
100.36616
  21
14.28015
  31
0
  0
LINE
  8
0
  10
100.36616
  20
14.28015
  30
0
  11
100.00595
  21
14.45809
  31
0
  0
LINE
  8
0
  10
100.00595
  20
14.45809
  30
0
  11
99.65276
  21
14.64315
  31
0
  0
LINE
  8
0
  10
99.65276
  20
14.64315
  30
0
  11
99.47892
  21
14.73845
  31
0
  0
LINE
  8
0
  10
99.47892
  20
14.73845
  30
0
  11
99.39272
  21
14.7868
  31
0
  0
LINE
  8
0
  10
99.39272
  20
14.7868
  30
0
  11
98.62624
  21
14.08494
  31
0
  0
LINE
  8
0
  10
98.62624
  20
14.08494
  30
0
  11
98.66684
  21
13.99483
  31
0
  0
LINE
  8
0
  10
98.66684
  20
13.99483
  30
0
  11
98.74649
  21
13.8133
  31
0
  0
LINE
  8
0
  10
98.74649
  20
13.8133
  30
0
  11
98.89981
  21
13.44521
  31
0
  0
LINE
  8
0
  10
98.89981
  20
13.44521
  30
0
  11
99.04542
  21
13.07076
  31
0
  0
LINE
  8
0
  10
99.04542
  20
13.07076
  30
0
  11
99.18358
  21
12.69028
  31
0
  0
LINE
  8
0
  10
99.18358
  20
12.69028
  30
0
  11
99.21699
  21
12.59425
  31
0
  0
LINE
  8
0
  10
99.21699
  20
12.59425
  30
0
  11
98.453
  21
11.93758
  31
0
  0
LINE
  8
0
  10
98.453
  20
11.93758
  30
0
  11
98.36308
  21
11.98503
  31
0
  0
LINE
  8
0
  10
98.36308
  20
11.98503
  30
0
  11
98.00767
  21
12.17878
  31
0
  0
LINE
  8
0
  10
98.00767
  20
12.17878
  30
0
  11
97.65934
  21
12.37899
  31
0
  0
LINE
  8
0
  10
97.65934
  20
12.37899
  30
0
  11
97.31846
  21
12.58586
  31
0
  0
LINE
  8
0
  10
97.31846
  20
12.58586
  30
0
  11
97.15096
  21
12.69189
  31
0
  0
LINE
  8
0
  10
97.15096
  20
12.69189
  30
0
  11
97.06797
  21
12.74556
  31
0
  0
LINE
  8
0
  10
97.06797
  20
12.74556
  30
0
  11
96.25892
  21
12.09322
  31
0
  0
LINE
  8
0
  10
96.25892
  20
12.09322
  30
0
  11
96.29378
  21
12.00073
  31
0
  0
LINE
  8
0
  10
96.29378
  20
12.00073
  30
0
  11
96.36188
  21
11.81455
  31
0
  0
LINE
  8
0
  10
96.36188
  20
11.81455
  30
0
  11
96.49179
  21
11.43756
  31
0
  0
LINE
  8
0
  10
96.49179
  20
11.43756
  30
0
  11
96.6136
  21
11.05471
  31
0
  0
LINE
  8
0
  10
96.6136
  20
11.05471
  30
0
  11
96.7276
  21
10.66631
  31
0
  0
LINE
  8
0
  10
96.7276
  20
10.66631
  30
0
  11
96.75491
  21
10.56837
  31
0
  0
LINE
  8
0
  10
96.75491
  20
10.56837
  30
0
  11
95.95119
  21
9.96097
  31
0
  0
LINE
  8
0
  10
95.95119
  20
9.96097
  30
0
  11
95.86443
  21
10.01397
  31
0
  0
LINE
  8
0
  10
95.86443
  20
10.01397
  30
0
  11
95.52189
  21
10.22966
  31
0
  0
LINE
  8
0
  10
95.52189
  20
10.22966
  30
0
  11
95.18682
  21
10.45134
  31
0
  0
LINE
  8
0
  10
95.18682
  20
10.45134
  30
0
  11
94.8596
  21
10.67921
  31
0
  0
LINE
  8
0
  10
94.8596
  20
10.67921
  30
0
  11
94.69908
  21
10.79554
  31
0
  0
LINE
  8
0
  10
94.69908
  20
10.79554
  30
0
  11
94.61962
  21
10.85432
  31
0
  0
LINE
  8
0
  10
94.61962
  20
10.85432
  30
0
  11
93.77122
  21
10.25406
  31
0
  0
LINE
  8
0
  10
93.77122
  20
10.25406
  30
0
  11
93.8002
  21
10.15957
  31
0
  0
LINE
  8
0
  10
93.8002
  20
10.15957
  30
0
  11
93.85648
  21
9.96948
  31
0
  0
LINE
  8
0
  10
93.85648
  20
9.96948
  30
0
  11
93.96246
  21
9.58508
  31
0
  0
LINE
  8
0
  10
93.96246
  20
9.58508
  30
0
  11
94.05998
  21
9.19534
  31
0
  0
LINE
  8
0
  10
94.05998
  20
9.19534
  30
0
  11
94.14937
  21
8.80054
  31
0
  0
LINE
  8
0
  10
94.14937
  20
8.80054
  30
0
  11
94.17048
  21
8.70108
  31
0
  0
LINE
  8
0
  10
94.17048
  20
8.70108
  30
0
  11
93.33021
  21
8.14534
  31
0
  0
LINE
  8
0
  10
93.33021
  20
8.14534
  30
0
  11
93.24694
  21
8.20369
  31
0
  0
LINE
  8
0
  10
93.24694
  20
8.20369
  30
0
  11
92.91862
  21
8.44046
  31
0
  0
LINE
  8
0
  10
92.91862
  20
8.44046
  30
0
  11
92.59813
  21
8.68274
  31
0
  0
LINE
  8
0
  10
92.59813
  20
8.68274
  30
0
  11
92.28587
  21
8.93071
  31
0
  0
LINE
  8
0
  10
92.28587
  20
8.93071
  30
0
  11
92.13297
  21
9.05689
  31
0
  0
LINE
  8
0
  10
92.13297
  20
9.05689
  30
0
  11
92.05736
  21
9.12055
  31
0
  0
LINE
  8
0
  10
92.05736
  20
9.12055
  30
0
  11
91.17294
  21
8.57474
  31
0
  0
LINE
  8
0
  10
91.17294
  20
8.57474
  30
0
  11
91.19593
  21
8.47862
  31
0
  0
LINE
  8
0
  10
91.19593
  20
8.47862
  30
0
  11
91.24016
  21
8.28537
  31
0
  0
LINE
  8
0
  10
91.24016
  20
8.28537
  30
0
  11
91.32179
  21
7.89508
  31
0
  0
LINE
  8
0
  10
91.32179
  20
7.89508
  30
0
  11
91.39466
  21
7.49997
  31
0
  0
LINE
  8
0
  10
91.39466
  20
7.49997
  30
0
  11
91.45908
  21
7.10034
  31
0
  0
LINE
  8
0
  10
91.45908
  20
7.10034
  30
0
  11
91.4739
  21
6.99976
  31
0
  0
LINE
  8
0
  10
91.4739
  20
6.99976
  30
0
  11
90.60039
  21
6.49788
  31
0
  0
LINE
  8
0
  10
90.60039
  20
6.49788
  30
0
  11
90.52096
  21
6.56133
  31
0
  0
LINE
  8
0
  10
90.52096
  20
6.56133
  30
0
  11
90.20815
  21
6.81825
  31
0
  0
LINE
  8
0
  10
90.20815
  20
6.81825
  30
0
  11
89.90351
  21
7.08018
  31
0
  0
LINE
  8
0
  10
89.90351
  20
7.08018
  30
0
  11
89.60743
  21
7.34727
  31
0
  0
LINE
  8
0
  10
89.60743
  20
7.34727
  30
0
  11
89.46276
  21
7.4828
  31
0
  0
LINE
  8
0
  10
89.46276
  20
7.4828
  30
0
  11
89.39129
  21
7.55108
  31
0
  0
LINE
  8
0
  10
89.39129
  20
7.55108
  30
0
  11
88.47434
  21
7.06188
  31
0
  0
LINE
  8
0
  10
88.47434
  20
7.06188
  30
0
  11
88.49126
  21
6.9645
  31
0
  0
LINE
  8
0
  10
88.49126
  20
6.9645
  30
0
  11
88.52327
  21
6.76886
  31
0
  0
LINE
  8
0
  10
88.52327
  20
6.76886
  30
0
  11
88.58023
  21
6.37421
  31
0
  0
LINE
  8
0
  10
88.58023
  20
6.37421
  30
0
  11
88.62814
  21
5.97531
  31
0
  0
LINE
  8
0
  10
88.62814
  20
5.97531
  30
0
  11
88.66734
  21
5.57243
  31
0
  0
LINE
  8
0
  10
88.66734
  20
5.57243
  30
0
  11
88.67581
  21
5.47111
  31
0
  0
LINE
  8
0
  10
88.67581
  20
5.47111
  30
0
  11
87.77252
  21
5.02507
  31
0
  0
LINE
  8
0
  10
87.77252
  20
5.02507
  30
0
  11
87.69722
  21
5.09339
  31
0
  0
LINE
  8
0
  10
87.69722
  20
5.09339
  30
0
  11
87.40117
  21
5.36944
  31
0
  0
LINE
  8
0
  10
87.40117
  20
5.36944
  30
0
  11
87.11357
  21
5.64998
  31
0
  0
LINE
  8
0
  10
87.11357
  20
5.64998
  30
0
  11
86.83485
  21
5.93513
  31
0
  0
LINE
  8
0
  10
86.83485
  20
5.93513
  30
0
  11
86.69897
  21
6.07948
  31
0
  0
LINE
  8
0
  10
86.69897
  20
6.07948
  30
0
  11
86.63194
  21
6.15211
  31
0
  0
LINE
  8
0
  10
86.63194
  20
6.15211
  30
0
  11
85.68608
  21
5.72146
  31
0
  0
LINE
  8
0
  10
85.68608
  20
5.72146
  30
0
  11
85.69685
  21
5.62321
  31
0
  0
LINE
  8
0
  10
85.69685
  20
5.62321
  30
0
  11
85.71651
  21
5.42594
  31
0
  0
LINE
  8
0
  10
85.71651
  20
5.42594
  30
0
  11
85.74858
  21
5.02849
  31
0
  0
LINE
  8
0
  10
85.74858
  20
5.02849
  30
0
  11
85.77134
  21
4.62737
  31
0
  0
LINE
  8
0
  10
85.77134
  20
4.62737
  30
0
  11
85.78517
  21
4.22282
  31
0
  0
LINE
  8
0
  10
85.78517
  20
4.22282
  30
0
  11
85.78727
  21
4.12117
  31
0
  0
LINE
  8
0
  10
85.78727
  20
4.12117
  30
0
  11
84.85774
  21
3.73273
  31
0
  0
LINE
  8
0
  10
84.85774
  20
3.73273
  30
0
  11
84.78689
  21
3.80564
  31
0
  0
LINE
  8
0
  10
84.78689
  20
3.80564
  30
0
  11
84.50875
  21
4.09974
  31
0
  0
LINE
  8
0
  10
84.50875
  20
4.09974
  30
0
  11
84.23934
  21
4.39778
  31
0
  0
LINE
  8
0
  10
84.23934
  20
4.39778
  30
0
  11
83.97907
  21
4.69987
  31
0
  0
LINE
  8
0
  10
83.97907
  20
4.69987
  30
0
  11
83.85253
  21
4.85247
  31
0
  0
LINE
  8
0
  10
83.85253
  20
4.85247
  30
0
  11
83.79018
  21
4.92916
  31
0
  0
LINE
  8
0
  10
83.79018
  20
4.92916
  30
0
  11
82.81915
  21
4.55875
  31
0
  0
LINE
  8
0
  10
82.81915
  20
4.55875
  30
0
  11
82.82373
  21
4.46002
  31
0
  0
LINE
  8
0
  10
82.82373
  20
4.46002
  30
0
  11
82.83096
  21
4.26191
  31
0
  0
LINE
  8
0
  10
82.83096
  20
4.26191
  30
0
  11
82.83801
  21
3.86323
  31
0
  0
LINE
  8
0
  10
82.83801
  20
3.86323
  30
0
  11
82.83555
  21
3.46147
  31
0
  0
LINE
  8
0
  10
82.83555
  20
3.46147
  30
0
  11
82.82395
  21
3.05685
  31
0
  0
LINE
  8
0
  10
82.82395
  20
3.05685
  30
0
  11
82.81966
  21
2.95527
  31
0
  0
LINE
  8
0
  10
82.81966
  20
2.95527
  30
0
  11
81.86758
  21
2.62596
  31
0
  0
LINE
  8
0
  10
81.86758
  20
2.62596
  30
0
  11
81.80144
  21
2.70318
  31
0
  0
LINE
  8
0
  10
81.80144
  20
2.70318
  30
0
  11
81.54232
  21
3.01416
  31
0
  0
LINE
  8
0
  10
81.54232
  20
3.01416
  30
0
  11
81.29215
  21
3.32853
  31
0
  0
LINE
  8
0
  10
81.29215
  20
3.32853
  30
0
  11
81.05137
  21
3.64637
  31
0
  0
LINE
  8
0
  10
81.05137
  20
3.64637
  30
0
  11
80.93465
  21
3.80661
  31
0
  0
LINE
  8
0
  10
80.93465
  20
3.80661
  30
0
  11
80.87725
  21
3.88706
  31
0
  0
LINE
  8
0
  10
80.87725
  20
3.88706
  30
0
  11
79.88488
  21
3.57835
  31
0
  0
LINE
  8
0
  10
79.88488
  20
3.57835
  30
0
  11
79.88324
  21
3.47953
  31
0
  0
LINE
  8
0
  10
79.88324
  20
3.47953
  30
0
  11
79.87802
  21
3.28136
  31
0
  0
LINE
  8
0
  10
79.87802
  20
3.28136
  30
0
  11
79.86003
  21
2.88302
  31
0
  0
LINE
  8
0
  10
79.86003
  20
2.88302
  30
0
  11
79.83234
  21
2.48221
  31
0
  0
LINE
  8
0
  10
79.83234
  20
2.48221
  30
0
  11
79.79536
  21
2.07912
  31
0
  0
LINE
  8
0
  10
79.79536
  20
2.07912
  30
0
  11
79.7847
  21
1.97801
  31
0
  0
LINE
  8
0
  10
79.7847
  20
1.97801
  30
0
  11
78.81382
  21
1.70912
  31
0
  0
LINE
  8
0
  10
78.81382
  20
1.70912
  30
0
  11
78.75266
  21
1.79034
  31
0
  0
LINE
  8
0
  10
78.75266
  20
1.79034
  30
0
  11
78.51358
  21
2.11698
  31
0
  0
LINE
  8
0
  10
78.51358
  20
2.11698
  30
0
  11
78.28364
  21
2.44645
  31
0
  0
LINE
  8
0
  10
78.28364
  20
2.44645
  30
0
  11
78.06329
  21
2.77877
  31
0
  0
LINE
  8
0
  10
78.06329
  20
2.77877
  30
0
  11
77.95687
  21
2.94602
  31
0
  0
LINE
  8
0
  10
77.95687
  20
2.94602
  30
0
  11
77.90463
  21
3.02993
  31
0
  0
LINE
  8
0
  10
77.90463
  20
3.02993
  30
0
  11
76.89483
  21
2.78414
  31
0
  0
LINE
  8
0
  10
76.89483
  20
2.78414
  30
0
  11
76.88699
  21
2.68561
  31
0
  0
LINE
  8
0
  10
76.88699
  20
2.68561
  30
0
  11
76.86934
  21
2.48816
  31
0
  0
LINE
  8
0
  10
76.86934
  20
2.48816
  30
0
  11
76.82637
  21
2.09174
  31
0
  0
LINE
  8
0
  10
76.82637
  20
2.09174
  30
0
  11
76.77357
  21
1.69346
  31
0
  0
LINE
  8
0
  10
76.77357
  20
1.69346
  30
0
  11
76.71135
  21
1.29348
  31
0
  0
LINE
  8
0
  10
76.71135
  20
1.29348
  30
0
  11
76.69436
  21
1.19324
  31
0
  0
LINE
  8
0
  10
76.69436
  20
1.19324
  30
0
  11
75.70851
  21
0.98585
  31
0
  0
LINE
  8
0
  10
75.70851
  20
0.98585
  30
0
  11
75.65258
  21
1.07075
  31
0
  0
LINE
  8
0
  10
75.65258
  20
1.07075
  30
0
  11
75.43447
  21
1.41175
  31
0
  0
LINE
  8
0
  10
75.43447
  20
1.41175
  30
0
  11
75.22568
  21
1.755
  31
0
  0
LINE
  8
0
  10
75.22568
  20
1.755
  30
0
  11
75.02663
  21
2.10051
  31
0
  0
LINE
  8
0
  10
75.02663
  20
2.10051
  30
0
  11
74.93092
  21
2.27412
  31
0
  0
LINE
  8
0
  10
74.93092
  20
2.27412
  30
0
  11
74.88405
  21
2.36113
  31
0
  0
LINE
  8
0
  10
74.88405
  20
2.36113
  30
0
  11
73.86081
  21
2.17924
  31
0
  0
LINE
  8
0
  10
73.86081
  20
2.17924
  30
0
  11
73.84681
  21
2.0814
  31
0
  0
LINE
  8
0
  10
73.84681
  20
2.0814
  30
0
  11
73.81679
  21
1.88544
  31
0
  0
LINE
  8
0
  10
73.81679
  20
1.88544
  30
0
  11
73.74901
  21
1.4925
  31
0
  0
LINE
  8
0
  10
73.74901
  20
1.4925
  30
0
  11
73.67131
  21
1.09832
  31
0
  0
LINE
  8
0
  10
73.67131
  20
1.09832
  30
0
  11
73.58409
  21
0.70304
  31
0
  0
LINE
  8
0
  10
73.58409
  20
0.70304
  30
0
  11
73.56084
  21
0.60406
  31
0
  0
LINE
  8
0
  10
73.56084
  20
0.60406
  30
0
  11
72.56392
  21
0.45898
  31
0
  0
LINE
  8
0
  10
72.56392
  20
0.45898
  30
0
  11
72.51343
  21
0.54723
  31
0
  0
LINE
  8
0
  10
72.51343
  20
0.54723
  30
0
  11
72.31717
  21
0.90126
  31
0
  0
LINE
  8
0
  10
72.31717
  20
0.90126
  30
0
  11
72.13034
  21
1.25694
  31
0
  0
LINE
  8
0
  10
72.13034
  20
1.25694
  30
0
  11
71.95338
  21
1.61426
  31
0
  0
LINE
  8
0
  10
71.95338
  20
1.61426
  30
0
  11
71.86875
  21
1.79353
  31
0
  0
LINE
  8
0
  10
71.86875
  20
1.79353
  30
0
  11
71.82744
  21
1.88332
  31
0
  0
LINE
  8
0
  10
71.82744
  20
1.88332
  30
0
  11
70.7948
  21
1.76604
  31
0
  0
LINE
  8
0
  10
70.7948
  20
1.76604
  30
0
  11
70.77468
  21
1.66927
  31
0
  0
LINE
  8
0
  10
70.77468
  20
1.66927
  30
0
  11
70.73242
  21
1.47558
  31
0
  0
LINE
  8
0
  10
70.73242
  20
1.47558
  30
0
  11
70.6401
  21
1.08768
  31
0
  0
LINE
  8
0
  10
70.6401
  20
1.08768
  30
0
  11
70.5378
  21
0.69915
  31
0
  0
LINE
  8
0
  10
70.5378
  20
0.69915
  30
0
  11
70.42594
  21
0.31013
  31
0
  0
LINE
  8
0
  10
70.42594
  20
0.31013
  30
0
  11
70.39652
  21
0.21281
  31
0
  0
LINE
  8
0
  10
70.39652
  20
0.21281
  30
0
  11
69.39245
  21
0.13061
  31
0
  0
LINE
  8
0
  10
69.39245
  20
0.13061
  30
0
  11
69.3476
  21
0.22185
  31
0
  0
LINE
  8
0
  10
69.3476
  20
0.22185
  30
0
  11
69.17396
  21
0.5875
  31
0
  0
LINE
  8
0
  10
69.17396
  20
0.5875
  30
0
  11
69.00983
  21
0.95422
  31
0
  0
LINE
  8
0
  10
69.00983
  20
0.95422
  30
0
  11
68.85565
  21
1.32194
  31
0
  0
LINE
  8
0
  10
68.85565
  20
1.32194
  30
0
  11
68.78246
  21
1.50618
  31
0
  0
LINE
  8
0
  10
68.78246
  20
1.50618
  30
0
  11
68.74686
  21
1.59838
  31
0
  0
LINE
  8
0
  10
68.74686
  20
1.59838
  30
0
  11
67.70889
  21
1.54617
  31
0
  0
LINE
  8
0
  10
67.70889
  20
1.54617
  30
0
  11
67.68274
  21
1.45085
  31
0
  0
LINE
  8
0
  10
67.68274
  20
1.45085
  30
0
  11
67.6284
  21
1.2602
  31
0
  0
LINE
  8
0
  10
67.6284
  20
1.2602
  30
0
  11
67.5119
  21
0.87886
  31
0
  0
LINE
  8
0
  10
67.5119
  20
0.87886
  30
0
  11
67.38541
  21
0.49753
  31
0
  0
LINE
  8
0
  10
67.38541
  20
0.49753
  30
0
  11
67.24934
  21
0.11629
  31
0
  0
LINE
  8
0
  10
67.24934
  20
0.11629
  30
0
  11
67.21387
  21
0.02101
  31
0
  0
LINE
  8
0
  10
67.21387
  20
0.02101
  30
0
  11
66.20663
  21
0.00202
  31
0
  0
LINE
  8
0
  10
66.20663
  20
0.00202
  30
0
  11
66.16759
  21
0.0959
  31
0
  0
LINE
  8
0
  10
66.16759
  20
0.0959
  30
0
  11
66.01725
  21
0.47173
  31
0
  0
LINE
  8
0
  10
66.01725
  20
0.47173
  30
0
  11
65.87647
  21
0.84803
  31
0
  0
LINE
  8
0
  10
65.87647
  20
0.84803
  30
0
  11
65.74569
  21
1.22471
  31
0
  0
LINE
  8
0
  10
65.74569
  20
1.22471
  30
0
  11
65.6842
  21
1.41318
  31
0
  0
LINE
  8
0
  10
65.6842
  20
1.41318
  30
0
  11
65.65447
  21
1.50744
  31
0
  0
LINE
  8
0
  10
65.65447
  20
1.50744
  30
0
  11
64.61527
  21
1.5205
  31
0
  0
LINE
  8
0
  10
64.61527
  20
1.5205
  30
0
  11
64.58318
  21
1.42701
  31
0
  0
LINE
  8
0
  10
64.58318
  20
1.42701
  30
0
  11
64.51698
  21
1.24015
  31
0
  0
LINE
  8
0
  10
64.51698
  20
1.24015
  30
0
  11
64.37677
  21
0.86687
  31
0
  0
LINE
  8
0
  10
64.37677
  20
0.86687
  30
0
  11
64.22658
  21
0.49424
  31
0
  0
LINE
  8
0
  10
64.22658
  20
0.49424
  30
0
  11
64.06684
  21
0.1223
  31
0
  0
LINE
  8
0
  10
64.06684
  20
0.1223
  30
0
  11
64.02546
  21
0.02943
  31
0
  0
LINE
  8
0
  10
64.02546
  20
0.02943
  30
0
  11
63.01901
  21
0.07373
  31
0
  0
LINE
  8
0
  10
63.01901
  20
0.07373
  30
0
  11
62.98594
  21
0.16987
  31
0
  0
LINE
  8
0
  10
62.98594
  20
0.16987
  30
0
  11
62.8595
  21
0.5544
  31
0
  0
LINE
  8
0
  10
62.8595
  20
0.5544
  30
0
  11
62.74263
  21
0.93879
  31
0
  0
LINE
  8
0
  10
62.74263
  20
0.93879
  30
0
  11
62.63576
  21
1.32295
  31
0
  0
LINE
  8
0
  10
62.63576
  20
1.32295
  30
0
  11
62.58623
  21
1.5149
  31
0
  0
LINE
  8
0
  10
62.58623
  20
1.5149
  30
0
  11
62.56247
  21
1.61084
  31
0
  0
LINE
  8
0
  10
62.56247
  20
1.61084
  30
0
  11
61.52614
  21
1.68913
  31
0
  0
LINE
  8
0
  10
61.52614
  20
1.68913
  30
0
  11
61.48824
  21
1.59784
  31
0
  0
LINE
  8
0
  10
61.48824
  20
1.59784
  30
0
  11
61.41044
  21
1.41551
  31
0
  0
LINE
  8
0
  10
61.41044
  20
1.41551
  30
0
  11
61.24707
  21
1.05177
  31
0
  0
LINE
  8
0
  10
61.24707
  20
1.05177
  30
0
  11
61.07378
  21
0.6893
  31
0
  0
LINE
  8
0
  10
61.07378
  20
0.6893
  30
0
  11
60.891
  21
0.32813
  31
0
  0
LINE
  8
0
  10
60.891
  20
0.32813
  30
0
  11
60.84387
  21
0.23804
  31
0
  0
LINE
  8
0
  10
60.84387
  20
0.23804
  30
0
  11
59.84219
  21
0.34544
  31
0
  0
LINE
  8
0
  10
59.84219
  20
0.34544
  30
0
  11
59.81522
  21
0.44347
  31
0
  0
LINE
  8
0
  10
59.81522
  20
0.44347
  30
0
  11
59.71317
  21
0.83519
  31
0
  0
LINE
  8
0
  10
59.71317
  20
0.83519
  30
0
  11
59.62067
  21
1.22616
  31
0
  0
LINE
  8
0
  10
59.62067
  20
1.22616
  30
0
  11
59.53813
  21
1.61626
  31
0
  0
LINE
  8
0
  10
59.53813
  20
1.61626
  30
0
  11
59.50075
  21
1.81095
  31
0
  0
LINE
  8
0
  10
59.50075
  20
1.81095
  30
0
  11
59.48306
  21
1.90819
  31
0
  0
LINE
  8
0
  10
59.48306
  20
1.90819
  30
0
  11
58.4537
  21
2.05139
  31
0
  0
LINE
  8
0
  10
58.4537
  20
2.05139
  30
0
  11
58.41014
  21
1.96267
  31
0
  0
LINE
  8
0
  10
58.41014
  20
1.96267
  30
0
  11
58.32104
  21
1.78558
  31
0
  0
LINE
  8
0
  10
58.32104
  20
1.78558
  30
0
  11
58.13515
  21
1.43282
  31
0
  0
LINE
  8
0
  10
58.13515
  20
1.43282
  30
0
  11
57.93945
  21
1.08194
  31
0
  0
LINE
  8
0
  10
57.93945
  20
1.08194
  30
0
  11
57.73435
  21
0.73296
  31
0
  0
LINE
  8
0
  10
57.73435
  20
0.73296
  30
0
  11
57.68165
  21
0.64601
  31
0
  0
LINE
  8
0
  10
57.68165
  20
0.64601
  30
0
  11
56.68869
  21
0.8161
  31
0
  0
LINE
  8
0
  10
56.68869
  20
0.8161
  30
0
  11
56.66794
  21
0.91563
  31
0
  0
LINE
  8
0
  10
56.66794
  20
0.91563
  30
0
  11
56.59068
  21
1.31297
  31
0
  0
LINE
  8
0
  10
56.59068
  20
1.31297
  30
0
  11
56.52291
  21
1.70898
  31
0
  0
LINE
  8
0
  10
56.52291
  20
1.70898
  30
0
  11
56.46503
  21
2.1035
  31
0
  0
LINE
  8
0
  10
56.46503
  20
2.1035
  30
0
  11
56.43995
  21
2.30015
  31
0
  0
LINE
  8
0
  10
56.43995
  20
2.30015
  30
0
  11
56.4284
  21
2.39831
  31
0
  0
LINE
  8
0
  10
56.4284
  20
2.39831
  30
0
  11
55.41006
  21
2.60586
  31
0
  0
LINE
  8
0
  10
55.41006
  20
2.60586
  30
0
  11
55.36102
  21
2.52005
  31
0
  0
LINE
  8
0
  10
55.36102
  20
2.52005
  30
0
  11
55.26098
  21
2.34891
  31
0
  0
LINE
  8
0
  10
55.26098
  20
2.34891
  30
0
  11
55.0533
  21
2.00851
  31
0
  0
LINE
  8
0
  10
55.0533
  20
2.00851
  30
0
  11
54.83595
  21
1.67062
  31
0
  0
LINE
  8
0
  10
54.83595
  20
1.67062
  30
0
  11
54.60935
  21
1.3352
  31
0
  0
LINE
  8
0
  10
54.60935
  20
1.3352
  30
0
  11
54.5513
  21
1.25173
  31
0
  0
LINE
  8
0
  10
54.5513
  20
1.25173
  30
0
  11
53.57097
  21
1.48383
  31
0
  0
LINE
  8
0
  10
53.57097
  20
1.48383
  30
0
  11
53.55651
  21
1.58447
  31
0
  0
LINE
  8
0
  10
53.55651
  20
1.58447
  30
0
  11
53.50436
  21
1.98588
  31
0
  0
LINE
  8
0
  10
53.50436
  20
1.98588
  30
0
  11
53.46159
  21
2.38537
  31
0
  0
LINE
  8
0
  10
53.46159
  20
2.38537
  30
0
  11
53.42859
  21
2.78274
  31
0
  0
LINE
  8
0
  10
53.42859
  20
2.78274
  30
0
  11
53.4159
  21
2.98057
  31
0
  0
LINE
  8
0
  10
53.4159
  20
2.98057
  30
0
  11
53.41055
  21
3.07927
  31
0
  0
LINE
  8
0
  10
53.41055
  20
3.07927
  30
0
  11
52.40724
  21
3.35035
  31
0
  0
LINE
  8
0
  10
52.40724
  20
3.35035
  30
0
  11
52.35291
  21
3.26779
  31
0
  0
LINE
  8
0
  10
52.35291
  20
3.26779
  30
0
  11
52.24232
  21
3.10326
  31
0
  0
LINE
  8
0
  10
52.24232
  20
3.10326
  30
0
  11
52.01369
  21
2.77658
  31
0
  0
LINE
  8
0
  10
52.01369
  20
2.77658
  30
0
  11
51.77555
  21
2.453
  31
0
  0
LINE
  8
0
  10
51.77555
  20
2.453
  30
0
  11
51.52833
  21
2.13247
  31
0
  0
LINE
  8
0
  10
51.52833
  20
2.13247
  30
0
  11
51.46515
  21
2.05282
  31
0
  0
LINE
  8
0
  10
51.46515
  20
2.05282
  30
0
  11
50.50134
  21
2.34601
  31
0
  0
LINE
  8
0
  10
50.50134
  20
2.34601
  30
0
  11
50.49322
  21
2.44736
  31
0
  0
LINE
  8
0
  10
50.49322
  20
2.44736
  30
0
  11
50.46637
  21
2.85126
  31
0
  0
LINE
  8
0
  10
50.46637
  20
2.85126
  30
0
  11
50.44877
  21
3.25264
  31
0
  0
LINE
  8
0
  10
50.44877
  20
3.25264
  30
0
  11
50.44079
  21
3.6513
  31
0
  0
LINE
  8
0
  10
50.44079
  20
3.6513
  30
0
  11
50.44055
  21
3.84954
  31
0
  0
LINE
  8
0
  10
50.44055
  20
3.84954
  30
0
  11
50.4414
  21
3.94837
  31
0
  0
LINE
  8
0
  10
50.4414
  20
3.94837
  30
0
  11
49.4571
  21
4.28192
  31
0
  0
LINE
  8
0
  10
49.4571
  20
4.28192
  30
0
  11
49.39769
  21
4.20293
  31
0
  0
LINE
  8
0
  10
49.39769
  20
4.20293
  30
0
  11
49.27699
  21
4.04567
  31
0
  0
LINE
  8
0
  10
49.27699
  20
4.04567
  30
0
  11
49.02829
  21
3.73399
  31
0
  0
LINE
  8
0
  10
49.02829
  20
3.73399
  30
0
  11
48.7703
  21
3.426
  31
0
  0
LINE
  8
0
  10
48.7703
  20
3.426
  30
0
  11
48.50345
  21
3.12163
  31
0
  0
LINE
  8
0
  10
48.50345
  20
3.12163
  30
0
  11
48.43539
  21
3.0461
  31
0
  0
LINE
  8
0
  10
48.43539
  20
3.0461
  30
0
  11
47.49189
  21
3.39924
  31
0
  0
LINE
  8
0
  10
47.49189
  20
3.39924
  30
0
  11
47.49015
  21
3.50089
  31
0
  0
LINE
  8
0
  10
47.49015
  20
3.50089
  30
0
  11
47.48872
  21
3.90568
  31
0
  0
LINE
  8
0
  10
47.48872
  20
3.90568
  30
0
  11
47.49636
  21
4.30737
  31
0
  0
LINE
  8
0
  10
47.49636
  20
4.30737
  30
0
  11
47.51342
  21
4.70575
  31
0
  0
LINE
  8
0
  10
47.51342
  20
4.70575
  30
0
  11
47.52564
  21
4.90361
  31
0
  0
LINE
  8
0
  10
47.52564
  20
4.90361
  30
0
  11
47.53269
  21
5.0022
  31
0
  0
LINE
  8
0
  10
47.53269
  20
5.0022
  30
0
  11
46.57127
  21
5.39689
  31
0
  0
LINE
  8
0
  10
46.57127
  20
5.39689
  30
0
  11
46.50702
  21
5.32179
  31
0
  0
LINE
  8
0
  10
46.50702
  20
5.32179
  30
0
  11
46.37668
  21
5.17242
  31
0
  0
LINE
  8
0
  10
46.37668
  20
5.17242
  30
0
  11
46.10891
  21
4.87697
  31
0
  0
LINE
  8
0
  10
46.10891
  20
4.87697
  30
0
  11
45.83209
  21
4.58579
  31
0
  0
LINE
  8
0
  10
45.83209
  20
4.58579
  30
0
  11
45.54665
  21
4.29877
  31
0
  0
LINE
  8
0
  10
45.54665
  20
4.29877
  30
0
  11
45.47398
  21
4.22766
  31
0
  0
LINE
  8
0
  10
45.47398
  20
4.22766
  30
0
  11
44.55452
  21
4.63935
  31
0
  0
LINE
  8
0
  10
44.55452
  20
4.63935
  30
0
  11
44.55917
  21
4.74091
  31
0
  0
LINE
  8
0
  10
44.55917
  20
4.74091
  30
0
  11
44.58316
  21
5.14499
  31
0
  0
LINE
  8
0
  10
44.58316
  20
5.14499
  30
0
  11
44.616
  21
5.54541
  31
0
  0
LINE
  8
0
  10
44.616
  20
5.54541
  30
0
  11
44.65804
  21
5.94193
  31
0
  0
LINE
  8
0
  10
44.65804
  20
5.94193
  30
0
  11
44.68266
  21
6.13863
  31
0
  0
LINE
  8
0
  10
44.68266
  20
6.13863
  30
0
  11
44.69589
  21
6.23658
  31
0
  0
LINE
  8
0
  10
44.69589
  20
6.23658
  30
0
  11
43.76115
  21
6.69087
  31
0
  0
LINE
  8
0
  10
43.76115
  20
6.69087
  30
0
  11
43.69231
  21
6.61995
  31
0
  0
LINE
  8
0
  10
43.69231
  20
6.61995
  30
0
  11
43.55285
  21
6.47906
  31
0
  0
LINE
  8
0
  10
43.55285
  20
6.47906
  30
0
  11
43.26705
  21
6.201
  31
0
  0
LINE
  8
0
  10
43.26705
  20
6.201
  30
0
  11
42.97249
  21
5.92778
  31
0
  0
LINE
  8
0
  10
42.97249
  20
5.92778
  30
0
  11
42.6696
  21
5.65925
  31
0
  0
LINE
  8
0
  10
42.6696
  20
5.65925
  30
0
  11
42.59261
  21
5.59284
  31
0
  0
LINE
  8
0
  10
42.59261
  20
5.59284
  30
0
  11
41.70081
  21
6.06145
  31
0
  0
LINE
  8
0
  10
41.70081
  20
6.06145
  30
0
  11
41.71182
  21
6.16252
  31
0
  0
LINE
  8
0
  10
41.71182
  20
6.16252
  30
0
  11
41.76114
  21
6.56429
  31
0
  0
LINE
  8
0
  10
41.76114
  20
6.56429
  30
0
  11
41.81906
  21
6.96186
  31
0
  0
LINE
  8
0
  10
41.81906
  20
6.96186
  30
0
  11
41.88592
  21
7.35496
  31
0
  0
LINE
  8
0
  10
41.88592
  20
7.35496
  30
0
  11
41.92283
  21
7.54973
  31
0
  0
LINE
  8
0
  10
41.92283
  20
7.54973
  30
0
  11
41.94219
  21
7.64665
  31
0
  0
LINE
  8
0
  10
41.94219
  20
7.64665
  30
0
  11
41.03782
  21
8.15874
  31
0
  0
LINE
  8
0
  10
41.03782
  20
8.15874
  30
0
  11
40.96466
  21
8.09228
  31
0
  0
LINE
  8
0
  10
40.96466
  20
8.09228
  30
0
  11
40.81663
  21
7.96042
  31
0
  0
LINE
  8
0
  10
40.81663
  20
7.96042
  30
0
  11
40.51394
  21
7.70086
  31
0
  0
LINE
  8
0
  10
40.51394
  20
7.70086
  30
0
  11
40.20281
  21
7.44667
  31
0
  0
LINE
  8
0
  10
40.20281
  20
7.44667
  30
0
  11
39.88364
  21
7.1977
  31
0
  0
LINE
  8
0
  10
39.88364
  20
7.1977
  30
0
  11
39.80264
  21
7.13625
  31
0
  0
LINE
  8
0
  10
39.80264
  20
7.13625
  30
0
  11
38.94202
  21
7.65993
  31
0
  0
LINE
  8
0
  10
38.94202
  20
7.65993
  30
0
  11
38.95936
  21
7.76011
  31
0
  0
LINE
  8
0
  10
38.95936
  20
7.76011
  30
0
  11
39.03381
  21
8.15799
  31
0
  0
LINE
  8
0
  10
39.03381
  20
8.15799
  30
0
  11
39.11658
  21
8.55114
  31
0
  0
LINE
  8
0
  10
39.11658
  20
8.55114
  30
0
  11
39.20799
  21
8.93926
  31
0
  0
LINE
  8
0
  10
39.20799
  20
8.93926
  30
0
  11
39.25706
  21
9.13133
  31
0
  0
LINE
  8
0
  10
39.25706
  20
9.13133
  30
0
  11
39.28246
  21
9.22685
  31
0
  0
LINE
  8
0
  10
39.28246
  20
9.22685
  30
0
  11
38.41203
  21
9.79471
  31
0
  0
LINE
  8
0
  10
38.41203
  20
9.79471
  30
0
  11
38.33485
  21
9.73298
  31
0
  0
LINE
  8
0
  10
38.33485
  20
9.73298
  30
0
  11
38.17883
  21
9.61068
  31
0
  0
LINE
  8
0
  10
38.17883
  20
9.61068
  30
0
  11
37.86043
  21
9.37063
  31
0
  0
LINE
  8
0
  10
37.86043
  20
9.37063
  30
0
  11
37.53396
  21
9.13648
  31
0
  0
LINE
  8
0
  10
37.53396
  20
9.13648
  30
0
  11
37.19979
  21
8.90804
  31
0
  0
LINE
  8
0
  10
37.19979
  20
8.90804
  30
0
  11
37.11509
  21
8.8518
  31
0
  0
LINE
  8
0
  10
37.11509
  20
8.8518
  30
0
  11
36.28905
  21
9.42848
  31
0
  0
LINE
  8
0
  10
36.28905
  20
9.42848
  30
0
  11
36.31265
  21
9.52738
  31
0
  0
LINE
  8
0
  10
36.31265
  20
9.52738
  30
0
  11
36.41193
  21
9.9198
  31
0
  0
LINE
  8
0
  10
36.41193
  20
9.9198
  30
0
  11
36.51922
  21
10.30697
  31
0
  0
LINE
  8
0
  10
36.51922
  20
10.30697
  30
0
  11
36.63482
  21
10.68859
  31
0
  0
LINE
  8
0
  10
36.63482
  20
10.68859
  30
0
  11
36.69586
  21
10.8772
  31
0
  0
LINE
  8
0
  10
36.69586
  20
10.8772
  30
0
  11
36.72721
  21
10.97094
  31
0
  0
LINE
  8
0
  10
36.72721
  20
10.97094
  30
0
  11
35.89415
  21
11.59233
  31
0
  0
LINE
  8
0
  10
35.89415
  20
11.59233
  30
0
  11
35.81324
  21
11.53556
  31
0
  0
LINE
  8
0
  10
35.81324
  20
11.53556
  30
0
  11
35.64985
  21
11.4233
  31
0
  0
LINE
  8
0
  10
35.64985
  20
11.4233
  30
0
  11
35.31701
  21
11.20373
  31
0
  0
LINE
  8
0
  10
35.31701
  20
11.20373
  30
0
  11
34.97648
  21
10.99053
  31
0
  0
LINE
  8
0
  10
34.97648
  20
10.99053
  30
0
  11
34.62863
  21
10.78352
  31
0
  0
LINE
  8
0
  10
34.62863
  20
10.78352
  30
0
  11
34.54056
  21
10.73271
  31
0
  0
LINE
  8
0
  10
34.54056
  20
10.73271
  30
0
  11
33.75236
  21
11.36013
  31
0
  0
LINE
  8
0
  10
33.75236
  20
11.36013
  30
0
  11
33.78212
  21
11.45734
  31
0
  0
LINE
  8
0
  10
33.78212
  20
11.45734
  30
0
  11
33.90585
  21
11.84276
  31
0
  0
LINE
  8
0
  10
33.90585
  20
11.84276
  30
0
  11
34.03724
  21
12.22243
  31
0
  0
LINE
  8
0
  10
34.03724
  20
12.22243
  30
0
  11
34.17657
  21
12.59604
  31
0
  0
LINE
  8
0
  10
34.17657
  20
12.59604
  30
0
  11
34.24933
  21
12.78044
  31
0
  0
LINE
  8
0
  10
34.24933
  20
12.78044
  30
0
  11
34.28651
  21
12.87202
  31
0
  0
LINE
  8
0
  10
34.28651
  20
12.87202
  30
0
  11
33.49411
  21
13.5445
  31
0
  0
LINE
  8
0
  10
33.49411
  20
13.5445
  30
0
  11
33.4098
  21
13.49292
  31
0
  0
LINE
  8
0
  10
33.4098
  20
13.49292
  30
0
  11
33.23968
  21
13.39114
  31
0
  0
LINE
  8
0
  10
33.23968
  20
13.39114
  30
0
  11
32.89371
  21
13.1929
  31
0
  0
LINE
  8
0
  10
32.89371
  20
13.1929
  30
0
  11
32.54046
  21
13.00151
  31
0
  0
LINE
  8
0
  10
32.54046
  20
13.00151
  30
0
  11
32.1803
  21
12.81675
  31
0
  0
LINE
  8
0
  10
32.1803
  20
12.81675
  30
0
  11
32.08922
  21
12.77157
  31
0
  0
LINE
  8
0
  10
32.08922
  20
12.77157
  30
0
  11
31.34197
  21
13.44724
  31
0
  0
LINE
  8
0
  10
31.34197
  20
13.44724
  30
0
  11
31.37777
  21
13.5424
  31
0
  0
LINE
  8
0
  10
31.37777
  20
13.5424
  30
0
  11
31.52546
  21
13.91928
  31
0
  0
LINE
  8
0
  10
31.52546
  20
13.91928
  30
0
  11
31.68043
  21
14.28996
  31
0
  0
LINE
  8
0
  10
31.68043
  20
14.28996
  30
0
  11
31.84295
  21
14.65407
  31
0
  0
LINE
  8
0
  10
31.84295
  20
14.65407
  30
0
  11
31.92714
  21
14.83355
  31
0
  0
LINE
  8
0
  10
31.92714
  20
14.83355
  30
0
  11
31.96999
  21
14.92261
  31
0
  0
LINE
  8
0
  10
31.96999
  20
14.92261
  30
0
  11
31.22139
  21
15.64352
  31
0
  0
LINE
  8
0
  10
31.22139
  20
15.64352
  30
0
  11
31.134
  21
15.59734
  31
0
  0
LINE
  8
0
  10
31.134
  20
15.59734
  30
0
  11
30.95783
  21
15.50644
  31
0
  0
LINE
  8
0
  10
30.95783
  20
15.50644
  30
0
  11
30.60009
  21
15.33031
  31
0
  0
LINE
  8
0
  10
30.60009
  20
15.33031
  30
0
  11
30.23552
  21
15.16148
  31
0
  0
LINE
  8
0
  10
30.23552
  20
15.16148
  30
0
  11
29.86447
  21
14.9997
  31
0
  0
LINE
  8
0
  10
29.86447
  20
14.9997
  30
0
  11
29.77073
  21
14.96033
  31
0
  0
LINE
  8
0
  10
29.77073
  20
14.96033
  30
0
  11
29.06738
  21
15.68158
  31
0
  0
LINE
  8
0
  10
29.06738
  20
15.68158
  30
0
  11
29.10909
  21
15.7743
  31
0
  0
LINE
  8
0
  10
29.10909
  20
15.7743
  30
0
  11
29.28015
  21
16.14117
  31
0
  0
LINE
  8
0
  10
29.28015
  20
16.14117
  30
0
  11
29.45809
  21
16.50139
  31
0
  0
LINE
  8
0
  10
29.45809
  20
16.50139
  30
0
  11
29.64315
  21
16.85458
  31
0
  0
LINE
  8
0
  10
29.64315
  20
16.85458
  30
0
  11
29.73845
  21
17.02841
  31
0
  0
LINE
  8
0
  10
29.73845
  20
17.02841
  30
0
  11
29.7868
  21
17.11461
  31
0
  0
LINE
  8
0
  10
29.7868
  20
17.11461
  30
0
  11
29.08494
  21
17.8811
  31
0
  0
LINE
  8
0
  10
29.08494
  20
17.8811
  30
0
  11
28.99483
  21
17.8405
  31
0
  0
LINE
  8
0
  10
28.99483
  20
17.8405
  30
0
  11
28.8133
  21
17.76084
  31
0
  0
LINE
  8
0
  10
28.8133
  20
17.76084
  30
0
  11
28.44521
  21
17.60752
  31
0
  0
LINE
  8
0
  10
28.44521
  20
17.60752
  30
0
  11
28.07076
  21
17.46192
  31
0
  0
LINE
  8
0
  10
28.07076
  20
17.46192
  30
0
  11
27.69028
  21
17.32375
  31
0
  0
LINE
  8
0
  10
27.69028
  20
17.32375
  30
0
  11
27.59425
  21
17.29035
  31
0
  0
LINE
  8
0
  10
27.59425
  20
17.29035
  30
0
  11
26.93758
  21
18.05434
  31
0
  0
LINE
  8
0
  10
26.93758
  20
18.05434
  30
0
  11
26.98503
  21
18.14426
  31
0
  0
LINE
  8
0
  10
26.98503
  20
18.14426
  30
0
  11
27.17878
  21
18.49967
  31
0
  0
LINE
  8
0
  10
27.17878
  20
18.49967
  30
0
  11
27.37899
  21
18.84799
  31
0
  0
LINE
  8
0
  10
27.37899
  20
18.84799
  30
0
  11
27.58586
  21
19.18887
  31
0
  0
LINE
  8
0
  10
27.58586
  20
19.18887
  30
0
  11
27.69189
  21
19.35638
  31
0
  0
LINE
  8
0
  10
27.69189
  20
19.35638
  30
0
  11
27.74556
  21
19.43937
  31
0
  0
LINE
  8
0
  10
27.74556
  20
19.43937
  30
0
  11
27.09322
  21
20.24841
  31
0
  0
LINE
  8
0
  10
27.09322
  20
20.24841
  30
0
  11
27.00073
  21
20.21355
  31
0
  0
LINE
  8
0
  10
27.00073
  20
20.21355
  30
0
  11
26.81455
  21
20.14545
  31
0
  0
LINE
  8
0
  10
26.81455
  20
20.14545
  30
0
  11
26.43756
  21
20.01555
  31
0
  0
LINE
  8
0
  10
26.43756
  20
20.01555
  30
0
  11
26.05471
  21
19.89374
  31
0
  0
LINE
  8
0
  10
26.05471
  20
19.89374
  30
0
  11
25.66631
  21
19.77974
  31
0
  0
LINE
  8
0
  10
25.66631
  20
19.77974
  30
0
  11
25.56837
  21
19.75243
  31
0
  0
LINE
  8
0
  10
25.56837
  20
19.75243
  30
0
  11
24.96097
  21
20.55615
  31
0
  0
LINE
  8
0
  10
24.96097
  20
20.55615
  30
0
  11
25.01397
  21
20.64291
  31
0
  0
LINE
  8
0
  10
25.01397
  20
20.64291
  30
0
  11
25.22966
  21
20.98545
  31
0
  0
LINE
  8
0
  10
25.22966
  20
20.98545
  30
0
  11
25.45134
  21
21.32052
  31
0
  0
LINE
  8
0
  10
25.45134
  20
21.32052
  30
0
  11
25.67921
  21
21.64773
  31
0
  0
LINE
  8
0
  10
25.67921
  20
21.64773
  30
0
  11
25.79554
  21
21.80825
  31
0
  0
LINE
  8
0
  10
25.79554
  20
21.80825
  30
0
  11
25.85432
  21
21.88771
  31
0
  0
LINE
  8
0
  10
25.85432
  20
21.88771
  30
0
  11
25.25406
  21
22.73612
  31
0
  0
LINE
  8
0
  10
25.25406
  20
22.73612
  30
0
  11
25.15957
  21
22.70713
  31
0
  0
LINE
  8
0
  10
25.15957
  20
22.70713
  30
0
  11
24.96948
  21
22.65086
  31
0
  0
LINE
  8
0
  10
24.96948
  20
22.65086
  30
0
  11
24.58508
  21
22.54488
  31
0
  0
LINE
  8
0
  10
24.58508
  20
22.54488
  30
0
  11
24.19534
  21
22.44735
  31
0
  0
LINE
  8
0
  10
24.19534
  20
22.44735
  30
0
  11
23.80054
  21
22.35797
  31
0
  0
LINE
  8
0
  10
23.80054
  20
22.35797
  30
0
  11
23.70108
  21
22.33686
  31
0
  0
LINE
  8
0
  10
23.70108
  20
22.33686
  30
0
  11
23.14534
  21
23.17713
  31
0
  0
LINE
  8
0
  10
23.14534
  20
23.17713
  30
0
  11
23.20369
  21
23.26039
  31
0
  0
LINE
  8
0
  10
23.20369
  20
23.26039
  30
0
  11
23.44046
  21
23.58871
  31
0
  0
LINE
  8
0
  10
23.44046
  20
23.58871
  30
0
  11
23.68274
  21
23.9092
  31
0
  0
LINE
  8
0
  10
23.68274
  20
23.9092
  30
0
  11
23.93071
  21
24.22146
  31
0
  0
LINE
  8
0
  10
23.93071
  20
24.22146
  30
0
  11
24.05689
  21
24.37436
  31
0
  0
LINE
  8
0
  10
24.05689
  20
24.37436
  30
0
  11
24.12055
  21
24.44997
  31
0
  0
LINE
  8
0
  10
24.12055
  20
24.44997
  30
0
  11
23.57474
  21
25.3344
  31
0
  0
LINE
  8
0
  10
23.57474
  20
25.3344
  30
0
  11
23.47862
  21
25.3114
  31
0
  0
LINE
  8
0
  10
23.47862
  20
25.3114
  30
0
  11
23.28537
  21
25.26717
  31
0
  0
LINE
  8
0
  10
23.28537
  20
25.26717
  30
0
  11
22.89508
  21
25.18554
  31
0
  0
LINE
  8
0
  10
22.89508
  20
25.18554
  30
0
  11
22.49997
  21
25.11268
  31
0
  0
LINE
  8
0
  10
22.49997
  20
25.11268
  30
0
  11
22.10034
  21
25.04826
  31
0
  0
LINE
  8
0
  10
22.10034
  20
25.04826
  30
0
  11
21.99976
  21
25.03344
  31
0
  0
LINE
  8
0
  10
21.99976
  20
25.03344
  30
0
  11
21.49788
  21
25.90695
  31
0
  0
LINE
  8
0
  10
21.49788
  20
25.90695
  30
0
  11
21.56133
  21
25.98638
  31
0
  0
LINE
  8
0
  10
21.56133
  20
25.98638
  30
0
  11
21.81825
  21
26.29918
  31
0
  0
LINE
  8
0
  10
21.81825
  20
26.29918
  30
0
  11
22.08018
  21
26.60383
  31
0
  0
LINE
  8
0
  10
22.08018
  20
26.60383
  30
0
  11
22.34727
  21
26.8999
  31
0
  0
LINE
  8
0
  10
22.34727
  20
26.8999
  30
0
  11
22.4828
  21
27.04458
  31
0
  0
LINE
  8
0
  10
22.4828
  20
27.04458
  30
0
  11
22.55108
  21
27.11604
  31
0
  0
LINE
  8
0
  10
22.55108
  20
27.11604
  30
0
  11
22.06188
  21
28.03299
  31
0
  0
LINE
  8
0
  10
22.06188
  20
28.03299
  30
0
  11
21.9645
  21
28.01608
  31
0
  0
LINE
  8
0
  10
21.9645
  20
28.01608
  30
0
  11
21.76886
  21
27.98407
  31
0
  0
LINE
  8
0
  10
21.76886
  20
27.98407
  30
0
  11
21.37421
  21
27.92711
  31
0
  0
LINE
  8
0
  10
21.37421
  20
27.92711
  30
0
  11
20.97531
  21
27.8792
  31
0
  0
LINE
  8
0
  10
20.97531
  20
27.8792
  30
0
  11
20.57243
  21
27.84
  31
0
  0
LINE
  8
0
  10
20.57243
  20
27.84
  30
0
  11
20.47111
  21
27.83152
  31
0
  0
LINE
  8
0
  10
20.47111
  20
27.83152
  30
0
  11
20.02507
  21
28.73482
  31
0
  0
LINE
  8
0
  10
20.02507
  20
28.73482
  30
0
  11
20.09339
  21
28.81011
  31
0
  0
LINE
  8
0
  10
20.09339
  20
28.81011
  30
0
  11
20.36944
  21
29.10617
  31
0
  0
LINE
  8
0
  10
20.36944
  20
29.10617
  30
0
  11
20.64998
  21
29.39376
  31
0
  0
LINE
  8
0
  10
20.64998
  20
29.39376
  30
0
  11
20.93513
  21
29.67248
  31
0
  0
LINE
  8
0
  10
20.93513
  20
29.67248
  30
0
  11
21.07948
  21
29.80836
  31
0
  0
LINE
  8
0
  10
21.07948
  20
29.80836
  30
0
  11
21.15211
  21
29.8754
  31
0
  0
LINE
  8
0
  10
21.15211
  20
29.8754
  30
0
  11
20.72146
  21
30.82126
  31
0
  0
LINE
  8
0
  10
20.72146
  20
30.82126
  30
0
  11
20.62321
  21
30.81049
  31
0
  0
LINE
  8
0
  10
20.62321
  20
30.81049
  30
0
  11
20.42594
  21
30.79083
  31
0
  0
LINE
  8
0
  10
20.42594
  20
30.79083
  30
0
  11
20.02849
  21
30.75876
  31
0
  0
LINE
  8
0
  10
20.02849
  20
30.75876
  30
0
  11
19.62737
  21
30.73599
  31
0
  0
LINE
  8
0
  10
19.62737
  20
30.73599
  30
0
  11
19.22282
  21
30.72216
  31
0
  0
LINE
  8
0
  10
19.22282
  20
30.72216
  30
0
  11
19.12117
  21
30.72007
  31
0
  0
LINE
  8
0
  10
19.12117
  20
30.72007
  30
0
  11
18.73273
  21
31.64959
  31
0
  0
LINE
  8
0
  10
18.73273
  20
31.64959
  30
0
  11
18.80564
  21
31.72045
  31
0
  0
LINE
  8
0
  10
18.80564
  20
31.72045
  30
0
  11
19.09974
  21
31.99858
  31
0
  0
LINE
  8
0
  10
19.09974
  20
31.99858
  30
0
  11
19.39778
  21
32.268
  31
0
  0
LINE
  8
0
  10
19.39778
  20
32.268
  30
0
  11
19.69987
  21
32.52826
  31
0
  0
LINE
  8
0
  10
19.69987
  20
32.52826
  30
0
  11
19.85247
  21
32.65481
  31
0
  0
LINE
  8
0
  10
19.85247
  20
32.65481
  30
0
  11
19.92916
  21
32.71715
  31
0
  0
LINE
  8
0
  10
19.92916
  20
32.71715
  30
0
  11
19.55875
  21
33.68818
  31
0
  0
LINE
  8
0
  10
19.55875
  20
33.68818
  30
0
  11
19.46002
  21
33.68361
  31
0
  0
LINE
  8
0
  10
19.46002
  20
33.68361
  30
0
  11
19.26191
  21
33.67637
  31
0
  0
LINE
  8
0
  10
19.26191
  20
33.67637
  30
0
  11
18.86323
  21
33.66932
  31
0
  0
LINE
  8
0
  10
18.86323
  20
33.66932
  30
0
  11
18.46147
  21
33.67179
  31
0
  0
LINE
  8
0
  10
18.46147
  20
33.67179
  30
0
  11
18.05685
  21
33.68339
  31
0
  0
LINE
  8
0
  10
18.05685
  20
33.68339
  30
0
  11
17.95527
  21
33.68768
  31
0
  0
LINE
  8
0
  10
17.95527
  20
33.68768
  30
0
  11
17.62596
  21
34.63976
  31
0
  0
LINE
  8
0
  10
17.62596
  20
34.63976
  30
0
  11
17.70318
  21
34.70589
  31
0
  0
LINE
  8
0
  10
17.70318
  20
34.70589
  30
0
  11
18.01416
  21
34.96502
  31
0
  0
LINE
  8
0
  10
18.01416
  20
34.96502
  30
0
  11
18.32853
  21
35.21518
  31
0
  0
LINE
  8
0
  10
18.32853
  20
35.21518
  30
0
  11
18.64637
  21
35.45597
  31
0
  0
LINE
  8
0
  10
18.64637
  20
35.45597
  30
0
  11
18.80661
  21
35.57268
  31
0
  0
LINE
  8
0
  10
18.80661
  20
35.57268
  30
0
  11
18.88706
  21
35.63009
  31
0
  0
LINE
  8
0
  10
18.88706
  20
35.63009
  30
0
  11
18.57835
  21
36.62246
  31
0
  0
LINE
  8
0
  10
18.57835
  20
36.62246
  30
0
  11
18.47953
  21
36.62409
  31
0
  0
LINE
  8
0
  10
18.47953
  20
36.62409
  30
0
  11
18.28136
  21
36.62931
  31
0
  0
LINE
  8
0
  10
18.28136
  20
36.62931
  30
0
  11
17.88302
  21
36.64731
  31
0
  0
LINE
  8
0
  10
17.88302
  20
36.64731
  30
0
  11
17.48221
  21
36.67499
  31
0
  0
LINE
  8
0
  10
17.48221
  20
36.67499
  30
0
  11
17.07912
  21
36.71198
  31
0
  0
LINE
  8
0
  10
17.07912
  20
36.71198
  30
0
  11
16.97801
  21
36.72264
  31
0
  0
LINE
  8
0
  10
16.97801
  20
36.72264
  30
0
  11
16.70912
  21
37.69352
  31
0
  0
LINE
  8
0
  10
16.70912
  20
37.69352
  30
0
  11
16.79034
  21
37.75468
  31
0
  0
LINE
  8
0
  10
16.79034
  20
37.75468
  30
0
  11
17.11698
  21
37.99376
  31
0
  0
LINE
  8
0
  10
17.11698
  20
37.99376
  30
0
  11
17.44645
  21
38.22369
  31
0
  0
LINE
  8
0
  10
17.44645
  20
38.22369
  30
0
  11
17.77877
  21
38.44405
  31
0
  0
LINE
  8
0
  10
17.77877
  20
38.44405
  30
0
  11
17.94602
  21
38.55047
  31
0
  0
LINE
  8
0
  10
17.94602
  20
38.55047
  30
0
  11
18.02993
  21
38.60271
  31
0
  0
LINE
  8
0
  10
18.02993
  20
38.60271
  30
0
  11
17.78414
  21
39.61251
  31
0
  0
LINE
  8
0
  10
17.78414
  20
39.61251
  30
0
  11
17.68561
  21
39.62034
  31
0
  0
LINE
  8
0
  10
17.68561
  20
39.62034
  30
0
  11
17.48816
  21
39.63799
  31
0
  0
LINE
  8
0
  10
17.48816
  20
39.63799
  30
0
  11
17.09174
  21
39.68097
  31
0
  0
LINE
  8
0
  10
17.09174
  20
39.68097
  30
0
  11
16.69346
  21
39.73377
  31
0
  0
LINE
  8
0
  10
16.69346
  20
39.73377
  30
0
  11
16.29348
  21
39.79599
  31
0
  0
LINE
  8
0
  10
16.29348
  20
39.79599
  30
0
  11
16.19324
  21
39.81298
  31
0
  0
LINE
  8
0
  10
16.19324
  20
39.81298
  30
0
  11
15.98585
  21
40.79882
  31
0
  0
LINE
  8
0
  10
15.98585
  20
40.79882
  30
0
  11
16.07075
  21
40.85476
  31
0
  0
LINE
  8
0
  10
16.07075
  20
40.85476
  30
0
  11
16.41175
  21
41.07286
  31
0
  0
LINE
  8
0
  10
16.41175
  20
41.07286
  30
0
  11
16.755
  21
41.28165
  31
0
  0
LINE
  8
0
  10
16.755
  20
41.28165
  30
0
  11
17.10051
  21
41.48071
  31
0
  0
LINE
  8
0
  10
17.10051
  20
41.48071
  30
0
  11
17.27412
  21
41.57642
  31
0
  0
LINE
  8
0
  10
17.27412
  20
41.57642
  30
0
  11
17.36113
  21
41.62328
  31
0
  0
LINE
  8
0
  10
17.36113
  20
41.62328
  30
0
  11
17.17924
  21
42.64652
  31
0
  0
LINE
  8
0
  10
17.17924
  20
42.64652
  30
0
  11
17.0814
  21
42.66053
  31
0
  0
LINE
  8
0
  10
17.0814
  20
42.66053
  30
0
  11
16.88544
  21
42.69055
  31
0
  0
LINE
  8
0
  10
16.88544
  20
42.69055
  30
0
  11
16.4925
  21
42.75833
  31
0
  0
LINE
  8
0
  10
16.4925
  20
42.75833
  30
0
  11
16.09832
  21
42.83603
  31
0
  0
LINE
  8
0
  10
16.09832
  20
42.83603
  30
0
  11
15.70304
  21
42.92324
  31
0
  0
LINE
  8
0
  10
15.70304
  20
42.92324
  30
0
  11
15.60406
  21
42.94649
  31
0
  0
LINE
  8
0
  10
15.60406
  20
42.94649
  30
0
  11
15.45898
  21
43.94341
  31
0
  0
LINE
  8
0
  10
15.45898
  20
43.94341
  30
0
  11
15.54723
  21
43.99391
  31
0
  0
LINE
  8
0
  10
15.54723
  20
43.99391
  30
0
  11
15.90126
  21
44.19017
  31
0
  0
LINE
  8
0
  10
15.90126
  20
44.19017
  30
0
  11
16.25694
  21
44.377
  31
0
  0
LINE
  8
0
  10
16.25694
  20
44.377
  30
0
  11
16.61426
  21
44.55396
  31
0
  0
LINE
  8
0
  10
16.61426
  20
44.55396
  30
0
  11
16.79353
  21
44.63858
  31
0
  0
LINE
  8
0
  10
16.79353
  20
44.63858
  30
0
  11
16.88332
  21
44.67989
  31
0
  0
LINE
  8
0
  10
16.88332
  20
44.67989
  30
0
  11
16.76604
  21
45.71254
  31
0
  0
LINE
  8
0
  10
16.76604
  20
45.71254
  30
0
  11
16.66927
  21
45.73266
  31
0
  0
LINE
  8
0
  10
16.66927
  20
45.73266
  30
0
  11
16.47558
  21
45.77492
  31
0
  0
LINE
  8
0
  10
16.47558
  20
45.77492
  30
0
  11
16.08768
  21
45.86724
  31
0
  0
LINE
  8
0
  10
16.08768
  20
45.86724
  30
0
  11
15.69915
  21
45.96954
  31
0
  0
LINE
  8
0
  10
15.69915
  20
45.96954
  30
0
  11
15.31013
  21
46.0814
  31
0
  0
LINE
  8
0
  10
15.31013
  20
46.0814
  30
0
  11
15.21281
  21
46.11082
  31
0
  0
LINE
  8
0
  10
15.21281
  20
46.11082
  30
0
  11
15.13061
  21
47.11488
  31
0
  0
LINE
  8
0
  10
15.13061
  20
47.11488
  30
0
  11
15.22185
  21
47.15974
  31
0
  0
LINE
  8
0
  10
15.22185
  20
47.15974
  30
0
  11
15.5875
  21
47.33338
  31
0
  0
LINE
  8
0
  10
15.5875
  20
47.33338
  30
0
  11
15.95422
  21
47.49751
  31
0
  0
LINE
  8
0
  10
15.95422
  20
47.49751
  30
0
  11
16.32194
  21
47.65168
  31
0
  0
LINE
  8
0
  10
16.32194
  20
47.65168
  30
0
  11
16.50618
  21
47.72488
  31
0
  0
LINE
  8
0
  10
16.50618
  20
47.72488
  30
0
  11
16.59838
  21
47.76047
  31
0
  0
LINE
  8
0
  10
16.59838
  20
47.76047
  30
0
  11
16.54617
  21
48.79844
  31
0
  0
LINE
  8
0
  10
66.25367
  20
50.75367
  30
0
  11
66.25367
  21
50.75367
  31
0
  0
LINE
  8
0
  10
66.25367
  20
50.75367
  30
0
  11
66.23663
  21
50.88308
  31
0
  0
LINE
  8
0
  10
66.23663
  20
50.88308
  30
0
  11
66.18668
  21
51.00367
  31
0
  0
LINE
  8
0
  10
66.18668
  20
51.00367
  30
0
  11
66.10722
  21
51.10722
  31
0
  0
LINE
  8
0
  10
66.10722
  20
51.10722
  30
0
  11
66.00367
  21
51.18668
  31
0
  0
LINE
  8
0
  10
66.00367
  20
51.18668
  30
0
  11
65.88308
  21
51.23663
  31
0
  0
LINE
  8
0
  10
65.88308
  20
51.23663
  30
0
  11
65.75367
  21
51.25367
  31
0
  0
LINE
  8
0
  10
65.75367
  20
51.25367
  30
0
  11
65.62426
  21
51.23663
  31
0
  0
LINE
  8
0
  10
65.62426
  20
51.23663
  30
0
  11
65.50367
  21
51.18668
  31
0
  0
LINE
  8
0
  10
65.50367
  20
51.18668
  30
0
  11
65.40011
  21
51.10722
  31
0
  0
LINE
  8
0
  10
65.40011
  20
51.10722
  30
0
  11
65.32066
  21
51.00367
  31
0
  0
LINE
  8
0
  10
65.32066
  20
51.00367
  30
0
  11
65.27071
  21
50.88308
  31
0
  0
LINE
  8
0
  10
65.27071
  20
50.88308
  30
0
  11
65.25367
  21
50.75367
  31
0
  0
LINE
  8
0
  10
65.25367
  20
50.75367
  30
0
  11
65.27071
  21
50.62426
  31
0
  0
LINE
  8
0
  10
65.27071
  20
50.62426
  30
0
  11
65.32066
  21
50.50367
  31
0
  0
LINE
  8
0
  10
65.32066
  20
50.50367
  30
0
  11
65.40011
  21
50.40011
  31
0
  0
LINE
  8
0
  10
65.40011
  20
50.40011
  30
0
  11
65.50367
  21
50.32066
  31
0
  0
LINE
  8
0
  10
65.50367
  20
50.32066
  30
0
  11
65.62426
  21
50.27071
  31
0
  0
LINE
  8
0
  10
65.62426
  20
50.27071
  30
0
  11
65.75367
  21
50.25367
  31
0
  0
LINE
  8
0
  10
65.75367
  20
50.25367
  30
0
  11
65.88308
  21
50.27071
  31
0
  0
LINE
  8
0
  10
65.88308
  20
50.27071
  30
0
  11
66.00367
  21
50.32066
  31
0
  0
LINE
  8
0
  10
66.00367
  20
50.32066
  30
0
  11
66.10722
  21
50.40011
  31
0
  0
LINE
  8
0
  10
66.10722
  20
50.40011
  30
0
  11
66.18668
  21
50.50367
  31
0
  0
LINE
  8
0
  10
66.18668
  20
50.50367
  30
0
  11
66.23663
  21
50.62426
  31
0
  0
LINE
  8
0
  10
66.23663
  20
50.62426
  30
0
  11
66.25367
  21
50.75367
  31
0
  0
LINE
  8
0
  10
66.25367
  20
50.75367
  30
0
  11
66.25367
  21
50.75367
  31
0
  0
LINE
  8
0
  10
16.51608
  20
49.82545
  30
0
  11
15.00902
  21
49.79704
  31
0
  0
LINE
  8
0
  10
16.55496
  20
52.91894
  30
0
  11
15.04908
  21
52.98521
  31
0
  0
LINE
  8
0
  10
16.788
  20
56.00388
  30
0
  11
15.28926
  21
56.16458
  31
0
  0
LINE
  8
0
  10
17.21429
  20
59.0681
  30
0
  11
15.72859
  21
59.32258
  31
0
  0
LINE
  8
0
  10
17.83214
  20
62.0995
  30
0
  11
16.36535
  21
62.44678
  31
0
  0
LINE
  8
0
  10
18.63911
  20
65.08613
  30
0
  11
17.19702
  21
65.52482
  31
0
  0
LINE
  8
0
  10
19.63202
  20
68.0162
  30
0
  11
18.22033
  21
68.54457
  31
0
  0
LINE
  8
0
  10
20.80696
  20
70.87814
  30
0
  11
19.43122
  21
71.49411
  31
0
  0
LINE
  8
0
  10
22.15927
  20
73.66065
  30
0
  11
20.82493
  21
74.36179
  31
0
  0
LINE
  8
0
  10
23.68364
  20
76.35277
  30
0
  11
22.39595
  21
77.1363
  31
0
  0
LINE
  8
0
  10
25.37403
  20
78.94385
  30
0
  11
24.13809
  21
79.8067
  31
0
  0
LINE
  8
0
  10
27.22379
  20
81.42368
  30
0
  11
26.04446
  21
82.36243
  31
0
  0
LINE
  8
0
  10
29.22561
  20
83.78247
  30
0
  11
28.10755
  21
84.79342
  31
0
  0
LINE
  8
0
  10
31.37158
  20
86.01091
  30
0
  11
30.31921
  21
87.09007
  31
0
  0
LINE
  8
0
  10
33.65325
  20
88.10021
  30
0
  11
32.67072
  21
89.24332
  31
0
  0
LINE
  8
0
  10
36.0616
  20
90.04212
  30
0
  11
35.15278
  21
91.24466
  31
0
  0
LINE
  8
0
  10
38.58713
  20
91.82897
  30
0
  11
37.75562
  21
93.08621
  31
0
  0
LINE
  8
0
  10
41.21988
  20
93.45372
  30
0
  11
40.46895
  21
94.76069
  31
0
  0
LINE
  8
0
  10
43.94945
  20
94.90995
  30
0
  11
43.28206
  21
96.26149
  31
0
  0
LINE
  8
0
  10
46.76507
  20
96.19192
  30
0
  11
46.18387
  21
97.58269
  31
0
  0
LINE
  8
0
  10
49.65563
  20
97.29456
  30
0
  11
49.1629
  21
98.71909
  31
0
  0
LINE
  8
0
  10
52.60972
  20
98.21352
  30
0
  11
52.20741
  21
99.66618
  31
0
  0
LINE
  8
0
  10
55.61569
  20
98.94519
  30
0
  11
55.30539
  21
100.42024
  31
0
  0
LINE
  8
0
  10
58.66167
  20
99.48666
  30
0
  11
58.44459
  21
100.97829
  31
0
  0
LINE
  8
0
  10
61.73563
  20
99.83581
  30
0
  11
61.61265
  21
101.33812
  31
0
  0
LINE
  8
0
  10
64.82545
  20
99.99125
  30
0
  11
64.79704
  21
101.49832
  31
0
  0
LINE
  8
0
  10
67.91894
  20
99.95238
  30
0
  11
67.98521
  21
101.45825
  31
0
  0
LINE
  8
0
  10
71.00388
  20
99.71933
  30
0
  11
71.16458
  21
101.21808
  31
0
  0
LINE
  8
0
  10
74.0681
  20
99.29305
  30
0
  11
74.32258
  21
100.77875
  31
0
  0
LINE
  8
0
  10
77.0995
  20
98.6752
  30
0
  11
77.44678
  21
100.14199
  31
0
  0
LINE
  8
0
  10
80.08613
  20
97.86823
  30
0
  11
80.52482
  21
99.31031
  31
0
  0
LINE
  8
0
  10
83.0162
  20
96.87531
  30
0
  11
83.54457
  21
98.28701
  31
0
  0
LINE
  8
0
  10
85.87814
  20
95.70038
  30
0
  11
86.49411
  21
97.07611
  31
0
  0
LINE
  8
0
  10
88.66065
  20
94.34806
  30
0
  11
89.36179
  21
95.6824
  31
0
  0
LINE
  8
0
  10
91.35277
  20
92.8237
  30
0
  11
92.1363
  21
94.11138
  31
0
  0
LINE
  8
0
  10
93.94385
  20
91.1333
  30
0
  11
94.8067
  21
92.36925
  31
0
  0
LINE
  8
0
  10
96.42368
  20
89.28355
  30
0
  11
97.36243
  21
90.46287
  31
0
  0
LINE
  8
0
  10
98.78247
  20
87.28173
  30
0
  11
99.79342
  21
88.39978
  31
0
  0
LINE
  8
0
  10
101.01091
  20
85.13575
  30
0
  11
102.09007
  21
86.18812
  31
0
  0
LINE
  8
0
  10
103.10021
  20
82.85409
  30
0
  11
104.24332
  21
83.83662
  31
0
  0
LINE
  8
0
  10
105.04212
  20
80.44574
  30
0
  11
106.24466
  21
81.35455
  31
0
  0
LINE
  8
0
  10
106.82897
  20
77.9202
  30
0
  11
108.08621
  21
78.75172
  31
0
  0
LINE
  8
0
  10
108.45372
  20
75.28746
  30
0
  11
109.76069
  21
76.03839
  31
0
  0
LINE
  8
0
  10
109.90995
  20
72.55789
  30
0
  11
111.26149
  21
73.22527
  31
0
  0
LINE
  8
0
  10
111.19192
  20
69.74227
  30
0
  11
112.58269
  21
70.32347
  31
0
  0
LINE
  8
0
  10
112.29456
  20
66.8517
  30
0
  11
113.71909
  21
67.34443
  31
0
  0
LINE
  8
0
  10
113.21352
  20
63.89761
  30
0
  11
114.66618
  21
64.29992
  31
0
  0
LINE
  8
0
  10
113.94519
  20
60.89165
  30
0
  11
115.42024
  21
61.20195
  31
0
  0
LINE
  8
0
  10
114.48666
  20
57.84567
  30
0
  11
115.97829
  21
58.06274
  31
0
  0
LINE
  8
0
  10
114.83581
  20
54.77171
  30
0
  11
116.33812
  21
54.89469
  31
0
  0
LINE
  8
0
  10
114.99125
  20
51.68188
  30
0
  11
116.49832
  21
51.7103
  31
0
  0
LINE
  8
0
  10
114.95238
  20
48.5884
  30
0
  11
116.45825
  21
48.52212
  31
0
  0
LINE
  8
0
  10
114.71933
  20
45.50346
  30
0
  11
116.21808
  21
45.34276
  31
0
  0
LINE
  8
0
  10
114.29305
  20
42.43924
  30
0
  11
115.77875
  21
42.18475
  31
0
  0
LINE
  8
0
  10
113.6752
  20
39.40783
  30
0
  11
115.14199
  21
39.06056
  31
0
  0
LINE
  8
0
  10
112.86823
  20
36.4212
  30
0
  11
114.31031
  21
35.98252
  31
0
  0
LINE
  8
0
  10
111.87531
  20
33.49114
  30
0
  11
113.28701
  21
32.96277
  31
0
  0
LINE
  8
0
  10
110.70038
  20
30.6292
  30
0
  11
112.07611
  21
30.01323
  31
0
  0
LINE
  8
0
  10
109.34806
  20
27.84668
  30
0
  11
110.6824
  21
27.14554
  31
0
  0
LINE
  8
0
  10
107.8237
  20
25.15457
  30
0
  11
109.11138
  21
24.37103
  31
0
  0
LINE
  8
0
  10
106.1333
  20
22.56349
  30
0
  11
107.36925
  21
21.70064
  31
0
  0
LINE
  8
0
  10
104.28355
  20
20.08365
  30
0
  11
105.46287
  21
19.1449
  31
0
  0
LINE
  8
0
  10
102.28173
  20
17.72486
  30
0
  11
103.39978
  21
16.71391
  31
0
  0
LINE
  8
0
  10
100.13575
  20
15.49642
  30
0
  11
101.18812
  21
14.41727
  31
0
  0
LINE
  8
0
  10
97.85409
  20
13.40713
  30
0
  11
98.83662
  21
12.26402
  31
0
  0
LINE
  8
0
  10
95.44574
  20
11.46522
  30
0
  11
96.35455
  21
10.26267
  31
0
  0
LINE
  8
0
  10
92.9202
  20
9.67836
  30
0
  11
93.75172
  21
8.42113
  31
0
  0
LINE
  8
0
  10
90.28746
  20
8.05362
  30
0
  11
91.03839
  21
6.74665
  31
0
  0
LINE
  8
0
  10
87.55789
  20
6.59739
  30
0
  11
88.22527
  21
5.24585
  31
0
  0
LINE
  8
0
  10
84.74227
  20
5.31542
  30
0
  11
85.32347
  21
3.92464
  31
0
  0
LINE
  8
0
  10
81.8517
  20
4.21278
  30
0
  11
82.34443
  21
2.78825
  31
0
  0
LINE
  8
0
  10
78.89761
  20
3.29381
  30
0
  11
79.29992
  21
1.84116
  31
0
  0
LINE
  8
0
  10
75.89165
  20
2.56215
  30
0
  11
76.20195
  21
1.0871
  31
0
  0
LINE
  8
0
  10
72.84567
  20
2.02067
  30
0
  11
73.06274
  21
0.52905
  31
0
  0
LINE
  8
0
  10
69.77171
  20
1.67153
  30
0
  11
69.89469
  21
0.16922
  31
0
  0
LINE
  8
0
  10
66.68188
  20
1.51608
  30
0
  11
66.7103
  21
0.00902
  31
0
  0
LINE
  8
0
  10
63.5884
  20
1.55496
  30
0
  11
63.52212
  21
0.04908
  31
0
  0
LINE
  8
0
  10
60.50346
  20
1.788
  30
0
  11
60.34276
  21
0.28926
  31
0
  0
LINE
  8
0
  10
57.43924
  20
2.21429
  30
0
  11
57.18475
  21
0.72859
  31
0
  0
LINE
  8
0
  10
54.40783
  20
2.83214
  30
0
  11
54.06056
  21
1.36535
  31
0
  0
LINE
  8
0
  10
51.4212
  20
3.63911
  30
0
  11
50.98252
  21
2.19702
  31
0
  0
LINE
  8
0
  10
48.49114
  20
4.63202
  30
0
  11
47.96277
  21
3.22033
  31
0
  0
LINE
  8
0
  10
45.6292
  20
5.80696
  30
0
  11
45.01323
  21
4.43122
  31
0
  0
LINE
  8
0
  10
42.84668
  20
7.15927
  30
0
  11
42.14554
  21
5.82493
  31
0
  0
LINE
  8
0
  10
40.15457
  20
8.68364
  30
0
  11
39.37103
  21
7.39595
  31
0
  0
LINE
  8
0
  10
37.56349
  20
10.37403
  30
0
  11
36.70064
  21
9.13809
  31
0
  0
LINE
  8
0
  10
35.08365
  20
12.22379
  30
0
  11
34.1449
  21
11.04446
  31
0
  0
LINE
  8
0
  10
32.72486
  20
14.22561
  30
0
  11
31.71391
  21
13.10755
  31
0
  0
LINE
  8
0
  10
30.49642
  20
16.37158
  30
0
  11
29.41727
  21
15.31921
  31
0
  0
LINE
  8
0
  10
28.40713
  20
18.65325
  30
0
  11
27.26402
  21
17.67072
  31
0
  0
LINE
  8
0
  10
26.46522
  20
21.0616
  30
0
  11
25.26267
  21
20.15278
  31
0
  0
LINE
  8
0
  10
24.67836
  20
23.58713
  30
0
  11
23.42113
  21
22.75562
  31
0
  0
LINE
  8
0
  10
23.05362
  20
26.21988
  30
0
  11
21.74665
  21
25.46895
  31
0
  0
LINE
  8
0
  10
21.59739
  20
28.94945
  30
0
  11
20.24585
  21
28.28206
  31
0
  0
LINE
  8
0
  10
20.31542
  20
31.76507
  30
0
  11
18.92464
  21
31.18387
  31
0
  0
LINE
  8
0
  10
19.21278
  20
34.65563
  30
0
  11
17.78825
  21
34.1629
  31
0
  0
LINE
  8
0
  10
18.29381
  20
37.60972
  30
0
  11
16.84116
  21
37.20741
  31
0
  0
LINE
  8
0
  10
17.56215
  20
40.61569
  30
0
  11
16.0871
  21
40.30539
  31
0
  0
LINE
  8
0
  10
17.02067
  20
43.66167
  30
0
  11
15.52905
  21
43.44459
  31
0
  0
LINE
  8
0
  10
16.67153
  20
46.73563
  30
0
  11
15.16922
  21
46.61265
  31
0
  0
LINE
  8
0
  10
115.75367
  20
50.75367
  30
0
  11
115.75367
  21
50.75367
  31
0
  0
LINE
  8
0
  10
115.75367
  20
50.75367
  30
0
  11
115.655
  21
53.89319
  31
0
  0
LINE
  8
0
  10
115.655
  20
53.89319
  30
0
  11
115.3594
  21
57.02033
  31
0
  0
LINE
  8
0
  10
115.3594
  20
57.02033
  30
0
  11
114.86803
  21
60.12273
  31
0
  0
LINE
  8
0
  10
114.86803
  20
60.12273
  30
0
  11
114.18283
  21
63.18816
  31
0
  0
LINE
  8
0
  10
114.18283
  20
63.18816
  30
0
  11
113.30649
  21
66.20452
  31
0
  0
LINE
  8
0
  10
113.30649
  20
66.20452
  30
0
  11
112.24249
  21
69.1599
  31
0
  0
LINE
  8
0
  10
112.24249
  20
69.1599
  30
0
  11
110.99502
  21
72.04263
  31
0
  0
LINE
  8
0
  10
110.99502
  20
72.04263
  30
0
  11
109.569
  21
74.84135
  31
0
  0
LINE
  8
0
  10
109.569
  20
74.84135
  30
0
  11
107.97006
  21
77.54501
  31
0
  0
LINE
  8
0
  10
107.97006
  20
77.54501
  30
0
  11
106.20452
  21
80.14293
  31
0
  0
LINE
  8
0
  10
106.20452
  20
80.14293
  30
0
  11
104.27933
  21
82.62487
  31
0
  0
LINE
  8
0
  10
104.27933
  20
82.62487
  30
0
  11
102.2021
  21
84.98102
  31
0
  0
LINE
  8
0
  10
102.2021
  20
84.98102
  30
0
  11
99.98102
  21
87.2021
  31
0
  0
LINE
  8
0
  10
99.98102
  20
87.2021
  30
0
  11
97.62487
  21
89.27933
  31
0
  0
LINE
  8
0
  10
97.62487
  20
89.27933
  30
0
  11
95.14293
  21
91.20452
  31
0
  0
LINE
  8
0
  10
95.14293
  20
91.20452
  30
0
  11
92.54501
  21
92.97006
  31
0
  0
LINE
  8
0
  10
92.54501
  20
92.97006
  30
0
  11
89.84135
  21
94.569
  31
0
  0
LINE
  8
0
  10
89.84135
  20
94.569
  30
0
  11
87.04263
  21
95.99502
  31
0
  0
LINE
  8
0
  10
87.04263
  20
95.99502
  30
0
  11
84.1599
  21
97.24249
  31
0
  0
LINE
  8
0
  10
84.1599
  20
97.24249
  30
0
  11
81.20452
  21
98.30649
  31
0
  0
LINE
  8
0
  10
81.20452
  20
98.30649
  30
0
  11
78.18816
  21
99.18283
  31
0
  0
LINE
  8
0
  10
78.18816
  20
99.18283
  30
0
  11
75.12273
  21
99.86803
  31
0
  0
LINE
  8
0
  10
75.12273
  20
99.86803
  30
0
  11
72.02033
  21
100.3594
  31
0
  0
LINE
  8
0
  10
72.02033
  20
100.3594
  30
0
  11
68.89319
  21
100.655
  31
0
  0
LINE
  8
0
  10
68.89319
  20
100.655
  30
0
  11
65.75367
  21
100.75367
  31
0
  0
LINE
  8
0
  10
65.75367
  20
100.75367
  30
0
  11
62.61414
  21
100.655
  31
0
  0
LINE
  8
0
  10
62.61414
  20
100.655
  30
0
  11
59.48701
  21
100.3594
  31
0
  0
LINE
  8
0
  10
59.48701
  20
100.3594
  30
0
  11
56.3846
  21
99.86803
  31
0
  0
LINE
  8
0
  10
56.3846
  20
99.86803
  30
0
  11
53.31917
  21
99.18283
  31
0
  0
LINE
  8
0
  10
53.31917
  20
99.18283
  30
0
  11
50.30282
  21
98.30649
  31
0
  0
LINE
  8
0
  10
50.30282
  20
98.30649
  30
0
  11
47.34744
  21
97.24249
  31
0
  0
LINE
  8
0
  10
47.34744
  20
97.24249
  30
0
  11
44.4647
  21
95.99502
  31
0
  0
LINE
  8
0
  10
44.4647
  20
95.99502
  30
0
  11
41.66598
  21
94.569
  31
0
  0
LINE
  8
0
  10
41.66598
  20
94.569
  30
0
  11
38.96233
  21
92.97006
  31
0
  0
LINE
  8
0
  10
38.96233
  20
92.97006
  30
0
  11
36.36441
  21
91.20452
  31
0
  0
LINE
  8
0
  10
36.36441
  20
91.20452
  30
0
  11
33.88247
  21
89.27933
  31
0
  0
LINE
  8
0
  10
33.88247
  20
89.27933
  30
0
  11
31.52631
  21
87.2021
  31
0
  0
LINE
  8
0
  10
31.52631
  20
87.2021
  30
0
  11
29.30524
  21
84.98102
  31
0
  0
LINE
  8
0
  10
29.30524
  20
84.98102
  30
0
  11
27.22801
  21
82.62487
  31
0
  0
LINE
  8
0
  10
27.22801
  20
82.62487
  30
0
  11
25.30282
  21
80.14293
  31
0
  0
LINE
  8
0
  10
25.30282
  20
80.14293
  30
0
  11
23.53727
  21
77.54501
  31
0
  0
LINE
  8
0
  10
23.53727
  20
77.54501
  30
0
  11
21.93833
  21
74.84135
  31
0
  0
LINE
  8
0
  10
21.93833
  20
74.84135
  30
0
  11
20.51232
  21
72.04263
  31
0
  0
LINE
  8
0
  10
20.51232
  20
72.04263
  30
0
  11
19.26484
  21
69.1599
  31
0
  0
LINE
  8
0
  10
19.26484
  20
69.1599
  30
0
  11
18.20084
  21
66.20452
  31
0
  0
LINE
  8
0
  10
18.20084
  20
66.20452
  30
0
  11
17.32451
  21
63.18816
  31
0
  0
LINE
  8
0
  10
17.32451
  20
63.18816
  30
0
  11
16.63931
  21
60.12273
  31
0
  0
LINE
  8
0
  10
16.63931
  20
60.12273
  30
0
  11
16.14793
  21
57.02033
  31
0
  0
LINE
  8
0
  10
16.14793
  20
57.02033
  30
0
  11
15.85233
  21
53.89319
  31
0
  0
LINE
  8
0
  10
15.85233
  20
53.89319
  30
0
  11
15.75367
  21
50.75367
  31
0
  0
LINE
  8
0
  10
15.75367
  20
50.75367
  30
0
  11
15.85233
  21
47.61414
  31
0
  0
LINE
  8
0
  10
15.85233
  20
47.61414
  30
0
  11
16.14793
  21
44.48701
  31
0
  0
LINE
  8
0
  10
16.14793
  20
44.48701
  30
0
  11
16.63931
  21
41.3846
  31
0
  0
LINE
  8
0
  10
16.63931
  20
41.3846
  30
0
  11
17.32451
  21
38.31917
  31
0
  0
LINE
  8
0
  10
17.32451
  20
38.31917
  30
0
  11
18.20084
  21
35.30282
  31
0
  0
LINE
  8
0
  10
18.20084
  20
35.30282
  30
0
  11
19.26484
  21
32.34744
  31
0
  0
LINE
  8
0
  10
19.26484
  20
32.34744
  30
0
  11
20.51232
  21
29.4647
  31
0
  0
LINE
  8
0
  10
20.51232
  20
29.4647
  30
0
  11
21.93833
  21
26.66598
  31
0
  0
LINE
  8
0
  10
21.93833
  20
26.66598
  30
0
  11
23.53727
  21
23.96233
  31
0
  0
LINE
  8
0
  10
23.53727
  20
23.96233
  30
0
  11
25.30282
  21
21.36441
  31
0
  0
LINE
  8
0
  10
25.30282
  20
21.36441
  30
0
  11
27.22801
  21
18.88247
  31
0
  0
LINE
  8
0
  10
27.22801
  20
18.88247
  30
0
  11
29.30524
  21
16.52631
  31
0
  0
LINE
  8
0
  10
29.30524
  20
16.52631
  30
0
  11
31.52631
  21
14.30524
  31
0
  0
LINE
  8
0
  10
31.52631
  20
14.30524
  30
0
  11
33.88247
  21
12.22801
  31
0
  0
LINE
  8
0
  10
33.88247
  20
12.22801
  30
0
  11
36.36441
  21
10.30282
  31
0
  0
LINE
  8
0
  10
36.36441
  20
10.30282
  30
0
  11
38.96233
  21
8.53727
  31
0
  0
LINE
  8
0
  10
38.96233
  20
8.53727
  30
0
  11
41.66598
  21
6.93833
  31
0
  0
LINE
  8
0
  10
41.66598
  20
6.93833
  30
0
  11
44.4647
  21
5.51232
  31
0
  0
LINE
  8
0
  10
44.4647
  20
5.51232
  30
0
  11
47.34744
  21
4.26484
  31
0
  0
LINE
  8
0
  10
47.34744
  20
4.26484
  30
0
  11
50.30282
  21
3.20084
  31
0
  0
LINE
  8
0
  10
50.30282
  20
3.20084
  30
0
  11
53.31917
  21
2.32451
  31
0
  0
LINE
  8
0
  10
53.31917
  20
2.32451
  30
0
  11
56.3846
  21
1.63931
  31
0
  0
LINE
  8
0
  10
56.3846
  20
1.63931
  30
0
  11
59.48701
  21
1.14793
  31
0
  0
LINE
  8
0
  10
59.48701
  20
1.14793
  30
0
  11
62.61414
  21
0.85233
  31
0
  0
LINE
  8
0
  10
62.61414
  20
0.85233
  30
0
  11
65.75367
  21
0.75367
  31
0
  0
LINE
  8
0
  10
65.75367
  20
0.75367
  30
0
  11
68.89319
  21
0.85233
  31
0
  0
LINE
  8
0
  10
68.89319
  20
0.85233
  30
0
  11
72.02033
  21
1.14793
  31
0
  0
LINE
  8
0
  10
72.02033
  20
1.14793
  30
0
  11
75.12273
  21
1.63931
  31
0
  0
LINE
  8
0
  10
75.12273
  20
1.63931
  30
0
  11
78.18816
  21
2.32451
  31
0
  0
LINE
  8
0
  10
78.18816
  20
2.32451
  30
0
  11
81.20452
  21
3.20084
  31
0
  0
LINE
  8
0
  10
81.20452
  20
3.20084
  30
0
  11
84.1599
  21
4.26484
  31
0
  0
LINE
  8
0
  10
84.1599
  20
4.26484
  30
0
  11
87.04263
  21
5.51232
  31
0
  0
LINE
  8
0
  10
87.04263
  20
5.51232
  30
0
  11
89.84135
  21
6.93833
  31
0
  0
LINE
  8
0
  10
89.84135
  20
6.93833
  30
0
  11
92.54501
  21
8.53727
  31
0
  0
LINE
  8
0
  10
92.54501
  20
8.53727
  30
0
  11
95.14293
  21
10.30282
  31
0
  0
LINE
  8
0
  10
95.14293
  20
10.30282
  30
0
  11
97.62487
  21
12.22801
  31
0
  0
LINE
  8
0
  10
97.62487
  20
12.22801
  30
0
  11
99.98102
  21
14.30524
  31
0
  0
LINE
  8
0
  10
99.98102
  20
14.30524
  30
0
  11
102.2021
  21
16.52631
  31
0
  0
LINE
  8
0
  10
102.2021
  20
16.52631
  30
0
  11
104.27933
  21
18.88247
  31
0
  0
LINE
  8
0
  10
104.27933
  20
18.88247
  30
0
  11
106.20452
  21
21.36441
  31
0
  0
LINE
  8
0
  10
106.20452
  20
21.36441
  30
0
  11
107.97006
  21
23.96233
  31
0
  0
LINE
  8
0
  10
107.97006
  20
23.96233
  30
0
  11
109.569
  21
26.66598
  31
0
  0
LINE
  8
0
  10
109.569
  20
26.66598
  30
0
  11
110.99502
  21
29.4647
  31
0
  0
LINE
  8
0
  10
110.99502
  20
29.4647
  30
0
  11
112.24249
  21
32.34744
  31
0
  0
LINE
  8
0
  10
112.24249
  20
32.34744
  30
0
  11
113.30649
  21
35.30282
  31
0
  0
LINE
  8
0
  10
113.30649
  20
35.30282
  30
0
  11
114.18283
  21
38.31917
  31
0
  0
LINE
  8
0
  10
114.18283
  20
38.31917
  30
0
  11
114.86803
  21
41.3846
  31
0
  0
LINE
  8
0
  10
114.86803
  20
41.3846
  30
0
  11
115.3594
  21
44.48701
  31
0
  0
LINE
  8
0
  10
115.3594
  20
44.48701
  30
0
  11
115.655
  21
47.61414
  31
0
  0
LINE
  8
0
  10
115.655
  20
47.61414
  30
0
  11
115.75367
  21
50.75367
  31
0
  0
LINE
  8
0
  10
115.75367
  20
50.75367
  30
0
  11
115.75367
  21
50.75367
  31
0
  0
LINE
  8
0
  10
48.83578
  20
50.75367
  30
0
  11
82.67156
  21
50.75367
  31
0
  0
LINE
  8
0
  10
65.75367
  20
33.83578
  30
0
  11
65.75367
  21
67.67156
  31
0
  0
ENDSEC
  0
EOF
