  999
file created by gear template generator
  0
SECTION
  2
HEADER
  9
$ACADVER
  1
AC1006
  9
$INSBASE
  10
0.0
  20
0.0
  30
0.0
  9
$EXTMIN
  10
0.0
  20
0.0
  9
$EXTMAX
  10
10000.0
  20
10000.0
  0
ENDSEC
  0
SECTION
  2
ENTITIES
  0
LINE
  8
0
  10
29.92693
  20
49.3126
  30
0
  11
29.92693
  21
49.3126
  31
0
  0
LINE
  8
0
  10
29.92693
  20
49.3126
  30
0
  11
29.96382
  21
49.30294
  31
0
  0
LINE
  8
0
  10
29.96382
  20
49.30294
  30
0
  11
30.00065
  21
49.29266
  31
0
  0
LINE
  8
0
  10
30.00065
  20
49.29266
  30
0
  11
30.03741
  21
49.28178
  31
0
  0
LINE
  8
0
  10
30.03741
  20
49.28178
  30
0
  11
30.11077
  21
49.25843
  31
0
  0
LINE
  8
0
  10
30.11077
  20
49.25843
  30
0
  11
30.18389
  21
49.23314
  31
0
  0
LINE
  8
0
  10
30.18389
  20
49.23314
  30
0
  11
30.25681
  21
49.20605
  31
0
  0
LINE
  8
0
  10
30.25681
  20
49.20605
  30
0
  11
30.40204
  21
49.147
  31
0
  0
LINE
  8
0
  10
30.40204
  20
49.147
  30
0
  11
30.54646
  21
49.08199
  31
0
  0
LINE
  8
0
  10
30.54646
  20
49.08199
  30
0
  11
30.69009
  21
49.01149
  31
0
  0
LINE
  8
0
  10
30.69009
  20
49.01149
  30
0
  11
30.83291
  21
48.93586
  31
0
  0
LINE
  8
0
  10
30.83291
  20
48.93586
  30
0
  11
30.9749
  21
48.85536
  31
0
  0
LINE
  8
0
  10
30.9749
  20
48.85536
  30
0
  11
31.11604
  21
48.7702
  31
0
  0
LINE
  8
0
  10
31.11604
  20
48.7702
  30
0
  11
31.25629
  21
48.68056
  31
0
  0
LINE
  8
0
  10
31.25629
  20
48.68056
  30
0
  11
31.36087
  21
48.61048
  31
0
  0
LINE
  8
0
  10
31.36087
  20
48.61048
  30
0
  11
31.19756
  21
47.64495
  31
0
  0
LINE
  8
0
  10
31.19756
  20
47.64495
  30
0
  11
31.07575
  21
47.61316
  31
0
  0
LINE
  8
0
  10
31.07575
  20
47.61316
  30
0
  11
30.91382
  21
47.57464
  31
0
  0
LINE
  8
0
  10
30.91382
  20
47.57464
  30
0
  11
30.75253
  21
47.54063
  31
0
  0
LINE
  8
0
  10
30.75253
  20
47.54063
  30
0
  11
30.59197
  21
47.5113
  31
0
  0
LINE
  8
0
  10
30.59197
  20
47.5113
  30
0
  11
30.43222
  21
47.48685
  31
0
  0
LINE
  8
0
  10
30.43222
  20
47.48685
  30
0
  11
30.27339
  21
47.4675
  31
0
  0
LINE
  8
0
  10
30.27339
  20
47.4675
  30
0
  11
30.11562
  21
47.4536
  31
0
  0
LINE
  8
0
  10
30.11562
  20
47.4536
  30
0
  11
29.95905
  21
47.4456
  31
0
  0
LINE
  8
0
  10
29.95905
  20
47.4456
  30
0
  11
29.88129
  21
47.444
  31
0
  0
LINE
  8
0
  10
29.88129
  20
47.444
  30
0
  11
29.8039
  21
47.44416
  31
0
  0
LINE
  8
0
  10
29.8039
  20
47.44416
  30
0
  11
29.72695
  21
47.44623
  31
0
  0
LINE
  8
0
  10
29.72695
  20
47.44623
  30
0
  11
29.68866
  21
47.44806
  31
0
  0
LINE
  8
0
  10
29.68866
  20
47.44806
  30
0
  11
29.6505
  21
47.45045
  31
0
  0
LINE
  8
0
  10
29.6505
  20
47.45045
  30
0
  11
29.61248
  21
47.45347
  31
0
  0
LINE
  8
0
  10
29.61248
  20
47.45347
  30
0
  11
29.31759
  21
46.3973
  31
0
  0
LINE
  8
0
  10
29.31759
  20
46.3973
  30
0
  11
29.35167
  21
46.38019
  31
0
  0
LINE
  8
0
  10
29.35167
  20
46.38019
  30
0
  11
29.38556
  21
46.36247
  31
0
  0
LINE
  8
0
  10
29.38556
  20
46.36247
  30
0
  11
29.41926
  21
46.34419
  31
0
  0
LINE
  8
0
  10
29.41926
  20
46.34419
  30
0
  11
29.48615
  21
46.3061
  31
0
  0
LINE
  8
0
  10
29.48615
  20
46.3061
  30
0
  11
29.55242
  21
46.26615
  31
0
  0
LINE
  8
0
  10
29.55242
  20
46.26615
  30
0
  11
29.61812
  21
46.2245
  31
0
  0
LINE
  8
0
  10
29.61812
  20
46.2245
  30
0
  11
29.74789
  21
46.13655
  31
0
  0
LINE
  8
0
  10
29.74789
  20
46.13655
  30
0
  11
29.87564
  21
46.04293
  31
0
  0
LINE
  8
0
  10
29.87564
  20
46.04293
  30
0
  11
30.00148
  21
45.94411
  31
0
  0
LINE
  8
0
  10
30.00148
  20
45.94411
  30
0
  11
30.12545
  21
45.84043
  31
0
  0
LINE
  8
0
  10
30.12545
  20
45.84043
  30
0
  11
30.2476
  21
45.73217
  31
0
  0
LINE
  8
0
  10
30.2476
  20
45.73217
  30
0
  11
30.36795
  21
45.61953
  31
0
  0
LINE
  8
0
  10
30.36795
  20
45.61953
  30
0
  11
30.48649
  21
45.50269
  31
0
  0
LINE
  8
0
  10
30.48649
  20
45.50269
  30
0
  11
30.57422
  21
45.4124
  31
0
  0
LINE
  8
0
  10
30.57422
  20
45.4124
  30
0
  11
30.21374
  21
44.50192
  31
0
  0
LINE
  8
0
  10
30.21374
  20
44.50192
  30
0
  11
30.08798
  21
44.49615
  31
0
  0
LINE
  8
0
  10
30.08798
  20
44.49615
  30
0
  11
29.92158
  21
44.49213
  31
0
  0
LINE
  8
0
  10
29.92158
  20
44.49213
  30
0
  11
29.75674
  21
44.4924
  31
0
  0
LINE
  8
0
  10
29.75674
  20
44.4924
  30
0
  11
29.59359
  21
44.4971
  31
0
  0
LINE
  8
0
  10
29.59359
  20
44.4971
  30
0
  11
29.43224
  21
44.50639
  31
0
  0
LINE
  8
0
  10
29.43224
  20
44.50639
  30
0
  11
29.27287
  21
44.52049
  31
0
  0
LINE
  8
0
  10
29.27287
  20
44.52049
  30
0
  11
29.11565
  21
44.5397
  31
0
  0
LINE
  8
0
  10
29.11565
  20
44.5397
  30
0
  11
28.96084
  21
44.56442
  31
0
  0
LINE
  8
0
  10
28.96084
  20
44.56442
  30
0
  11
28.88444
  21
44.57903
  31
0
  0
LINE
  8
0
  10
28.88444
  20
44.57903
  30
0
  11
28.80879
  21
44.59527
  31
0
  0
LINE
  8
0
  10
28.80879
  20
44.59527
  30
0
  11
28.73395
  21
44.6133
  31
0
  0
LINE
  8
0
  10
28.73395
  20
44.6133
  30
0
  11
28.69687
  21
44.62304
  31
0
  0
LINE
  8
0
  10
28.69687
  20
44.62304
  30
0
  11
28.66004
  21
44.63332
  31
0
  0
LINE
  8
0
  10
28.66004
  20
44.63332
  30
0
  11
28.62348
  21
44.64418
  31
0
  0
LINE
  8
0
  10
28.62348
  20
44.64418
  30
0
  11
28.11545
  21
43.6724
  31
0
  0
LINE
  8
0
  10
28.11545
  20
43.6724
  30
0
  11
28.14523
  21
43.64858
  31
0
  0
LINE
  8
0
  10
28.14523
  20
43.64858
  30
0
  11
28.17469
  21
43.6242
  31
0
  0
LINE
  8
0
  10
28.17469
  20
43.6242
  30
0
  11
28.20385
  21
43.59931
  31
0
  0
LINE
  8
0
  10
28.20385
  20
43.59931
  30
0
  11
28.26136
  21
43.54815
  31
0
  0
LINE
  8
0
  10
28.26136
  20
43.54815
  30
0
  11
28.31788
  21
43.49529
  31
0
  0
LINE
  8
0
  10
28.31788
  20
43.49529
  30
0
  11
28.37348
  21
43.44089
  31
0
  0
LINE
  8
0
  10
28.37348
  20
43.44089
  30
0
  11
28.48213
  21
43.32788
  31
0
  0
LINE
  8
0
  10
28.48213
  20
43.32788
  30
0
  11
28.58763
  21
43.20974
  31
0
  0
LINE
  8
0
  10
28.58763
  20
43.20974
  30
0
  11
28.69016
  21
43.08692
  31
0
  0
LINE
  8
0
  10
28.69016
  20
43.08692
  30
0
  11
28.78987
  21
42.95974
  31
0
  0
LINE
  8
0
  10
28.78987
  20
42.95974
  30
0
  11
28.88685
  21
42.82844
  31
0
  0
LINE
  8
0
  10
28.88685
  20
42.82844
  30
0
  11
28.98114
  21
42.69324
  31
0
  0
LINE
  8
0
  10
28.98114
  20
42.69324
  30
0
  11
29.07281
  21
42.55431
  31
0
  0
LINE
  8
0
  10
29.07281
  20
42.55431
  30
0
  11
29.13985
  21
42.44775
  31
0
  0
LINE
  8
0
  10
29.13985
  20
42.44775
  30
0
  11
28.59794
  21
41.63212
  31
0
  0
LINE
  8
0
  10
28.59794
  20
41.63212
  30
0
  11
28.47373
  21
41.65262
  31
0
  0
LINE
  8
0
  10
28.47373
  20
41.65262
  30
0
  11
28.31013
  21
41.68329
  31
0
  0
LINE
  8
0
  10
28.31013
  20
41.68329
  30
0
  11
28.14895
  21
41.71782
  31
0
  0
LINE
  8
0
  10
28.14895
  20
41.71782
  30
0
  11
27.99034
  21
41.75634
  31
0
  0
LINE
  8
0
  10
27.99034
  20
41.75634
  30
0
  11
27.83445
  21
41.79897
  31
0
  0
LINE
  8
0
  10
27.83445
  20
41.79897
  30
0
  11
27.68149
  21
41.8459
  31
0
  0
LINE
  8
0
  10
27.68149
  20
41.8459
  30
0
  11
27.53171
  21
41.89738
  31
0
  0
LINE
  8
0
  10
27.53171
  20
41.89738
  30
0
  11
27.38542
  21
41.95374
  31
0
  0
LINE
  8
0
  10
27.38542
  20
41.95374
  30
0
  11
27.31373
  21
41.98392
  31
0
  0
LINE
  8
0
  10
27.31373
  20
41.98392
  30
0
  11
27.2431
  21
42.01554
  31
0
  0
LINE
  8
0
  10
27.2431
  20
42.01554
  30
0
  11
27.17365
  21
42.04873
  31
0
  0
LINE
  8
0
  10
27.17365
  20
42.04873
  30
0
  11
27.1394
  21
42.06597
  31
0
  0
LINE
  8
0
  10
27.1394
  20
42.06597
  30
0
  11
27.10551
  21
42.08368
  31
0
  0
LINE
  8
0
  10
27.10551
  20
42.08368
  30
0
  11
27.07201
  21
42.1019
  31
0
  0
LINE
  8
0
  10
27.07201
  20
42.1019
  30
0
  11
26.37304
  21
41.25698
  31
0
  0
LINE
  8
0
  10
26.37304
  20
41.25698
  30
0
  11
26.39721
  21
41.22749
  31
0
  0
LINE
  8
0
  10
26.39721
  20
41.22749
  30
0
  11
26.42096
  21
41.19752
  31
0
  0
LINE
  8
0
  10
26.42096
  20
41.19752
  30
0
  11
26.44431
  21
41.16711
  31
0
  0
LINE
  8
0
  10
26.44431
  20
41.16711
  30
0
  11
26.48993
  21
41.10511
  31
0
  0
LINE
  8
0
  10
26.48993
  20
41.10511
  30
0
  11
26.53422
  21
41.04166
  31
0
  0
LINE
  8
0
  10
26.53422
  20
41.04166
  30
0
  11
26.57729
  21
40.97689
  31
0
  0
LINE
  8
0
  10
26.57729
  20
40.97689
  30
0
  11
26.66007
  21
40.84375
  31
0
  0
LINE
  8
0
  10
26.66007
  20
40.84375
  30
0
  11
26.7387
  21
40.70627
  31
0
  0
LINE
  8
0
  10
26.7387
  20
40.70627
  30
0
  11
26.81346
  21
40.56481
  31
0
  0
LINE
  8
0
  10
26.81346
  20
40.56481
  30
0
  11
26.88455
  21
40.41967
  31
0
  0
LINE
  8
0
  10
26.88455
  20
40.41967
  30
0
  11
26.95211
  21
40.27109
  31
0
  0
LINE
  8
0
  10
26.95211
  20
40.27109
  30
0
  11
27.01623
  21
40.11924
  31
0
  0
LINE
  8
0
  10
27.01623
  20
40.11924
  30
0
  11
27.07701
  21
39.96428
  31
0
  0
LINE
  8
0
  10
27.07701
  20
39.96428
  30
0
  11
27.12043
  21
39.84611
  31
0
  0
LINE
  8
0
  10
27.12043
  20
39.84611
  30
0
  11
26.42079
  21
39.16097
  31
0
  0
LINE
  8
0
  10
26.42079
  20
39.16097
  30
0
  11
26.30355
  21
39.20685
  31
0
  0
LINE
  8
0
  10
26.30355
  20
39.20685
  30
0
  11
26.1499
  21
39.27086
  31
0
  0
LINE
  8
0
  10
26.1499
  20
39.27086
  30
0
  11
25.99943
  21
39.33815
  31
0
  0
LINE
  8
0
  10
25.99943
  20
39.33815
  30
0
  11
25.85229
  21
39.40881
  31
0
  0
LINE
  8
0
  10
25.85229
  20
39.40881
  30
0
  11
25.70867
  21
39.48292
  31
0
  0
LINE
  8
0
  10
25.70867
  20
39.48292
  30
0
  11
25.56881
  21
39.56063
  31
0
  0
LINE
  8
0
  10
25.56881
  20
39.56063
  30
0
  11
25.433
  21
39.64212
  31
0
  0
LINE
  8
0
  10
25.433
  20
39.64212
  30
0
  11
25.30163
  21
39.72767
  31
0
  0
LINE
  8
0
  10
25.30163
  20
39.72767
  30
0
  11
25.23778
  21
39.77209
  31
0
  0
LINE
  8
0
  10
25.23778
  20
39.77209
  30
0
  11
25.17527
  21
39.8177
  31
0
  0
LINE
  8
0
  10
25.17527
  20
39.8177
  30
0
  11
25.11423
  21
39.86461
  31
0
  0
LINE
  8
0
  10
25.11423
  20
39.86461
  30
0
  11
25.08432
  21
39.88859
  31
0
  0
LINE
  8
0
  10
25.08432
  20
39.88859
  30
0
  11
25.05486
  21
39.91296
  31
0
  0
LINE
  8
0
  10
25.05486
  20
39.91296
  30
0
  11
25.02587
  21
39.93775
  31
0
  0
LINE
  8
0
  10
25.02587
  20
39.93775
  30
0
  11
24.16651
  21
39.25662
  31
0
  0
LINE
  8
0
  10
24.16651
  20
39.25662
  30
0
  11
24.18402
  21
39.22274
  31
0
  0
LINE
  8
0
  10
24.18402
  20
39.22274
  30
0
  11
24.20102
  21
39.18849
  31
0
  0
LINE
  8
0
  10
24.20102
  20
39.18849
  30
0
  11
24.21754
  21
39.15389
  31
0
  0
LINE
  8
0
  10
24.21754
  20
39.15389
  30
0
  11
24.24927
  21
39.08376
  31
0
  0
LINE
  8
0
  10
24.24927
  20
39.08376
  30
0
  11
24.2794
  21
39.01249
  31
0
  0
LINE
  8
0
  10
24.2794
  20
39.01249
  30
0
  11
24.30807
  21
38.94018
  31
0
  0
LINE
  8
0
  10
24.30807
  20
38.94018
  30
0
  11
24.36136
  21
38.79274
  31
0
  0
LINE
  8
0
  10
24.36136
  20
38.79274
  30
0
  11
24.40968
  21
38.64191
  31
0
  0
LINE
  8
0
  10
24.40968
  20
38.64191
  30
0
  11
24.4534
  21
38.488
  31
0
  0
LINE
  8
0
  10
24.4534
  20
38.488
  30
0
  11
24.49276
  21
38.33126
  31
0
  0
LINE
  8
0
  10
24.49276
  20
38.33126
  30
0
  11
24.52794
  21
38.17187
  31
0
  0
LINE
  8
0
  10
24.52794
  20
38.17187
  30
0
  11
24.5591
  21
38.01001
  31
0
  0
LINE
  8
0
  10
24.5591
  20
38.01001
  30
0
  11
24.58633
  21
37.8458
  31
0
  0
LINE
  8
0
  10
24.58633
  20
37.8458
  30
0
  11
24.60423
  21
37.72118
  31
0
  0
LINE
  8
0
  10
24.60423
  20
37.72118
  30
0
  11
23.77743
  21
37.19648
  31
0
  0
LINE
  8
0
  10
23.77743
  20
37.19648
  30
0
  11
23.67229
  21
37.26574
  31
0
  0
LINE
  8
0
  10
23.67229
  20
37.26574
  30
0
  11
23.53531
  21
37.36029
  31
0
  0
LINE
  8
0
  10
23.53531
  20
37.36029
  30
0
  11
23.40211
  21
37.4574
  31
0
  0
LINE
  8
0
  10
23.40211
  20
37.4574
  30
0
  11
23.27288
  21
37.5571
  31
0
  0
LINE
  8
0
  10
23.27288
  20
37.5571
  30
0
  11
23.14781
  21
37.65945
  31
0
  0
LINE
  8
0
  10
23.14781
  20
37.65945
  30
0
  11
23.02716
  21
37.76454
  31
0
  0
LINE
  8
0
  10
23.02716
  20
37.76454
  30
0
  11
22.91126
  21
37.87248
  31
0
  0
LINE
  8
0
  10
22.91126
  20
37.87248
  30
0
  11
22.80055
  21
37.98348
  31
0
  0
LINE
  8
0
  10
22.80055
  20
37.98348
  30
0
  11
22.74733
  21
38.0402
  31
0
  0
LINE
  8
0
  10
22.74733
  20
38.0402
  30
0
  11
22.69567
  21
38.09782
  31
0
  0
LINE
  8
0
  10
22.69567
  20
38.09782
  30
0
  11
22.64572
  21
38.15639
  31
0
  0
LINE
  8
0
  10
22.64572
  20
38.15639
  30
0
  11
22.62145
  21
38.18607
  31
0
  0
LINE
  8
0
  10
22.62145
  20
38.18607
  30
0
  11
22.59769
  21
38.21603
  31
0
  0
LINE
  8
0
  10
22.59769
  20
38.21603
  30
0
  11
22.5745
  21
38.2463
  31
0
  0
LINE
  8
0
  10
22.5745
  20
38.2463
  30
0
  11
21.59229
  21
37.75873
  31
0
  0
LINE
  8
0
  10
21.59229
  20
37.75873
  30
0
  11
21.60238
  21
37.72195
  31
0
  0
LINE
  8
0
  10
21.60238
  20
37.72195
  30
0
  11
21.61188
  21
37.68491
  31
0
  0
LINE
  8
0
  10
21.61188
  20
37.68491
  30
0
  11
21.62085
  21
37.64764
  31
0
  0
LINE
  8
0
  10
21.62085
  20
37.64764
  30
0
  11
21.63731
  21
37.57244
  31
0
  0
LINE
  8
0
  10
21.63731
  20
37.57244
  30
0
  11
21.65196
  21
37.49646
  31
0
  0
LINE
  8
0
  10
21.65196
  20
37.49646
  30
0
  11
21.66497
  21
37.41977
  31
0
  0
LINE
  8
0
  10
21.66497
  20
37.41977
  30
0
  11
21.68644
  21
37.26448
  31
0
  0
LINE
  8
0
  10
21.68644
  20
37.26448
  30
0
  11
21.70235
  21
37.10689
  31
0
  0
LINE
  8
0
  10
21.70235
  20
37.10689
  30
0
  11
21.71311
  21
36.94726
  31
0
  0
LINE
  8
0
  10
21.71311
  20
36.94726
  30
0
  11
21.71902
  21
36.78576
  31
0
  0
LINE
  8
0
  10
21.71902
  20
36.78576
  30
0
  11
21.7203
  21
36.62254
  31
0
  0
LINE
  8
0
  10
21.7203
  20
36.62254
  30
0
  11
21.71712
  21
36.45773
  31
0
  0
LINE
  8
0
  10
21.71712
  20
36.45773
  30
0
  11
21.70962
  21
36.29146
  31
0
  0
LINE
  8
0
  10
21.70962
  20
36.29146
  30
0
  11
21.70122
  21
36.16584
  31
0
  0
LINE
  8
0
  10
21.70122
  20
36.16584
  30
0
  11
20.78339
  21
35.8245
  31
0
  0
LINE
  8
0
  10
20.78339
  20
35.8245
  30
0
  11
20.69495
  21
35.9141
  31
0
  0
LINE
  8
0
  10
20.69495
  20
35.9141
  30
0
  11
20.58062
  21
36.03507
  31
0
  0
LINE
  8
0
  10
20.58062
  20
36.03507
  30
0
  11
20.47053
  21
36.15775
  31
0
  0
LINE
  8
0
  10
20.47053
  20
36.15775
  30
0
  11
20.36485
  21
36.28214
  31
0
  0
LINE
  8
0
  10
20.36485
  20
36.28214
  30
0
  11
20.26379
  21
36.40826
  31
0
  0
LINE
  8
0
  10
20.26379
  20
36.40826
  30
0
  11
20.16763
  21
36.53614
  31
0
  0
LINE
  8
0
  10
20.16763
  20
36.53614
  30
0
  11
20.0767
  21
36.66582
  31
0
  0
LINE
  8
0
  10
20.0767
  20
36.66582
  30
0
  11
19.99149
  21
36.79741
  31
0
  0
LINE
  8
0
  10
19.99149
  20
36.79741
  30
0
  11
19.95122
  21
36.86396
  31
0
  0
LINE
  8
0
  10
19.95122
  20
36.86396
  30
0
  11
19.91267
  21
36.93105
  31
0
  0
LINE
  8
0
  10
19.91267
  20
36.93105
  30
0
  11
19.87599
  21
36.99873
  31
0
  0
LINE
  8
0
  10
19.87599
  20
36.99873
  30
0
  11
19.85842
  21
37.03281
  31
0
  0
LINE
  8
0
  10
19.85842
  20
37.03281
  30
0
  11
19.84141
  21
37.06705
  31
0
  0
LINE
  8
0
  10
19.84141
  20
37.06705
  30
0
  11
19.82502
  21
37.10149
  31
0
  0
LINE
  8
0
  10
19.82502
  20
37.10149
  30
0
  11
18.76291
  21
36.82878
  31
0
  0
LINE
  8
0
  10
18.76291
  20
36.82878
  30
0
  11
18.76513
  21
36.79071
  31
0
  0
LINE
  8
0
  10
18.76513
  20
36.79071
  30
0
  11
18.76672
  21
36.75251
  31
0
  0
LINE
  8
0
  10
18.76672
  20
36.75251
  30
0
  11
18.76774
  21
36.71418
  31
0
  0
LINE
  8
0
  10
18.76774
  20
36.71418
  30
0
  11
18.7682
  21
36.6372
  31
0
  0
LINE
  8
0
  10
18.7682
  20
36.6372
  30
0
  11
18.76674
  21
36.55984
  31
0
  0
LINE
  8
0
  10
18.76674
  20
36.55984
  30
0
  11
18.76352
  21
36.48212
  31
0
  0
LINE
  8
0
  10
18.76352
  20
36.48212
  30
0
  11
18.75223
  21
36.32576
  31
0
  0
LINE
  8
0
  10
18.75223
  20
36.32576
  30
0
  11
18.73503
  21
36.16831
  31
0
  0
LINE
  8
0
  10
18.73503
  20
36.16831
  30
0
  11
18.71237
  21
36.00992
  31
0
  0
LINE
  8
0
  10
18.71237
  20
36.00992
  30
0
  11
18.68457
  21
35.85072
  31
0
  0
LINE
  8
0
  10
18.68457
  20
35.85072
  30
0
  11
18.65189
  21
35.6908
  31
0
  0
LINE
  8
0
  10
18.65189
  20
35.6908
  30
0
  11
18.61451
  21
35.53026
  31
0
  0
LINE
  8
0
  10
18.61451
  20
35.53026
  30
0
  11
18.5726
  21
35.36918
  31
0
  0
LINE
  8
0
  10
18.5726
  20
35.36918
  30
0
  11
18.53827
  21
35.24805
  31
0
  0
LINE
  8
0
  10
18.53827
  20
35.24805
  30
0
  11
17.56953
  21
35.105
  31
0
  0
LINE
  8
0
  10
17.56953
  20
35.105
  30
0
  11
17.50166
  21
35.21103
  31
0
  0
LINE
  8
0
  10
17.50166
  20
35.21103
  30
0
  11
17.41497
  21
35.35313
  31
0
  0
LINE
  8
0
  10
17.41497
  20
35.35313
  30
0
  11
17.33279
  21
35.49602
  31
0
  0
LINE
  8
0
  10
17.33279
  20
35.49602
  30
0
  11
17.25528
  21
35.63966
  31
0
  0
LINE
  8
0
  10
17.25528
  20
35.63966
  30
0
  11
17.18266
  21
35.78403
  31
0
  0
LINE
  8
0
  10
17.18266
  20
35.78403
  30
0
  11
17.11518
  21
35.92911
  31
0
  0
LINE
  8
0
  10
17.11518
  20
35.92911
  30
0
  11
17.05321
  21
36.07486
  31
0
  0
LINE
  8
0
  10
17.05321
  20
36.07486
  30
0
  11
16.99721
  21
36.22129
  31
0
  0
LINE
  8
0
  10
16.99721
  20
36.22129
  30
0
  11
16.97166
  21
36.29476
  31
0
  0
LINE
  8
0
  10
16.97166
  20
36.29476
  30
0
  11
16.9479
  21
36.36841
  31
0
  0
LINE
  8
0
  10
16.9479
  20
36.36841
  30
0
  11
16.9261
  21
36.44223
  31
0
  0
LINE
  8
0
  10
16.9261
  20
36.44223
  30
0
  11
16.91599
  21
36.47921
  31
0
  0
LINE
  8
0
  10
16.91599
  20
36.47921
  30
0
  11
16.90648
  21
36.51625
  31
0
  0
LINE
  8
0
  10
16.90648
  20
36.51625
  30
0
  11
16.8976
  21
36.55334
  31
0
  0
LINE
  8
0
  10
16.8976
  20
36.55334
  30
0
  11
15.802
  21
36.50742
  31
0
  0
LINE
  8
0
  10
15.802
  20
36.50742
  30
0
  11
15.79626
  21
36.46972
  31
0
  0
LINE
  8
0
  10
15.79626
  20
36.46972
  30
0
  11
15.78987
  21
36.43202
  31
0
  0
LINE
  8
0
  10
15.78987
  20
36.43202
  30
0
  11
15.7829
  21
36.39432
  31
0
  0
LINE
  8
0
  10
15.7829
  20
36.39432
  30
0
  11
15.76735
  21
36.31893
  31
0
  0
LINE
  8
0
  10
15.76735
  20
36.31893
  30
0
  11
15.74984
  21
36.24355
  31
0
  0
LINE
  8
0
  10
15.74984
  20
36.24355
  30
0
  11
15.73052
  21
36.1682
  31
0
  0
LINE
  8
0
  10
15.73052
  20
36.1682
  30
0
  11
15.68698
  21
36.0176
  31
0
  0
LINE
  8
0
  10
15.68698
  20
36.0176
  30
0
  11
15.63742
  21
35.86717
  31
0
  0
LINE
  8
0
  10
15.63742
  20
35.86717
  30
0
  11
15.58232
  21
35.71696
  31
0
  0
LINE
  8
0
  10
15.58232
  20
35.71696
  30
0
  11
15.52203
  21
35.56702
  31
0
  0
LINE
  8
0
  10
15.52203
  20
35.56702
  30
0
  11
15.45681
  21
35.41739
  31
0
  0
LINE
  8
0
  10
15.45681
  20
35.41739
  30
0
  11
15.38687
  21
35.26813
  31
0
  0
LINE
  8
0
  10
15.38687
  20
35.26813
  30
0
  11
15.31239
  21
35.11928
  31
0
  0
LINE
  8
0
  10
15.31239
  20
35.11928
  30
0
  11
15.25362
  21
35.00794
  31
0
  0
LINE
  8
0
  10
15.25362
  20
35.00794
  30
0
  11
14.27631
  21
35.06943
  31
0
  0
LINE
  8
0
  10
14.27631
  20
35.06943
  30
0
  11
14.23196
  21
35.18725
  31
0
  0
LINE
  8
0
  10
14.23196
  20
35.18725
  30
0
  11
14.17672
  21
35.34426
  31
0
  0
LINE
  8
0
  10
14.17672
  20
35.34426
  30
0
  11
14.12604
  21
35.50112
  31
0
  0
LINE
  8
0
  10
14.12604
  20
35.50112
  30
0
  11
14.08009
  21
35.65774
  31
0
  0
LINE
  8
0
  10
14.08009
  20
35.65774
  30
0
  11
14.03907
  21
35.81405
  31
0
  0
LINE
  8
0
  10
14.03907
  20
35.81405
  30
0
  11
14.00323
  21
35.96999
  31
0
  0
LINE
  8
0
  10
14.00323
  20
35.96999
  30
0
  11
13.97291
  21
36.12544
  31
0
  0
LINE
  8
0
  10
13.97291
  20
36.12544
  30
0
  11
13.94859
  21
36.28031
  31
0
  0
LINE
  8
0
  10
13.94859
  20
36.28031
  30
0
  11
13.93887
  21
36.35749
  31
0
  0
LINE
  8
0
  10
13.93887
  20
36.35749
  30
0
  11
13.93094
  21
36.43446
  31
0
  0
LINE
  8
0
  10
13.93094
  20
36.43446
  30
0
  11
13.92496
  21
36.51121
  31
0
  0
LINE
  8
0
  10
13.92496
  20
36.51121
  30
0
  11
13.92277
  21
36.54948
  31
0
  0
LINE
  8
0
  10
13.92277
  20
36.54948
  30
0
  11
13.92116
  21
36.58769
  31
0
  0
LINE
  8
0
  10
13.92116
  20
36.58769
  30
0
  11
13.92019
  21
36.62581
  31
0
  0
LINE
  8
0
  10
13.92019
  20
36.62581
  30
0
  11
12.83898
  21
36.80868
  31
0
  0
LINE
  8
0
  10
12.83898
  20
36.80868
  30
0
  11
12.82553
  21
36.773
  31
0
  0
LINE
  8
0
  10
12.82553
  20
36.773
  30
0
  11
12.81144
  21
36.73745
  31
0
  0
LINE
  8
0
  10
12.81144
  20
36.73745
  30
0
  11
12.79679
  21
36.70202
  31
0
  0
LINE
  8
0
  10
12.79679
  20
36.70202
  30
0
  11
12.7659
  21
36.63151
  31
0
  0
LINE
  8
0
  10
12.7659
  20
36.63151
  30
0
  11
12.7331
  21
36.56143
  31
0
  0
LINE
  8
0
  10
12.7331
  20
36.56143
  30
0
  11
12.69854
  21
36.49174
  31
0
  0
LINE
  8
0
  10
12.69854
  20
36.49174
  30
0
  11
12.62463
  21
36.35349
  31
0
  0
LINE
  8
0
  10
12.62463
  20
36.35349
  30
0
  11
12.54488
  21
36.21665
  31
0
  0
LINE
  8
0
  10
12.54488
  20
36.21665
  30
0
  11
12.45976
  21
36.08117
  31
0
  0
LINE
  8
0
  10
12.45976
  20
36.08117
  30
0
  11
12.36961
  21
35.94704
  31
0
  0
LINE
  8
0
  10
12.36961
  20
35.94704
  30
0
  11
12.27471
  21
35.81424
  31
0
  0
LINE
  8
0
  10
12.27471
  20
35.81424
  30
0
  11
12.17526
  21
35.68278
  31
0
  0
LINE
  8
0
  10
12.17526
  20
35.68278
  30
0
  11
12.07146
  21
35.55267
  31
0
  0
LINE
  8
0
  10
12.07146
  20
35.55267
  30
0
  11
11.99083
  21
35.45599
  31
0
  0
LINE
  8
0
  10
11.99083
  20
35.45599
  30
0
  11
11.04766
  21
35.71932
  31
0
  0
LINE
  8
0
  10
11.04766
  20
35.71932
  30
0
  11
11.02877
  21
35.8438
  31
0
  0
LINE
  8
0
  10
11.02877
  20
35.8438
  30
0
  11
11.00738
  21
36.00886
  31
0
  0
LINE
  8
0
  10
11.00738
  20
36.00886
  30
0
  11
10.99042
  21
36.17282
  31
0
  0
LINE
  8
0
  10
10.99042
  20
36.17282
  30
0
  11
10.97804
  21
36.33558
  31
0
  0
LINE
  8
0
  10
10.97804
  20
36.33558
  30
0
  11
10.97042
  21
36.49701
  31
0
  0
LINE
  8
0
  10
10.97042
  20
36.49701
  30
0
  11
10.96778
  21
36.65698
  31
0
  0
LINE
  8
0
  10
10.96778
  20
36.65698
  30
0
  11
10.97045
  21
36.81534
  31
0
  0
LINE
  8
0
  10
10.97045
  20
36.81534
  30
0
  11
10.97885
  21
36.97189
  31
0
  0
LINE
  8
0
  10
10.97885
  20
36.97189
  30
0
  11
10.98539
  21
37.0494
  31
0
  0
LINE
  8
0
  10
10.98539
  20
37.0494
  30
0
  11
10.99364
  21
37.12634
  31
0
  0
LINE
  8
0
  10
10.99364
  20
37.12634
  30
0
  11
11.00375
  21
37.20265
  31
0
  0
LINE
  8
0
  10
11.00375
  20
37.20265
  30
0
  11
11.00956
  21
37.24054
  31
0
  0
LINE
  8
0
  10
11.00956
  20
37.24054
  30
0
  11
11.01593
  21
37.27825
  31
0
  0
LINE
  8
0
  10
11.01593
  20
37.27825
  30
0
  11
11.02291
  21
37.31574
  31
0
  0
LINE
  8
0
  10
11.02291
  20
37.31574
  30
0
  11
10.00335
  21
37.71941
  31
0
  0
LINE
  8
0
  10
10.00335
  20
37.71941
  30
0
  11
9.98277
  21
37.68731
  31
0
  0
LINE
  8
0
  10
9.98277
  20
37.68731
  30
0
  11
9.9616
  21
37.65546
  31
0
  0
LINE
  8
0
  10
9.9616
  20
37.65546
  30
0
  11
9.9399
  21
37.62386
  31
0
  0
LINE
  8
0
  10
9.9399
  20
37.62386
  30
0
  11
9.89503
  21
37.56131
  31
0
  0
LINE
  8
0
  10
9.89503
  20
37.56131
  30
0
  11
9.84837
  21
37.49958
  31
0
  0
LINE
  8
0
  10
9.84837
  20
37.49958
  30
0
  11
9.80008
  21
37.4386
  31
0
  0
LINE
  8
0
  10
9.80008
  20
37.4386
  30
0
  11
9.69905
  21
37.31873
  31
0
  0
LINE
  8
0
  10
9.69905
  20
37.31873
  30
0
  11
9.59258
  21
37.20146
  31
0
  0
LINE
  8
0
  10
9.59258
  20
37.20146
  30
0
  11
9.48115
  21
37.08665
  31
0
  0
LINE
  8
0
  10
9.48115
  20
37.08665
  30
0
  11
9.36509
  21
36.97419
  31
0
  0
LINE
  8
0
  10
9.36509
  20
36.97419
  30
0
  11
9.24465
  21
36.86402
  31
0
  0
LINE
  8
0
  10
9.24465
  20
36.86402
  30
0
  11
9.12005
  21
36.75611
  31
0
  0
LINE
  8
0
  10
9.12005
  20
36.75611
  30
0
  11
8.99146
  21
36.65043
  31
0
  0
LINE
  8
0
  10
8.99146
  20
36.65043
  30
0
  11
8.89249
  21
36.57262
  31
0
  0
LINE
  8
0
  10
8.89249
  20
36.57262
  30
0
  11
8.02468
  21
37.0263
  31
0
  0
LINE
  8
0
  10
8.02468
  20
37.0263
  30
0
  11
8.03209
  21
37.15197
  31
0
  0
LINE
  8
0
  10
8.03209
  20
37.15197
  30
0
  11
8.04548
  21
37.31788
  31
0
  0
LINE
  8
0
  10
8.04548
  20
37.31788
  30
0
  11
8.06298
  21
37.48178
  31
0
  0
LINE
  8
0
  10
8.06298
  20
37.48178
  30
0
  11
8.08471
  21
37.64355
  31
0
  0
LINE
  8
0
  10
8.08471
  20
37.64355
  30
0
  11
8.11081
  21
37.80304
  31
0
  0
LINE
  8
0
  10
8.11081
  20
37.80304
  30
0
  11
8.1415
  21
37.96007
  31
0
  0
LINE
  8
0
  10
8.1415
  20
37.96007
  30
0
  11
8.17703
  21
38.11442
  31
0
  0
LINE
  8
0
  10
8.17703
  20
38.11442
  30
0
  11
8.2178
  21
38.26579
  31
0
  0
LINE
  8
0
  10
8.2178
  20
38.26579
  30
0
  11
8.24031
  21
38.34025
  31
0
  0
LINE
  8
0
  10
8.24031
  20
38.34025
  30
0
  11
8.26438
  21
38.41379
  31
0
  0
LINE
  8
0
  10
8.26438
  20
38.41379
  30
0
  11
8.29013
  21
38.48634
  31
0
  0
LINE
  8
0
  10
8.29013
  20
38.48634
  30
0
  11
8.3037
  21
38.52219
  31
0
  0
LINE
  8
0
  10
8.3037
  20
38.52219
  30
0
  11
8.31777
  21
38.55775
  31
0
  0
LINE
  8
0
  10
8.31777
  20
38.55775
  30
0
  11
8.33238
  21
38.59297
  31
0
  0
LINE
  8
0
  10
8.33238
  20
38.59297
  30
0
  11
7.41903
  21
39.1998
  31
0
  0
LINE
  8
0
  10
7.41903
  20
39.1998
  30
0
  11
7.39223
  21
39.17268
  31
0
  0
LINE
  8
0
  10
7.39223
  20
39.17268
  30
0
  11
7.3649
  21
39.14593
  31
0
  0
LINE
  8
0
  10
7.3649
  20
39.14593
  30
0
  11
7.3371
  21
39.11952
  31
0
  0
LINE
  8
0
  10
7.3371
  20
39.11952
  30
0
  11
7.28021
  21
39.06767
  31
0
  0
LINE
  8
0
  10
7.28021
  20
39.06767
  30
0
  11
7.22174
  21
39.01699
  31
0
  0
LINE
  8
0
  10
7.22174
  20
39.01699
  30
0
  11
7.16182
  21
38.96738
  31
0
  0
LINE
  8
0
  10
7.16182
  20
38.96738
  30
0
  11
7.03807
  21
38.87114
  31
0
  0
LINE
  8
0
  10
7.03807
  20
38.87114
  30
0
  11
6.90956
  21
38.77857
  31
0
  0
LINE
  8
0
  10
6.90956
  20
38.77857
  30
0
  11
6.77669
  21
38.68943
  31
0
  0
LINE
  8
0
  10
6.77669
  20
38.68943
  30
0
  11
6.63978
  21
38.60356
  31
0
  0
LINE
  8
0
  10
6.63978
  20
38.60356
  30
0
  11
6.49907
  21
38.52085
  31
0
  0
LINE
  8
0
  10
6.49907
  20
38.52085
  30
0
  11
6.35475
  21
38.4412
  31
0
  0
LINE
  8
0
  10
6.35475
  20
38.4412
  30
0
  11
6.207
  21
38.36456
  31
0
  0
LINE
  8
0
  10
6.207
  20
38.36456
  30
0
  11
6.09401
  21
38.30903
  31
0
  0
LINE
  8
0
  10
6.09401
  20
38.30903
  30
0
  11
5.33949
  21
38.93322
  31
0
  0
LINE
  8
0
  10
5.33949
  20
38.93322
  30
0
  11
5.37287
  21
39.05461
  31
0
  0
LINE
  8
0
  10
5.37287
  20
39.05461
  30
0
  11
5.42047
  21
39.21411
  31
0
  0
LINE
  8
0
  10
5.42047
  20
39.21411
  30
0
  11
5.47166
  21
39.37079
  31
0
  0
LINE
  8
0
  10
5.47166
  20
39.37079
  30
0
  11
5.52655
  21
39.52451
  31
0
  0
LINE
  8
0
  10
5.52655
  20
39.52451
  30
0
  11
5.58524
  21
39.67508
  31
0
  0
LINE
  8
0
  10
5.58524
  20
39.67508
  30
0
  11
5.6479
  21
39.8223
  31
0
  0
LINE
  8
0
  10
5.6479
  20
39.8223
  30
0
  11
5.71475
  21
39.96589
  31
0
  0
LINE
  8
0
  10
5.71475
  20
39.96589
  30
0
  11
5.7861
  21
40.10548
  31
0
  0
LINE
  8
0
  10
5.7861
  20
40.10548
  30
0
  11
5.8236
  21
40.17363
  31
0
  0
LINE
  8
0
  10
5.8236
  20
40.17363
  30
0
  11
5.86243
  21
40.24056
  31
0
  0
LINE
  8
0
  10
5.86243
  20
40.24056
  30
0
  11
5.9027
  21
40.30616
  31
0
  0
LINE
  8
0
  10
5.9027
  20
40.30616
  30
0
  11
5.92343
  21
40.33842
  31
0
  0
LINE
  8
0
  10
5.92343
  20
40.33842
  30
0
  11
5.94458
  21
40.37027
  31
0
  0
LINE
  8
0
  10
5.94458
  20
40.37027
  30
0
  11
5.96621
  21
40.40168
  31
0
  0
LINE
  8
0
  10
5.96621
  20
40.40168
  30
0
  11
5.19898
  21
41.18515
  31
0
  0
LINE
  8
0
  10
5.19898
  20
41.18515
  30
0
  11
5.16712
  21
41.16419
  31
0
  0
LINE
  8
0
  10
5.16712
  20
41.16419
  30
0
  11
5.13483
  21
41.14371
  31
0
  0
LINE
  8
0
  10
5.13483
  20
41.14371
  30
0
  11
5.10215
  21
41.12366
  31
0
  0
LINE
  8
0
  10
5.10215
  20
41.12366
  30
0
  11
5.03572
  21
41.08477
  31
0
  0
LINE
  8
0
  10
5.03572
  20
41.08477
  30
0
  11
4.96799
  21
41.04735
  31
0
  0
LINE
  8
0
  10
4.96799
  20
41.04735
  30
0
  11
4.89907
  21
41.01129
  31
0
  0
LINE
  8
0
  10
4.89907
  20
41.01129
  30
0
  11
4.75801
  21
40.94288
  31
0
  0
LINE
  8
0
  10
4.75801
  20
40.94288
  30
0
  11
4.61306
  21
40.87905
  31
0
  0
LINE
  8
0
  10
4.61306
  20
40.87905
  30
0
  11
4.46456
  21
40.81948
  31
0
  0
LINE
  8
0
  10
4.46456
  20
40.81948
  30
0
  11
4.31279
  21
40.76396
  31
0
  0
LINE
  8
0
  10
4.31279
  20
40.76396
  30
0
  11
4.15796
  21
40.7123
  31
0
  0
LINE
  8
0
  10
4.15796
  20
40.7123
  30
0
  11
4.00023
  21
40.6644
  31
0
  0
LINE
  8
0
  10
4.00023
  20
40.6644
  30
0
  11
3.83978
  21
40.62015
  31
0
  0
LINE
  8
0
  10
3.83978
  20
40.62015
  30
0
  11
3.71771
  21
40.58933
  31
0
  0
LINE
  8
0
  10
3.71771
  20
40.58933
  30
0
  11
3.10946
  21
41.35675
  31
0
  0
LINE
  8
0
  10
3.10946
  20
41.35675
  30
0
  11
3.16735
  21
41.46855
  31
0
  0
LINE
  8
0
  10
3.16735
  20
41.46855
  30
0
  11
3.24706
  21
41.61467
  31
0
  0
LINE
  8
0
  10
3.24706
  20
41.61467
  30
0
  11
3.32972
  21
41.75728
  31
0
  0
LINE
  8
0
  10
3.32972
  20
41.75728
  30
0
  11
3.41536
  21
41.89623
  31
0
  0
LINE
  8
0
  10
3.41536
  20
41.89623
  30
0
  11
3.50408
  21
42.03131
  31
0
  0
LINE
  8
0
  10
3.50408
  20
42.03131
  30
0
  11
3.59598
  21
42.16228
  31
0
  0
LINE
  8
0
  10
3.59598
  20
42.16228
  30
0
  11
3.69122
  21
42.28883
  31
0
  0
LINE
  8
0
  10
3.69122
  20
42.28883
  30
0
  11
3.79003
  21
42.41054
  31
0
  0
LINE
  8
0
  10
3.79003
  20
42.41054
  30
0
  11
3.84089
  21
42.4694
  31
0
  0
LINE
  8
0
  10
3.84089
  20
42.4694
  30
0
  11
3.89278
  21
42.5268
  31
0
  0
LINE
  8
0
  10
3.89278
  20
42.5268
  30
0
  11
3.94581
  21
42.5826
  31
0
  0
LINE
  8
0
  10
3.94581
  20
42.5826
  30
0
  11
3.97279
  21
42.60984
  31
0
  0
LINE
  8
0
  10
3.97279
  20
42.60984
  30
0
  11
4.00011
  21
42.63659
  31
0
  0
LINE
  8
0
  10
4.00011
  20
42.63659
  30
0
  11
4.02779
  21
42.66283
  31
0
  0
LINE
  8
0
  10
4.02779
  20
42.66283
  30
0
  11
3.44022
  21
43.58869
  31
0
  0
LINE
  8
0
  10
3.44022
  20
43.58869
  30
0
  11
3.4047
  21
43.57481
  31
0
  0
LINE
  8
0
  10
3.4047
  20
43.57481
  30
0
  11
3.36886
  21
43.56149
  31
0
  0
LINE
  8
0
  10
3.36886
  20
43.56149
  30
0
  11
3.33272
  21
43.54867
  31
0
  0
LINE
  8
0
  10
3.33272
  20
43.54867
  30
0
  11
3.25966
  21
43.52445
  31
0
  0
LINE
  8
0
  10
3.25966
  20
43.52445
  30
0
  11
3.18562
  21
43.50193
  31
0
  0
LINE
  8
0
  10
3.18562
  20
43.50193
  30
0
  11
3.11071
  21
43.48098
  31
0
  0
LINE
  8
0
  10
3.11071
  20
43.48098
  30
0
  11
2.95852
  21
43.44339
  31
0
  0
LINE
  8
0
  10
2.95852
  20
43.44339
  30
0
  11
2.80346
  21
43.4111
  31
0
  0
LINE
  8
0
  10
2.80346
  20
43.4111
  30
0
  11
2.64582
  21
43.38371
  31
0
  0
LINE
  8
0
  10
2.64582
  20
43.38371
  30
0
  11
2.48582
  21
43.36095
  31
0
  0
LINE
  8
0
  10
2.48582
  20
43.36095
  30
0
  11
2.32363
  21
43.34262
  31
0
  0
LINE
  8
0
  10
2.32363
  20
43.34262
  30
0
  11
2.1594
  21
43.32855
  31
0
  0
LINE
  8
0
  10
2.1594
  20
43.32855
  30
0
  11
1.99325
  21
43.31863
  31
0
  0
LINE
  8
0
  10
1.99325
  20
43.31863
  30
0
  11
1.86744
  21
43.31386
  31
0
  0
LINE
  8
0
  10
1.86744
  20
43.31386
  30
0
  11
1.43204
  21
44.19098
  31
0
  0
LINE
  8
0
  10
1.43204
  20
44.19098
  30
0
  11
1.5119
  21
44.2883
  31
0
  0
LINE
  8
0
  10
1.5119
  20
44.2883
  30
0
  11
1.62026
  21
44.41464
  31
0
  0
LINE
  8
0
  10
1.62026
  20
44.41464
  30
0
  11
1.73076
  21
44.53696
  31
0
  0
LINE
  8
0
  10
1.73076
  20
44.53696
  30
0
  11
1.84342
  21
44.65506
  31
0
  0
LINE
  8
0
  10
1.84342
  20
44.65506
  30
0
  11
1.95828
  21
44.76875
  31
0
  0
LINE
  8
0
  10
1.95828
  20
44.76875
  30
0
  11
2.07541
  21
44.87775
  31
0
  0
LINE
  8
0
  10
2.07541
  20
44.87775
  30
0
  11
2.19488
  21
44.98173
  31
0
  0
LINE
  8
0
  10
2.19488
  20
44.98173
  30
0
  11
2.31683
  21
45.08024
  31
0
  0
LINE
  8
0
  10
2.31683
  20
45.08024
  30
0
  11
2.37881
  21
45.12724
  31
0
  0
LINE
  8
0
  10
2.37881
  20
45.12724
  30
0
  11
2.44151
  21
45.17259
  31
0
  0
LINE
  8
0
  10
2.44151
  20
45.17259
  30
0
  11
2.50498
  21
45.21615
  31
0
  0
LINE
  8
0
  10
2.50498
  20
45.21615
  30
0
  11
2.53703
  21
45.23718
  31
0
  0
LINE
  8
0
  10
2.53703
  20
45.23718
  30
0
  11
2.56932
  21
45.25768
  31
0
  0
LINE
  8
0
  10
2.56932
  20
45.25768
  30
0
  11
2.60185
  21
45.27758
  31
0
  0
LINE
  8
0
  10
2.60185
  20
45.27758
  30
0
  11
2.21961
  21
46.30537
  31
0
  0
LINE
  8
0
  10
2.21961
  20
46.30537
  30
0
  11
2.18198
  21
46.29918
  31
0
  0
LINE
  8
0
  10
2.18198
  20
46.29918
  30
0
  11
2.14415
  21
46.2936
  31
0
  0
LINE
  8
0
  10
2.14415
  20
46.2936
  30
0
  11
2.10615
  21
46.28858
  31
0
  0
LINE
  8
0
  10
2.10615
  20
46.28858
  30
0
  11
2.02964
  21
46.28007
  31
0
  0
LINE
  8
0
  10
2.02964
  20
46.28007
  30
0
  11
1.95254
  21
46.27344
  31
0
  0
LINE
  8
0
  10
1.95254
  20
46.27344
  30
0
  11
1.87492
  21
46.26852
  31
0
  0
LINE
  8
0
  10
1.87492
  20
46.26852
  30
0
  11
1.71823
  21
46.2634
  31
0
  0
LINE
  8
0
  10
1.71823
  20
46.2634
  30
0
  11
1.55985
  21
46.26405
  31
0
  0
LINE
  8
0
  10
1.55985
  20
46.26405
  30
0
  11
1.39996
  21
46.27003
  31
0
  0
LINE
  8
0
  10
1.39996
  20
46.27003
  30
0
  11
1.23872
  21
46.28104
  31
0
  0
LINE
  8
0
  10
1.23872
  20
46.28104
  30
0
  11
1.07627
  21
46.29683
  31
0
  0
LINE
  8
0
  10
1.07627
  20
46.29683
  30
0
  11
0.9127
  21
46.31722
  31
0
  0
LINE
  8
0
  10
0.9127
  20
46.31722
  30
0
  11
0.74811
  21
46.34206
  31
0
  0
LINE
  8
0
  10
0.74811
  20
46.34206
  30
0
  11
0.62407
  21
46.36354
  31
0
  0
LINE
  8
0
  10
0.62407
  20
46.36354
  30
0
  11
0.38054
  21
47.31202
  31
0
  0
LINE
  8
0
  10
0.38054
  20
47.31202
  30
0
  11
0.47889
  21
47.39061
  31
0
  0
LINE
  8
0
  10
0.47889
  20
47.39061
  30
0
  11
0.61115
  21
47.49167
  31
0
  0
LINE
  8
0
  10
0.61115
  20
47.49167
  30
0
  11
0.74466
  21
47.58834
  31
0
  0
LINE
  8
0
  10
0.74466
  20
47.58834
  30
0
  11
0.87942
  21
47.68044
  31
0
  0
LINE
  8
0
  10
0.87942
  20
47.68044
  30
0
  11
1.01541
  21
47.76776
  31
0
  0
LINE
  8
0
  10
1.01541
  20
47.76776
  30
0
  11
1.15264
  21
47.85002
  31
0
  0
LINE
  8
0
  10
1.15264
  20
47.85002
  30
0
  11
1.29112
  21
47.9269
  31
0
  0
LINE
  8
0
  10
1.29112
  20
47.9269
  30
0
  11
1.43089
  21
47.99789
  31
0
  0
LINE
  8
0
  10
1.43089
  20
47.99789
  30
0
  11
1.50128
  21
48.03098
  31
0
  0
LINE
  8
0
  10
1.50128
  20
48.03098
  30
0
  11
1.57204
  21
48.06231
  31
0
  0
LINE
  8
0
  10
1.57204
  20
48.06231
  30
0
  11
1.64318
  21
48.09171
  31
0
  0
LINE
  8
0
  10
1.64318
  20
48.09171
  30
0
  11
1.67891
  21
48.10562
  31
0
  0
LINE
  8
0
  10
1.67891
  20
48.10562
  30
0
  11
1.71474
  21
48.11896
  31
0
  0
LINE
  8
0
  10
1.71474
  20
48.11896
  30
0
  11
1.7507
  21
48.13166
  31
0
  0
LINE
  8
0
  10
1.7507
  20
48.13166
  30
0
  11
1.59051
  21
49.21646
  31
0
  0
LINE
  8
0
  10
1.59051
  20
49.21646
  30
0
  11
1.55242
  21
49.21823
  31
0
  0
LINE
  8
0
  10
1.55242
  20
49.21823
  30
0
  11
1.51426
  21
49.22064
  31
0
  0
LINE
  8
0
  10
1.51426
  20
49.22064
  30
0
  11
1.47603
  21
49.22363
  31
0
  0
LINE
  8
0
  10
1.47603
  20
49.22363
  30
0
  11
1.39943
  21
49.23122
  31
0
  0
LINE
  8
0
  10
1.39943
  20
49.23122
  30
0
  11
1.32264
  21
49.24076
  31
0
  0
LINE
  8
0
  10
1.32264
  20
49.24076
  30
0
  11
1.24569
  21
49.25209
  31
0
  0
LINE
  8
0
  10
1.24569
  20
49.25209
  30
0
  11
1.09136
  21
49.27966
  31
0
  0
LINE
  8
0
  10
1.09136
  20
49.27966
  30
0
  11
0.93657
  21
49.31322
  31
0
  0
LINE
  8
0
  10
0.93657
  20
49.31322
  30
0
  11
0.78142
  21
49.35232
  31
0
  0
LINE
  8
0
  10
0.78142
  20
49.35232
  30
0
  11
0.626
  21
49.3966
  31
0
  0
LINE
  8
0
  10
0.626
  20
49.3966
  30
0
  11
0.47037
  21
49.44582
  31
0
  0
LINE
  8
0
  10
0.47037
  20
49.44582
  30
0
  11
0.31462
  21
49.49977
  31
0
  0
LINE
  8
0
  10
0.31462
  20
49.49977
  30
0
  11
0.1588
  21
49.55829
  31
0
  0
LINE
  8
0
  10
0.1588
  20
49.55829
  30
0
  11
0.04193
  21
49.6051
  31
0
  0
LINE
  8
0
  10
0.04193
  20
49.6051
  30
0
  11
0.00092
  21
50.58348
  31
0
  0
LINE
  8
0
  10
0.00092
  20
50.58348
  30
0
  11
0.11346
  21
50.6399
  31
0
  0
LINE
  8
0
  10
0.11346
  20
50.6399
  30
0
  11
0.26384
  21
50.71126
  31
0
  0
LINE
  8
0
  10
0.26384
  20
50.71126
  30
0
  11
0.41454
  21
50.77805
  31
0
  0
LINE
  8
0
  10
0.41454
  20
50.77805
  30
0
  11
0.5655
  21
50.84012
  31
0
  0
LINE
  8
0
  10
0.5655
  20
50.84012
  30
0
  11
0.71667
  21
50.89726
  31
0
  0
LINE
  8
0
  10
0.71667
  20
50.89726
  30
0
  11
0.868
  21
50.9492
  31
0
  0
LINE
  8
0
  10
0.868
  20
50.9492
  30
0
  11
1.01944
  21
50.9956
  31
0
  0
LINE
  8
0
  10
1.01944
  20
50.9956
  30
0
  11
1.17092
  21
51.03598
  31
0
  0
LINE
  8
0
  10
1.17092
  20
51.03598
  30
0
  11
1.24665
  21
51.05371
  31
0
  0
LINE
  8
0
  10
1.24665
  20
51.05371
  30
0
  11
1.32238
  21
51.06965
  31
0
  0
LINE
  8
0
  10
1.32238
  20
51.06965
  30
0
  11
1.39808
  21
51.08362
  31
0
  0
LINE
  8
0
  10
1.39808
  20
51.08362
  30
0
  11
1.43591
  21
51.0898
  31
0
  0
LINE
  8
0
  10
1.43591
  20
51.0898
  30
0
  11
1.47374
  21
51.09539
  31
0
  0
LINE
  8
0
  10
1.47374
  20
51.09539
  30
0
  11
1.51155
  21
51.10034
  31
0
  0
LINE
  8
0
  10
1.51155
  20
51.10034
  30
0
  11
1.58041
  21
52.19474
  31
0
  0
LINE
  8
0
  10
1.58041
  20
52.19474
  30
0
  11
1.54351
  21
52.20439
  31
0
  0
LINE
  8
0
  10
1.54351
  20
52.20439
  30
0
  11
1.50669
  21
52.21468
  31
0
  0
LINE
  8
0
  10
1.50669
  20
52.21468
  30
0
  11
1.46992
  21
52.22555
  31
0
  0
LINE
  8
0
  10
1.46992
  20
52.22555
  30
0
  11
1.39657
  21
52.2489
  31
0
  0
LINE
  8
0
  10
1.39657
  20
52.2489
  30
0
  11
1.32344
  21
52.2742
  31
0
  0
LINE
  8
0
  10
1.32344
  20
52.2742
  30
0
  11
1.25052
  21
52.30128
  31
0
  0
LINE
  8
0
  10
1.25052
  20
52.30128
  30
0
  11
1.1053
  21
52.36033
  31
0
  0
LINE
  8
0
  10
1.1053
  20
52.36033
  30
0
  11
0.96087
  21
52.42535
  31
0
  0
LINE
  8
0
  10
0.96087
  20
52.42535
  30
0
  11
0.81724
  21
52.49584
  31
0
  0
LINE
  8
0
  10
0.81724
  20
52.49584
  30
0
  11
0.67442
  21
52.57148
  31
0
  0
LINE
  8
0
  10
0.67442
  20
52.57148
  30
0
  11
0.53243
  21
52.65198
  31
0
  0
LINE
  8
0
  10
0.53243
  20
52.65198
  30
0
  11
0.3913
  21
52.73713
  31
0
  0
LINE
  8
0
  10
0.3913
  20
52.73713
  30
0
  11
0.25105
  21
52.82677
  31
0
  0
LINE
  8
0
  10
0.25105
  20
52.82677
  30
0
  11
0.14646
  21
52.89685
  31
0
  0
LINE
  8
0
  10
0.14646
  20
52.89685
  30
0
  11
0.30977
  21
53.86238
  31
0
  0
LINE
  8
0
  10
0.30977
  20
53.86238
  30
0
  11
0.43159
  21
53.89417
  31
0
  0
LINE
  8
0
  10
0.43159
  20
53.89417
  30
0
  11
0.59351
  21
53.9327
  31
0
  0
LINE
  8
0
  10
0.59351
  20
53.9327
  30
0
  11
0.7548
  21
53.96671
  31
0
  0
LINE
  8
0
  10
0.7548
  20
53.96671
  30
0
  11
0.91537
  21
53.99603
  31
0
  0
LINE
  8
0
  10
0.91537
  20
53.99603
  30
0
  11
1.07512
  21
54.02049
  31
0
  0
LINE
  8
0
  10
1.07512
  20
54.02049
  30
0
  11
1.23394
  21
54.03983
  31
0
  0
LINE
  8
0
  10
1.23394
  20
54.03983
  30
0
  11
1.39172
  21
54.05373
  31
0
  0
LINE
  8
0
  10
1.39172
  20
54.05373
  30
0
  11
1.54828
  21
54.06174
  31
0
  0
LINE
  8
0
  10
1.54828
  20
54.06174
  30
0
  11
1.62605
  21
54.06333
  31
0
  0
LINE
  8
0
  10
1.62605
  20
54.06333
  30
0
  11
1.70343
  21
54.06317
  31
0
  0
LINE
  8
0
  10
1.70343
  20
54.06317
  30
0
  11
1.78038
  21
54.0611
  31
0
  0
LINE
  8
0
  10
1.78038
  20
54.0611
  30
0
  11
1.81868
  21
54.05928
  31
0
  0
LINE
  8
0
  10
1.81868
  20
54.05928
  30
0
  11
1.85684
  21
54.05688
  31
0
  0
LINE
  8
0
  10
1.85684
  20
54.05688
  30
0
  11
1.89486
  21
54.05387
  31
0
  0
LINE
  8
0
  10
1.89486
  20
54.05387
  30
0
  11
2.18974
  21
55.11003
  31
0
  0
LINE
  8
0
  10
2.18974
  20
55.11003
  30
0
  11
2.15566
  21
55.12715
  31
0
  0
LINE
  8
0
  10
2.15566
  20
55.12715
  30
0
  11
2.12178
  21
55.14487
  31
0
  0
LINE
  8
0
  10
2.12178
  20
55.14487
  30
0
  11
2.08808
  21
55.16315
  31
0
  0
LINE
  8
0
  10
2.08808
  20
55.16315
  30
0
  11
2.02118
  21
55.20124
  31
0
  0
LINE
  8
0
  10
2.02118
  20
55.20124
  30
0
  11
1.95491
  21
55.24119
  31
0
  0
LINE
  8
0
  10
1.95491
  20
55.24119
  30
0
  11
1.88922
  21
55.28284
  31
0
  0
LINE
  8
0
  10
1.88922
  20
55.28284
  30
0
  11
1.75945
  21
55.37079
  31
0
  0
LINE
  8
0
  10
1.75945
  20
55.37079
  30
0
  11
1.63169
  21
55.46441
  31
0
  0
LINE
  8
0
  10
1.63169
  20
55.46441
  30
0
  11
1.50586
  21
55.56323
  31
0
  0
LINE
  8
0
  10
1.50586
  20
55.56323
  30
0
  11
1.38189
  21
55.6669
  31
0
  0
LINE
  8
0
  10
1.38189
  20
55.6669
  30
0
  11
1.25974
  21
55.77517
  31
0
  0
LINE
  8
0
  10
1.25974
  20
55.77517
  30
0
  11
1.13939
  21
55.88781
  31
0
  0
LINE
  8
0
  10
1.13939
  20
55.88781
  30
0
  11
1.02084
  21
56.00465
  31
0
  0
LINE
  8
0
  10
1.02084
  20
56.00465
  30
0
  11
0.93311
  21
56.09494
  31
0
  0
LINE
  8
0
  10
0.93311
  20
56.09494
  30
0
  11
1.2936
  21
57.00542
  31
0
  0
LINE
  8
0
  10
1.2936
  20
57.00542
  30
0
  11
1.41936
  21
57.01118
  31
0
  0
LINE
  8
0
  10
1.41936
  20
57.01118
  30
0
  11
1.58576
  21
57.0152
  31
0
  0
LINE
  8
0
  10
1.58576
  20
57.0152
  30
0
  11
1.75059
  21
57.01493
  31
0
  0
LINE
  8
0
  10
1.75059
  20
57.01493
  30
0
  11
1.91375
  21
57.01024
  31
0
  0
LINE
  8
0
  10
1.91375
  20
57.01024
  30
0
  11
2.07509
  21
57.00094
  31
0
  0
LINE
  8
0
  10
2.07509
  20
57.00094
  30
0
  11
2.23447
  21
56.98684
  31
0
  0
LINE
  8
0
  10
2.23447
  20
56.98684
  30
0
  11
2.39168
  21
56.96764
  31
0
  0
LINE
  8
0
  10
2.39168
  20
56.96764
  30
0
  11
2.54649
  21
56.94292
  31
0
  0
LINE
  8
0
  10
2.54649
  20
56.94292
  30
0
  11
2.62289
  21
56.92831
  31
0
  0
LINE
  8
0
  10
2.62289
  20
56.92831
  30
0
  11
2.69855
  21
56.91206
  31
0
  0
LINE
  8
0
  10
2.69855
  20
56.91206
  30
0
  11
2.77339
  21
56.89404
  31
0
  0
LINE
  8
0
  10
2.77339
  20
56.89404
  30
0
  11
2.81046
  21
56.88429
  31
0
  0
LINE
  8
0
  10
2.81046
  20
56.88429
  30
0
  11
2.8473
  21
56.87401
  31
0
  0
LINE
  8
0
  10
2.8473
  20
56.87401
  30
0
  11
2.88385
  21
56.86316
  31
0
  0
LINE
  8
0
  10
2.88385
  20
56.86316
  30
0
  11
3.39189
  21
57.83494
  31
0
  0
LINE
  8
0
  10
3.39189
  20
57.83494
  30
0
  11
3.36211
  21
57.85876
  31
0
  0
LINE
  8
0
  10
3.36211
  20
57.85876
  30
0
  11
3.33265
  21
57.88314
  31
0
  0
LINE
  8
0
  10
3.33265
  20
57.88314
  30
0
  11
3.30349
  21
57.90803
  31
0
  0
LINE
  8
0
  10
3.30349
  20
57.90803
  30
0
  11
3.24597
  21
57.95919
  31
0
  0
LINE
  8
0
  10
3.24597
  20
57.95919
  30
0
  11
3.18946
  21
58.01204
  31
0
  0
LINE
  8
0
  10
3.18946
  20
58.01204
  30
0
  11
3.13386
  21
58.06644
  31
0
  0
LINE
  8
0
  10
3.13386
  20
58.06644
  30
0
  11
3.02521
  21
58.17946
  31
0
  0
LINE
  8
0
  10
3.02521
  20
58.17946
  30
0
  11
2.91971
  21
58.29759
  31
0
  0
LINE
  8
0
  10
2.91971
  20
58.29759
  30
0
  11
2.81717
  21
58.42041
  31
0
  0
LINE
  8
0
  10
2.81717
  20
58.42041
  30
0
  11
2.71746
  21
58.5476
  31
0
  0
LINE
  8
0
  10
2.71746
  20
58.5476
  30
0
  11
2.62049
  21
58.67889
  31
0
  0
LINE
  8
0
  10
2.62049
  20
58.67889
  30
0
  11
2.52619
  21
58.81409
  31
0
  0
LINE
  8
0
  10
2.52619
  20
58.81409
  30
0
  11
2.43453
  21
58.95303
  31
0
  0
LINE
  8
0
  10
2.43453
  20
58.95303
  30
0
  11
2.36749
  21
59.05959
  31
0
  0
LINE
  8
0
  10
2.36749
  20
59.05959
  30
0
  11
2.90939
  21
59.87522
  31
0
  0
LINE
  8
0
  10
2.90939
  20
59.87522
  30
0
  11
3.03361
  21
59.85471
  31
0
  0
LINE
  8
0
  10
3.03361
  20
59.85471
  30
0
  11
3.19721
  21
59.82405
  31
0
  0
LINE
  8
0
  10
3.19721
  20
59.82405
  30
0
  11
3.35838
  21
59.78951
  31
0
  0
LINE
  8
0
  10
3.35838
  20
59.78951
  30
0
  11
3.517
  21
59.751
  31
0
  0
LINE
  8
0
  10
3.517
  20
59.751
  30
0
  11
3.67288
  21
59.70836
  31
0
  0
LINE
  8
0
  10
3.67288
  20
59.70836
  30
0
  11
3.82584
  21
59.66143
  31
0
  0
LINE
  8
0
  10
3.82584
  20
59.66143
  30
0
  11
3.97563
  21
59.60996
  31
0
  0
LINE
  8
0
  10
3.97563
  20
59.60996
  30
0
  11
4.12192
  21
59.55359
  31
0
  0
LINE
  8
0
  10
4.12192
  20
59.55359
  30
0
  11
4.19361
  21
59.52342
  31
0
  0
LINE
  8
0
  10
4.19361
  20
59.52342
  30
0
  11
4.26424
  21
59.4918
  31
0
  0
LINE
  8
0
  10
4.26424
  20
59.4918
  30
0
  11
4.33369
  21
59.45861
  31
0
  0
LINE
  8
0
  10
4.33369
  20
59.45861
  30
0
  11
4.36793
  21
59.44137
  31
0
  0
LINE
  8
0
  10
4.36793
  20
59.44137
  30
0
  11
4.40182
  21
59.42366
  31
0
  0
LINE
  8
0
  10
4.40182
  20
59.42366
  30
0
  11
4.43533
  21
59.40544
  31
0
  0
LINE
  8
0
  10
4.43533
  20
59.40544
  30
0
  11
5.1343
  21
60.25035
  31
0
  0
LINE
  8
0
  10
5.1343
  20
60.25035
  30
0
  11
5.11013
  21
60.27985
  31
0
  0
LINE
  8
0
  10
5.11013
  20
60.27985
  30
0
  11
5.08638
  21
60.30982
  31
0
  0
LINE
  8
0
  10
5.08638
  20
60.30982
  30
0
  11
5.06303
  21
60.34022
  31
0
  0
LINE
  8
0
  10
5.06303
  20
60.34022
  30
0
  11
5.01741
  21
60.40223
  31
0
  0
LINE
  8
0
  10
5.01741
  20
60.40223
  30
0
  11
4.97312
  21
60.46568
  31
0
  0
LINE
  8
0
  10
4.97312
  20
60.46568
  30
0
  11
4.93004
  21
60.53045
  31
0
  0
LINE
  8
0
  10
4.93004
  20
60.53045
  30
0
  11
4.84726
  21
60.66358
  31
0
  0
LINE
  8
0
  10
4.84726
  20
60.66358
  30
0
  11
4.76863
  21
60.80107
  31
0
  0
LINE
  8
0
  10
4.76863
  20
60.80107
  30
0
  11
4.69387
  21
60.94253
  31
0
  0
LINE
  8
0
  10
4.69387
  20
60.94253
  30
0
  11
4.62278
  21
61.08766
  31
0
  0
LINE
  8
0
  10
4.62278
  20
61.08766
  30
0
  11
4.55523
  21
61.23625
  31
0
  0
LINE
  8
0
  10
4.55523
  20
61.23625
  30
0
  11
4.4911
  21
61.3881
  31
0
  0
LINE
  8
0
  10
4.4911
  20
61.3881
  30
0
  11
4.43033
  21
61.54305
  31
0
  0
LINE
  8
0
  10
4.43033
  20
61.54305
  30
0
  11
4.38691
  21
61.66123
  31
0
  0
LINE
  8
0
  10
4.38691
  20
61.66123
  30
0
  11
5.08655
  21
62.34637
  31
0
  0
LINE
  8
0
  10
5.08655
  20
62.34637
  30
0
  11
5.20379
  21
62.30048
  31
0
  0
LINE
  8
0
  10
5.20379
  20
62.30048
  30
0
  11
5.35743
  21
62.23647
  31
0
  0
LINE
  8
0
  10
5.35743
  20
62.23647
  30
0
  11
5.50791
  21
62.16918
  31
0
  0
LINE
  8
0
  10
5.50791
  20
62.16918
  30
0
  11
5.65505
  21
62.09853
  31
0
  0
LINE
  8
0
  10
5.65505
  20
62.09853
  30
0
  11
5.79866
  21
62.02442
  31
0
  0
LINE
  8
0
  10
5.79866
  20
62.02442
  30
0
  11
5.93852
  21
61.94671
  31
0
  0
LINE
  8
0
  10
5.93852
  20
61.94671
  30
0
  11
6.07433
  21
61.86522
  31
0
  0
LINE
  8
0
  10
6.07433
  20
61.86522
  30
0
  11
6.20571
  21
61.77967
  31
0
  0
LINE
  8
0
  10
6.20571
  20
61.77967
  30
0
  11
6.26956
  21
61.73525
  31
0
  0
LINE
  8
0
  10
6.26956
  20
61.73525
  30
0
  11
6.33207
  21
61.68964
  31
0
  0
LINE
  8
0
  10
6.33207
  20
61.68964
  30
0
  11
6.3931
  21
61.64273
  31
0
  0
LINE
  8
0
  10
6.3931
  20
61.64273
  30
0
  11
6.42301
  21
61.61875
  31
0
  0
LINE
  8
0
  10
6.42301
  20
61.61875
  30
0
  11
6.45248
  21
61.59438
  31
0
  0
LINE
  8
0
  10
6.45248
  20
61.59438
  30
0
  11
6.48146
  21
61.56959
  31
0
  0
LINE
  8
0
  10
6.48146
  20
61.56959
  30
0
  11
7.34083
  21
62.25072
  31
0
  0
LINE
  8
0
  10
7.34083
  20
62.25072
  30
0
  11
7.32332
  21
62.28459
  31
0
  0
LINE
  8
0
  10
7.32332
  20
62.28459
  30
0
  11
7.30632
  21
62.31885
  31
0
  0
LINE
  8
0
  10
7.30632
  20
62.31885
  30
0
  11
7.2898
  21
62.35344
  31
0
  0
LINE
  8
0
  10
7.2898
  20
62.35344
  30
0
  11
7.25807
  21
62.42358
  31
0
  0
LINE
  8
0
  10
7.25807
  20
62.42358
  30
0
  11
7.22794
  21
62.49485
  31
0
  0
LINE
  8
0
  10
7.22794
  20
62.49485
  30
0
  11
7.19927
  21
62.56716
  31
0
  0
LINE
  8
0
  10
7.19927
  20
62.56716
  30
0
  11
7.14598
  21
62.7146
  31
0
  0
LINE
  8
0
  10
7.14598
  20
62.7146
  30
0
  11
7.09765
  21
62.86543
  31
0
  0
LINE
  8
0
  10
7.09765
  20
62.86543
  30
0
  11
7.05394
  21
63.01934
  31
0
  0
LINE
  8
0
  10
7.05394
  20
63.01934
  30
0
  11
7.01458
  21
63.17608
  31
0
  0
LINE
  8
0
  10
7.01458
  20
63.17608
  30
0
  11
6.97939
  21
63.33547
  31
0
  0
LINE
  8
0
  10
6.97939
  20
63.33547
  30
0
  11
6.94824
  21
63.49733
  31
0
  0
LINE
  8
0
  10
6.94824
  20
63.49733
  30
0
  11
6.92101
  21
63.66154
  31
0
  0
LINE
  8
0
  10
6.92101
  20
63.66154
  30
0
  11
6.90311
  21
63.78615
  31
0
  0
LINE
  8
0
  10
6.90311
  20
63.78615
  30
0
  11
7.72991
  21
64.31086
  31
0
  0
LINE
  8
0
  10
7.72991
  20
64.31086
  30
0
  11
7.83504
  21
64.2416
  31
0
  0
LINE
  8
0
  10
7.83504
  20
64.2416
  30
0
  11
7.97203
  21
64.14705
  31
0
  0
LINE
  8
0
  10
7.97203
  20
64.14705
  30
0
  11
8.10522
  21
64.04994
  31
0
  0
LINE
  8
0
  10
8.10522
  20
64.04994
  30
0
  11
8.23446
  21
63.95024
  31
0
  0
LINE
  8
0
  10
8.23446
  20
63.95024
  30
0
  11
8.35952
  21
63.84789
  31
0
  0
LINE
  8
0
  10
8.35952
  20
63.84789
  30
0
  11
8.48017
  21
63.7428
  31
0
  0
LINE
  8
0
  10
8.48017
  20
63.7428
  30
0
  11
8.59607
  21
63.63485
  31
0
  0
LINE
  8
0
  10
8.59607
  20
63.63485
  30
0
  11
8.70679
  21
63.52386
  31
0
  0
LINE
  8
0
  10
8.70679
  20
63.52386
  30
0
  11
8.76001
  21
63.46713
  31
0
  0
LINE
  8
0
  10
8.76001
  20
63.46713
  30
0
  11
8.81167
  21
63.40952
  31
0
  0
LINE
  8
0
  10
8.81167
  20
63.40952
  30
0
  11
8.86162
  21
63.35095
  31
0
  0
LINE
  8
0
  10
8.86162
  20
63.35095
  30
0
  11
8.88589
  21
63.32127
  31
0
  0
LINE
  8
0
  10
8.88589
  20
63.32127
  30
0
  11
8.90964
  21
63.29131
  31
0
  0
LINE
  8
0
  10
8.90964
  20
63.29131
  30
0
  11
8.93284
  21
63.26104
  31
0
  0
LINE
  8
0
  10
8.93284
  20
63.26104
  30
0
  11
9.91504
  21
63.74861
  31
0
  0
LINE
  8
0
  10
9.91504
  20
63.74861
  30
0
  11
9.90495
  21
63.78538
  31
0
  0
LINE
  8
0
  10
9.90495
  20
63.78538
  30
0
  11
9.89545
  21
63.82242
  31
0
  0
LINE
  8
0
  10
9.89545
  20
63.82242
  30
0
  11
9.88649
  21
63.8597
  31
0
  0
LINE
  8
0
  10
9.88649
  20
63.8597
  30
0
  11
9.87003
  21
63.9349
  31
0
  0
LINE
  8
0
  10
9.87003
  20
63.9349
  30
0
  11
9.85537
  21
64.01088
  31
0
  0
LINE
  8
0
  10
9.85537
  20
64.01088
  30
0
  11
9.84237
  21
64.08757
  31
0
  0
LINE
  8
0
  10
9.84237
  20
64.08757
  30
0
  11
9.8209
  21
64.24286
  31
0
  0
LINE
  8
0
  10
9.8209
  20
64.24286
  30
0
  11
9.80499
  21
64.40044
  31
0
  0
LINE
  8
0
  10
9.80499
  20
64.40044
  30
0
  11
9.79422
  21
64.56008
  31
0
  0
LINE
  8
0
  10
9.79422
  20
64.56008
  30
0
  11
9.78831
  21
64.72158
  31
0
  0
LINE
  8
0
  10
9.78831
  20
64.72158
  30
0
  11
9.78704
  21
64.8848
  31
0
  0
LINE
  8
0
  10
9.78704
  20
64.8848
  30
0
  11
9.79022
  21
65.0496
  31
0
  0
LINE
  8
0
  10
9.79022
  20
65.0496
  30
0
  11
9.79772
  21
65.21588
  31
0
  0
LINE
  8
0
  10
9.79772
  20
65.21588
  30
0
  11
9.80612
  21
65.3415
  31
0
  0
LINE
  8
0
  10
9.80612
  20
65.3415
  30
0
  11
10.72395
  21
65.68283
  31
0
  0
LINE
  8
0
  10
10.72395
  20
65.68283
  30
0
  11
10.81238
  21
65.59323
  31
0
  0
LINE
  8
0
  10
10.81238
  20
65.59323
  30
0
  11
10.92671
  21
65.47226
  31
0
  0
LINE
  8
0
  10
10.92671
  20
65.47226
  30
0
  11
11.03681
  21
65.34958
  31
0
  0
LINE
  8
0
  10
11.03681
  20
65.34958
  30
0
  11
11.14249
  21
65.22519
  31
0
  0
LINE
  8
0
  10
11.14249
  20
65.22519
  30
0
  11
11.24355
  21
65.09908
  31
0
  0
LINE
  8
0
  10
11.24355
  20
65.09908
  30
0
  11
11.33971
  21
64.9712
  31
0
  0
LINE
  8
0
  10
11.33971
  20
64.9712
  30
0
  11
11.43063
  21
64.84151
  31
0
  0
LINE
  8
0
  10
11.43063
  20
64.84151
  30
0
  11
11.51585
  21
64.70993
  31
0
  0
LINE
  8
0
  10
11.51585
  20
64.70993
  30
0
  11
11.55611
  21
64.64338
  31
0
  0
LINE
  8
0
  10
11.55611
  20
64.64338
  30
0
  11
11.59467
  21
64.57628
  31
0
  0
LINE
  8
0
  10
11.59467
  20
64.57628
  30
0
  11
11.63135
  21
64.50861
  31
0
  0
LINE
  8
0
  10
11.63135
  20
64.50861
  30
0
  11
11.64892
  21
64.47453
  31
0
  0
LINE
  8
0
  10
11.64892
  20
64.47453
  30
0
  11
11.66592
  21
64.44028
  31
0
  0
LINE
  8
0
  10
11.66592
  20
64.44028
  30
0
  11
11.68232
  21
64.40585
  31
0
  0
LINE
  8
0
  10
11.68232
  20
64.40585
  30
0
  11
12.74443
  21
64.67855
  31
0
  0
LINE
  8
0
  10
12.74443
  20
64.67855
  30
0
  11
12.74221
  21
64.71663
  31
0
  0
LINE
  8
0
  10
12.74221
  20
64.71663
  30
0
  11
12.74061
  21
64.75483
  31
0
  0
LINE
  8
0
  10
12.74061
  20
64.75483
  30
0
  11
12.73959
  21
64.79316
  31
0
  0
LINE
  8
0
  10
12.73959
  20
64.79316
  30
0
  11
12.73913
  21
64.87013
  31
0
  0
LINE
  8
0
  10
12.73913
  20
64.87013
  30
0
  11
12.74059
  21
64.9475
  31
0
  0
LINE
  8
0
  10
12.74059
  20
64.9475
  30
0
  11
12.74382
  21
65.02522
  31
0
  0
LINE
  8
0
  10
12.74382
  20
65.02522
  30
0
  11
12.7551
  21
65.18158
  31
0
  0
LINE
  8
0
  10
12.7551
  20
65.18158
  30
0
  11
12.7723
  21
65.33903
  31
0
  0
LINE
  8
0
  10
12.7723
  20
65.33903
  30
0
  11
12.79497
  21
65.49741
  31
0
  0
LINE
  8
0
  10
12.79497
  20
65.49741
  30
0
  11
12.82276
  21
65.65661
  31
0
  0
LINE
  8
0
  10
12.82276
  20
65.65661
  30
0
  11
12.85545
  21
65.81653
  31
0
  0
LINE
  8
0
  10
12.85545
  20
65.81653
  30
0
  11
12.89282
  21
65.97707
  31
0
  0
LINE
  8
0
  10
12.89282
  20
65.97707
  30
0
  11
12.93473
  21
66.13816
  31
0
  0
LINE
  8
0
  10
12.93473
  20
66.13816
  30
0
  11
12.96907
  21
66.25928
  31
0
  0
LINE
  8
0
  10
12.96907
  20
66.25928
  30
0
  11
13.93781
  21
66.40233
  31
0
  0
LINE
  8
0
  10
13.93781
  20
66.40233
  30
0
  11
14.00568
  21
66.2963
  31
0
  0
LINE
  8
0
  10
14.00568
  20
66.2963
  30
0
  11
14.09236
  21
66.15421
  31
0
  0
LINE
  8
0
  10
14.09236
  20
66.15421
  30
0
  11
14.17454
  21
66.01132
  31
0
  0
LINE
  8
0
  10
14.17454
  20
66.01132
  30
0
  11
14.25205
  21
65.86767
  31
0
  0
LINE
  8
0
  10
14.25205
  20
65.86767
  30
0
  11
14.32468
  21
65.7233
  31
0
  0
LINE
  8
0
  10
14.32468
  20
65.7233
  30
0
  11
14.39215
  21
65.57823
  31
0
  0
LINE
  8
0
  10
14.39215
  20
65.57823
  30
0
  11
14.45413
  21
65.43247
  31
0
  0
LINE
  8
0
  10
14.45413
  20
65.43247
  30
0
  11
14.51013
  21
65.28604
  31
0
  0
LINE
  8
0
  10
14.51013
  20
65.28604
  30
0
  11
14.53567
  21
65.21257
  31
0
  0
LINE
  8
0
  10
14.53567
  20
65.21257
  30
0
  11
14.55943
  21
65.13893
  31
0
  0
LINE
  8
0
  10
14.55943
  20
65.13893
  30
0
  11
14.58124
  21
65.06511
  31
0
  0
LINE
  8
0
  10
14.58124
  20
65.06511
  30
0
  11
14.59134
  21
65.02812
  31
0
  0
LINE
  8
0
  10
14.59134
  20
65.02812
  30
0
  11
14.60086
  21
64.99109
  31
0
  0
LINE
  8
0
  10
14.60086
  20
64.99109
  30
0
  11
14.60974
  21
64.954
  31
0
  0
LINE
  8
0
  10
14.60974
  20
64.954
  30
0
  11
15.70534
  21
64.99992
  31
0
  0
LINE
  8
0
  10
15.70534
  20
64.99992
  30
0
  11
15.71108
  21
65.03762
  31
0
  0
LINE
  8
0
  10
15.71108
  20
65.03762
  30
0
  11
15.71746
  21
65.07532
  31
0
  0
LINE
  8
0
  10
15.71746
  20
65.07532
  30
0
  11
15.72443
  21
65.11302
  31
0
  0
LINE
  8
0
  10
15.72443
  20
65.11302
  30
0
  11
15.73999
  21
65.18841
  31
0
  0
LINE
  8
0
  10
15.73999
  20
65.18841
  30
0
  11
15.7575
  21
65.26378
  31
0
  0
LINE
  8
0
  10
15.7575
  20
65.26378
  30
0
  11
15.77681
  21
65.33913
  31
0
  0
LINE
  8
0
  10
15.77681
  20
65.33913
  30
0
  11
15.82036
  21
65.48973
  31
0
  0
LINE
  8
0
  10
15.82036
  20
65.48973
  30
0
  11
15.86992
  21
65.64016
  31
0
  0
LINE
  8
0
  10
15.86992
  20
65.64016
  30
0
  11
15.92502
  21
65.79038
  31
0
  0
LINE
  8
0
  10
15.92502
  20
65.79038
  30
0
  11
15.98531
  21
65.94032
  31
0
  0
LINE
  8
0
  10
15.98531
  20
65.94032
  30
0
  11
16.05053
  21
66.08995
  31
0
  0
LINE
  8
0
  10
16.05053
  20
66.08995
  30
0
  11
16.12046
  21
66.23921
  31
0
  0
LINE
  8
0
  10
16.12046
  20
66.23921
  30
0
  11
16.19495
  21
66.38806
  31
0
  0
LINE
  8
0
  10
16.19495
  20
66.38806
  30
0
  11
16.25372
  21
66.4994
  31
0
  0
LINE
  8
0
  10
16.25372
  20
66.4994
  30
0
  11
17.23103
  21
66.43791
  31
0
  0
LINE
  8
0
  10
17.23103
  20
66.43791
  30
0
  11
17.27537
  21
66.32009
  31
0
  0
LINE
  8
0
  10
17.27537
  20
66.32009
  30
0
  11
17.33062
  21
66.16307
  31
0
  0
LINE
  8
0
  10
17.33062
  20
66.16307
  30
0
  11
17.3813
  21
66.00622
  31
0
  0
LINE
  8
0
  10
17.3813
  20
66.00622
  30
0
  11
17.42725
  21
65.8496
  31
0
  0
LINE
  8
0
  10
17.42725
  20
65.8496
  30
0
  11
17.46827
  21
65.69328
  31
0
  0
LINE
  8
0
  10
17.46827
  20
65.69328
  30
0
  11
17.50411
  21
65.53735
  31
0
  0
LINE
  8
0
  10
17.50411
  20
65.53735
  30
0
  11
17.53442
  21
65.38189
  31
0
  0
LINE
  8
0
  10
17.53442
  20
65.38189
  30
0
  11
17.55875
  21
65.22702
  31
0
  0
LINE
  8
0
  10
17.55875
  20
65.22702
  30
0
  11
17.56847
  21
65.14985
  31
0
  0
LINE
  8
0
  10
17.56847
  20
65.14985
  30
0
  11
17.5764
  21
65.07287
  31
0
  0
LINE
  8
0
  10
17.5764
  20
65.07287
  30
0
  11
17.58238
  21
64.99613
  31
0
  0
LINE
  8
0
  10
17.58238
  20
64.99613
  30
0
  11
17.58457
  21
64.95785
  31
0
  0
LINE
  8
0
  10
17.58457
  20
64.95785
  30
0
  11
17.58618
  21
64.91965
  31
0
  0
LINE
  8
0
  10
17.58618
  20
64.91965
  30
0
  11
17.58715
  21
64.88152
  31
0
  0
LINE
  8
0
  10
17.58715
  20
64.88152
  30
0
  11
18.66835
  21
64.69865
  31
0
  0
LINE
  8
0
  10
18.66835
  20
64.69865
  30
0
  11
18.68181
  21
64.73434
  31
0
  0
LINE
  8
0
  10
18.68181
  20
64.73434
  30
0
  11
18.69589
  21
64.76989
  31
0
  0
LINE
  8
0
  10
18.69589
  20
64.76989
  30
0
  11
18.71055
  21
64.80531
  31
0
  0
LINE
  8
0
  10
18.71055
  20
64.80531
  30
0
  11
18.74144
  21
64.87582
  31
0
  0
LINE
  8
0
  10
18.74144
  20
64.87582
  30
0
  11
18.77424
  21
64.94591
  31
0
  0
LINE
  8
0
  10
18.77424
  20
64.94591
  30
0
  11
18.80879
  21
65.01559
  31
0
  0
LINE
  8
0
  10
18.80879
  20
65.01559
  30
0
  11
18.8827
  21
65.15385
  31
0
  0
LINE
  8
0
  10
18.8827
  20
65.15385
  30
0
  11
18.96246
  21
65.29069
  31
0
  0
LINE
  8
0
  10
18.96246
  20
65.29069
  30
0
  11
19.04758
  21
65.42616
  31
0
  0
LINE
  8
0
  10
19.04758
  20
65.42616
  30
0
  11
19.13773
  21
65.56029
  31
0
  0
LINE
  8
0
  10
19.13773
  20
65.56029
  30
0
  11
19.23263
  21
65.69309
  31
0
  0
LINE
  8
0
  10
19.23263
  20
65.69309
  30
0
  11
19.33207
  21
65.82455
  31
0
  0
LINE
  8
0
  10
19.33207
  20
65.82455
  30
0
  11
19.43588
  21
65.95466
  31
0
  0
LINE
  8
0
  10
19.43588
  20
65.95466
  30
0
  11
19.51651
  21
66.05135
  31
0
  0
LINE
  8
0
  10
19.51651
  20
66.05135
  30
0
  11
20.45968
  21
65.78801
  31
0
  0
LINE
  8
0
  10
20.45968
  20
65.78801
  30
0
  11
20.47856
  21
65.66354
  31
0
  0
LINE
  8
0
  10
20.47856
  20
65.66354
  30
0
  11
20.49995
  21
65.49847
  31
0
  0
LINE
  8
0
  10
20.49995
  20
65.49847
  30
0
  11
20.51691
  21
65.33451
  31
0
  0
LINE
  8
0
  10
20.51691
  20
65.33451
  30
0
  11
20.5293
  21
65.17176
  31
0
  0
LINE
  8
0
  10
20.5293
  20
65.17176
  30
0
  11
20.53692
  21
65.01033
  31
0
  0
LINE
  8
0
  10
20.53692
  20
65.01033
  30
0
  11
20.53955
  21
64.85035
  31
0
  0
LINE
  8
0
  10
20.53955
  20
64.85035
  30
0
  11
20.53689
  21
64.69199
  31
0
  0
LINE
  8
0
  10
20.53689
  20
64.69199
  30
0
  11
20.52848
  21
64.53545
  31
0
  0
LINE
  8
0
  10
20.52848
  20
64.53545
  30
0
  11
20.52194
  21
64.45794
  31
0
  0
LINE
  8
0
  10
20.52194
  20
64.45794
  30
0
  11
20.51369
  21
64.381
  31
0
  0
LINE
  8
0
  10
20.51369
  20
64.381
  30
0
  11
20.50359
  21
64.30469
  31
0
  0
LINE
  8
0
  10
20.50359
  20
64.30469
  30
0
  11
20.49777
  21
64.26679
  31
0
  0
LINE
  8
0
  10
20.49777
  20
64.26679
  30
0
  11
20.4914
  21
64.22909
  31
0
  0
LINE
  8
0
  10
20.4914
  20
64.22909
  30
0
  11
20.48443
  21
64.19159
  31
0
  0
LINE
  8
0
  10
20.48443
  20
64.19159
  30
0
  11
21.50399
  21
63.78792
  31
0
  0
LINE
  8
0
  10
21.50399
  20
63.78792
  30
0
  11
21.52457
  21
63.82003
  31
0
  0
LINE
  8
0
  10
21.52457
  20
63.82003
  30
0
  11
21.54573
  21
63.85188
  31
0
  0
LINE
  8
0
  10
21.54573
  20
63.85188
  30
0
  11
21.56744
  21
63.88348
  31
0
  0
LINE
  8
0
  10
21.56744
  20
63.88348
  30
0
  11
21.61231
  21
63.94603
  31
0
  0
LINE
  8
0
  10
21.61231
  20
63.94603
  30
0
  11
21.65896
  21
64.00776
  31
0
  0
LINE
  8
0
  10
21.65896
  20
64.00776
  30
0
  11
21.70725
  21
64.06874
  31
0
  0
LINE
  8
0
  10
21.70725
  20
64.06874
  30
0
  11
21.80829
  21
64.18861
  31
0
  0
LINE
  8
0
  10
21.80829
  20
64.18861
  30
0
  11
21.91475
  21
64.30587
  31
0
  0
LINE
  8
0
  10
21.91475
  20
64.30587
  30
0
  11
22.02618
  21
64.42069
  31
0
  0
LINE
  8
0
  10
22.02618
  20
64.42069
  30
0
  11
22.14225
  21
64.53315
  31
0
  0
LINE
  8
0
  10
22.14225
  20
64.53315
  30
0
  11
22.26269
  21
64.64331
  31
0
  0
LINE
  8
0
  10
22.26269
  20
64.64331
  30
0
  11
22.38729
  21
64.75122
  31
0
  0
LINE
  8
0
  10
22.38729
  20
64.75122
  30
0
  11
22.51588
  21
64.85691
  31
0
  0
LINE
  8
0
  10
22.51588
  20
64.85691
  30
0
  11
22.61485
  21
64.93472
  31
0
  0
LINE
  8
0
  10
22.61485
  20
64.93472
  30
0
  11
23.48266
  21
64.48104
  31
0
  0
LINE
  8
0
  10
23.48266
  20
64.48104
  30
0
  11
23.47525
  21
64.35536
  31
0
  0
LINE
  8
0
  10
23.47525
  20
64.35536
  30
0
  11
23.46185
  21
64.18946
  31
0
  0
LINE
  8
0
  10
23.46185
  20
64.18946
  30
0
  11
23.44435
  21
64.02555
  31
0
  0
LINE
  8
0
  10
23.44435
  20
64.02555
  30
0
  11
23.42263
  21
63.86378
  31
0
  0
LINE
  8
0
  10
23.42263
  20
63.86378
  30
0
  11
23.39652
  21
63.70429
  31
0
  0
LINE
  8
0
  10
23.39652
  20
63.70429
  30
0
  11
23.36584
  21
63.54727
  31
0
  0
LINE
  8
0
  10
23.36584
  20
63.54727
  30
0
  11
23.3303
  21
63.39292
  31
0
  0
LINE
  8
0
  10
23.3303
  20
63.39292
  30
0
  11
23.28954
  21
63.24154
  31
0
  0
LINE
  8
0
  10
23.28954
  20
63.24154
  30
0
  11
23.26702
  21
63.16709
  31
0
  0
LINE
  8
0
  10
23.26702
  20
63.16709
  30
0
  11
23.24296
  21
63.09354
  31
0
  0
LINE
  8
0
  10
23.24296
  20
63.09354
  30
0
  11
23.21721
  21
63.021
  31
0
  0
LINE
  8
0
  10
23.21721
  20
63.021
  30
0
  11
23.20364
  21
62.98514
  31
0
  0
LINE
  8
0
  10
23.20364
  20
62.98514
  30
0
  11
23.18957
  21
62.94959
  31
0
  0
LINE
  8
0
  10
23.18957
  20
62.94959
  30
0
  11
23.17495
  21
62.91436
  31
0
  0
LINE
  8
0
  10
23.17495
  20
62.91436
  30
0
  11
24.0883
  21
62.30754
  31
0
  0
LINE
  8
0
  10
24.0883
  20
62.30754
  30
0
  11
24.11511
  21
62.33466
  31
0
  0
LINE
  8
0
  10
24.11511
  20
62.33466
  30
0
  11
24.14243
  21
62.36141
  31
0
  0
LINE
  8
0
  10
24.14243
  20
62.36141
  30
0
  11
24.17023
  21
62.38781
  31
0
  0
LINE
  8
0
  10
24.17023
  20
62.38781
  30
0
  11
24.22713
  21
62.43966
  31
0
  0
LINE
  8
0
  10
24.22713
  20
62.43966
  30
0
  11
24.2856
  21
62.49035
  31
0
  0
LINE
  8
0
  10
24.2856
  20
62.49035
  30
0
  11
24.34551
  21
62.53995
  31
0
  0
LINE
  8
0
  10
24.34551
  20
62.53995
  30
0
  11
24.46926
  21
62.6362
  31
0
  0
LINE
  8
0
  10
24.46926
  20
62.6362
  30
0
  11
24.59778
  21
62.72877
  31
0
  0
LINE
  8
0
  10
24.59778
  20
62.72877
  30
0
  11
24.73065
  21
62.8179
  31
0
  0
LINE
  8
0
  10
24.73065
  20
62.8179
  30
0
  11
24.86756
  21
62.90377
  31
0
  0
LINE
  8
0
  10
24.86756
  20
62.90377
  30
0
  11
25.00827
  21
62.98649
  31
0
  0
LINE
  8
0
  10
25.00827
  20
62.98649
  30
0
  11
25.15258
  21
63.06614
  31
0
  0
LINE
  8
0
  10
25.15258
  20
63.06614
  30
0
  11
25.30034
  21
63.14278
  31
0
  0
LINE
  8
0
  10
25.30034
  20
63.14278
  30
0
  11
25.41332
  21
63.19831
  31
0
  0
LINE
  8
0
  10
25.41332
  20
63.19831
  30
0
  11
26.16784
  21
62.57412
  31
0
  0
LINE
  8
0
  10
26.16784
  20
62.57412
  30
0
  11
26.13446
  21
62.45273
  31
0
  0
LINE
  8
0
  10
26.13446
  20
62.45273
  30
0
  11
26.08687
  21
62.29323
  31
0
  0
LINE
  8
0
  10
26.08687
  20
62.29323
  30
0
  11
26.03567
  21
62.13655
  31
0
  0
LINE
  8
0
  10
26.03567
  20
62.13655
  30
0
  11
25.98079
  21
61.98283
  31
0
  0
LINE
  8
0
  10
25.98079
  20
61.98283
  30
0
  11
25.92209
  21
61.83225
  31
0
  0
LINE
  8
0
  10
25.92209
  20
61.83225
  30
0
  11
25.85943
  21
61.68504
  31
0
  0
LINE
  8
0
  10
25.85943
  20
61.68504
  30
0
  11
25.79258
  21
61.54145
  31
0
  0
LINE
  8
0
  10
25.79258
  20
61.54145
  30
0
  11
25.72123
  21
61.40186
  31
0
  0
LINE
  8
0
  10
25.72123
  20
61.40186
  30
0
  11
25.68373
  21
61.33371
  31
0
  0
LINE
  8
0
  10
25.68373
  20
61.33371
  30
0
  11
25.6449
  21
61.26678
  31
0
  0
LINE
  8
0
  10
25.6449
  20
61.26678
  30
0
  11
25.60463
  21
61.20117
  31
0
  0
LINE
  8
0
  10
25.60463
  20
61.20117
  30
0
  11
25.58391
  21
61.16892
  31
0
  0
LINE
  8
0
  10
25.58391
  20
61.16892
  30
0
  11
25.56275
  21
61.13707
  31
0
  0
LINE
  8
0
  10
25.56275
  20
61.13707
  30
0
  11
25.54113
  21
61.10565
  31
0
  0
LINE
  8
0
  10
25.54113
  20
61.10565
  30
0
  11
26.30835
  21
60.32219
  31
0
  0
LINE
  8
0
  10
26.30835
  20
60.32219
  30
0
  11
26.34022
  21
60.34315
  31
0
  0
LINE
  8
0
  10
26.34022
  20
60.34315
  30
0
  11
26.3725
  21
60.36363
  31
0
  0
LINE
  8
0
  10
26.3725
  20
60.36363
  30
0
  11
26.40518
  21
60.38368
  31
0
  0
LINE
  8
0
  10
26.40518
  20
60.38368
  30
0
  11
26.47162
  21
60.42256
  31
0
  0
LINE
  8
0
  10
26.47162
  20
60.42256
  30
0
  11
26.53935
  21
60.45998
  31
0
  0
LINE
  8
0
  10
26.53935
  20
60.45998
  30
0
  11
26.60827
  21
60.49605
  31
0
  0
LINE
  8
0
  10
26.60827
  20
60.49605
  30
0
  11
26.74932
  21
60.56446
  31
0
  0
LINE
  8
0
  10
26.74932
  20
60.56446
  30
0
  11
26.89428
  21
60.62829
  31
0
  0
LINE
  8
0
  10
26.89428
  20
60.62829
  30
0
  11
27.04277
  21
60.68785
  31
0
  0
LINE
  8
0
  10
27.04277
  20
60.68785
  30
0
  11
27.19455
  21
60.74338
  31
0
  0
LINE
  8
0
  10
27.19455
  20
60.74338
  30
0
  11
27.34938
  21
60.79503
  31
0
  0
LINE
  8
0
  10
27.34938
  20
60.79503
  30
0
  11
27.5071
  21
60.84294
  31
0
  0
LINE
  8
0
  10
27.5071
  20
60.84294
  30
0
  11
27.66756
  21
60.88718
  31
0
  0
LINE
  8
0
  10
27.66756
  20
60.88718
  30
0
  11
27.78962
  21
60.91801
  31
0
  0
LINE
  8
0
  10
27.78962
  20
60.91801
  30
0
  11
28.39788
  21
60.15058
  31
0
  0
LINE
  8
0
  10
28.39788
  20
60.15058
  30
0
  11
28.33999
  21
60.03879
  31
0
  0
LINE
  8
0
  10
28.33999
  20
60.03879
  30
0
  11
28.26027
  21
59.89267
  31
0
  0
LINE
  8
0
  10
28.26027
  20
59.89267
  30
0
  11
28.17762
  21
59.75005
  31
0
  0
LINE
  8
0
  10
28.17762
  20
59.75005
  30
0
  11
28.09197
  21
59.61111
  31
0
  0
LINE
  8
0
  10
28.09197
  20
59.61111
  30
0
  11
28.00326
  21
59.47602
  31
0
  0
LINE
  8
0
  10
28.00326
  20
59.47602
  30
0
  11
27.91136
  21
59.34505
  31
0
  0
LINE
  8
0
  10
27.91136
  20
59.34505
  30
0
  11
27.81611
  21
59.2185
  31
0
  0
LINE
  8
0
  10
27.81611
  20
59.2185
  30
0
  11
27.7173
  21
59.09679
  31
0
  0
LINE
  8
0
  10
27.7173
  20
59.09679
  30
0
  11
27.66645
  21
59.03793
  31
0
  0
LINE
  8
0
  10
27.66645
  20
59.03793
  30
0
  11
27.61455
  21
58.98054
  31
0
  0
LINE
  8
0
  10
27.61455
  20
58.98054
  30
0
  11
27.56152
  21
58.92474
  31
0
  0
LINE
  8
0
  10
27.56152
  20
58.92474
  30
0
  11
27.53455
  21
58.8975
  31
0
  0
LINE
  8
0
  10
27.53455
  20
58.8975
  30
0
  11
27.50723
  21
58.87074
  31
0
  0
LINE
  8
0
  10
27.50723
  20
58.87074
  30
0
  11
27.47955
  21
58.84451
  31
0
  0
LINE
  8
0
  10
27.47955
  20
58.84451
  30
0
  11
28.06712
  21
57.91865
  31
0
  0
LINE
  8
0
  10
28.06712
  20
57.91865
  30
0
  11
28.10264
  21
57.93253
  31
0
  0
LINE
  8
0
  10
28.10264
  20
57.93253
  30
0
  11
28.13848
  21
57.94585
  31
0
  0
LINE
  8
0
  10
28.13848
  20
57.94585
  30
0
  11
28.17461
  21
57.95866
  31
0
  0
LINE
  8
0
  10
28.17461
  20
57.95866
  30
0
  11
28.24768
  21
57.98289
  31
0
  0
LINE
  8
0
  10
28.24768
  20
57.98289
  30
0
  11
28.32171
  21
58.00541
  31
0
  0
LINE
  8
0
  10
28.32171
  20
58.00541
  30
0
  11
28.39662
  21
58.02636
  31
0
  0
LINE
  8
0
  10
28.39662
  20
58.02636
  30
0
  11
28.54882
  21
58.06394
  31
0
  0
LINE
  8
0
  10
28.54882
  20
58.06394
  30
0
  11
28.70388
  21
58.09624
  31
0
  0
LINE
  8
0
  10
28.70388
  20
58.09624
  30
0
  11
28.86151
  21
58.12363
  31
0
  0
LINE
  8
0
  10
28.86151
  20
58.12363
  30
0
  11
29.02151
  21
58.14639
  31
0
  0
LINE
  8
0
  10
29.02151
  20
58.14639
  30
0
  11
29.1837
  21
58.16472
  31
0
  0
LINE
  8
0
  10
29.1837
  20
58.16472
  30
0
  11
29.34794
  21
58.17878
  31
0
  0
LINE
  8
0
  10
29.34794
  20
58.17878
  30
0
  11
29.51409
  21
58.1887
  31
0
  0
LINE
  8
0
  10
29.51409
  20
58.1887
  30
0
  11
29.63989
  21
58.19348
  31
0
  0
LINE
  8
0
  10
29.63989
  20
58.19348
  30
0
  11
30.0753
  21
57.31636
  31
0
  0
LINE
  8
0
  10
30.0753
  20
57.31636
  30
0
  11
29.99543
  21
57.21904
  31
0
  0
LINE
  8
0
  10
29.99543
  20
57.21904
  30
0
  11
29.88708
  21
57.09269
  31
0
  0
LINE
  8
0
  10
29.88708
  20
57.09269
  30
0
  11
29.77658
  21
56.97038
  31
0
  0
LINE
  8
0
  10
29.77658
  20
56.97038
  30
0
  11
29.66392
  21
56.85227
  31
0
  0
LINE
  8
0
  10
29.66392
  20
56.85227
  30
0
  11
29.54905
  21
56.73859
  31
0
  0
LINE
  8
0
  10
29.54905
  20
56.73859
  30
0
  11
29.43193
  21
56.62959
  31
0
  0
LINE
  8
0
  10
29.43193
  20
56.62959
  30
0
  11
29.31246
  21
56.5256
  31
0
  0
LINE
  8
0
  10
29.31246
  20
56.5256
  30
0
  11
29.1905
  21
56.4271
  31
0
  0
LINE
  8
0
  10
29.1905
  20
56.4271
  30
0
  11
29.12852
  21
56.3801
  31
0
  0
LINE
  8
0
  10
29.12852
  20
56.3801
  30
0
  11
29.06583
  21
56.33474
  31
0
  0
LINE
  8
0
  10
29.06583
  20
56.33474
  30
0
  11
29.00235
  21
56.29119
  31
0
  0
LINE
  8
0
  10
29.00235
  20
56.29119
  30
0
  11
28.9703
  21
56.27015
  31
0
  0
LINE
  8
0
  10
28.9703
  20
56.27015
  30
0
  11
28.93802
  21
56.24966
  31
0
  0
LINE
  8
0
  10
28.93802
  20
56.24966
  30
0
  11
28.90549
  21
56.22976
  31
0
  0
LINE
  8
0
  10
28.90549
  20
56.22976
  30
0
  11
29.28772
  21
55.20197
  31
0
  0
LINE
  8
0
  10
29.28772
  20
55.20197
  30
0
  11
29.32535
  21
55.20816
  31
0
  0
LINE
  8
0
  10
29.32535
  20
55.20816
  30
0
  11
29.36318
  21
55.21374
  31
0
  0
LINE
  8
0
  10
29.36318
  20
55.21374
  30
0
  11
29.40119
  21
55.21876
  31
0
  0
LINE
  8
0
  10
29.40119
  20
55.21876
  30
0
  11
29.4777
  21
55.22726
  31
0
  0
LINE
  8
0
  10
29.4777
  20
55.22726
  30
0
  11
29.55479
  21
55.2339
  31
0
  0
LINE
  8
0
  10
29.55479
  20
55.2339
  30
0
  11
29.63242
  21
55.23881
  31
0
  0
LINE
  8
0
  10
29.63242
  20
55.23881
  30
0
  11
29.78911
  21
55.24394
  31
0
  0
LINE
  8
0
  10
29.78911
  20
55.24394
  30
0
  11
29.94749
  21
55.24329
  31
0
  0
LINE
  8
0
  10
29.94749
  20
55.24329
  30
0
  11
30.10738
  21
55.2373
  31
0
  0
LINE
  8
0
  10
30.10738
  20
55.2373
  30
0
  11
30.26861
  21
55.2263
  31
0
  0
LINE
  8
0
  10
30.26861
  20
55.2263
  30
0
  11
30.43107
  21
55.21051
  31
0
  0
LINE
  8
0
  10
30.43107
  20
55.21051
  30
0
  11
30.59464
  21
55.19012
  31
0
  0
LINE
  8
0
  10
30.59464
  20
55.19012
  30
0
  11
30.75922
  21
55.16528
  31
0
  0
LINE
  8
0
  10
30.75922
  20
55.16528
  30
0
  11
30.88327
  21
55.14379
  31
0
  0
LINE
  8
0
  10
30.88327
  20
55.14379
  30
0
  11
31.1268
  21
54.19531
  31
0
  0
LINE
  8
0
  10
31.1268
  20
54.19531
  30
0
  11
31.02844
  21
54.11673
  31
0
  0
LINE
  8
0
  10
31.02844
  20
54.11673
  30
0
  11
30.89619
  21
54.01567
  31
0
  0
LINE
  8
0
  10
30.89619
  20
54.01567
  30
0
  11
30.76267
  21
53.919
  31
0
  0
LINE
  8
0
  10
30.76267
  20
53.919
  30
0
  11
30.62792
  21
53.8269
  31
0
  0
LINE
  8
0
  10
30.62792
  20
53.8269
  30
0
  11
30.49193
  21
53.73958
  31
0
  0
LINE
  8
0
  10
30.49193
  20
53.73958
  30
0
  11
30.3547
  21
53.65731
  31
0
  0
LINE
  8
0
  10
30.3547
  20
53.65731
  30
0
  11
30.21622
  21
53.58044
  31
0
  0
LINE
  8
0
  10
30.21622
  20
53.58044
  30
0
  11
30.07645
  21
53.50945
  31
0
  0
LINE
  8
0
  10
30.07645
  20
53.50945
  30
0
  11
30.00605
  21
53.47636
  31
0
  0
LINE
  8
0
  10
30.00605
  20
53.47636
  30
0
  11
29.9353
  21
53.44503
  31
0
  0
LINE
  8
0
  10
29.9353
  20
53.44503
  30
0
  11
29.86415
  21
53.41563
  31
0
  0
LINE
  8
0
  10
29.86415
  20
53.41563
  30
0
  11
29.82843
  21
53.40171
  31
0
  0
LINE
  8
0
  10
29.82843
  20
53.40171
  30
0
  11
29.79259
  21
53.38838
  31
0
  0
LINE
  8
0
  10
29.79259
  20
53.38838
  30
0
  11
29.75663
  21
53.37567
  31
0
  0
LINE
  8
0
  10
29.75663
  20
53.37567
  30
0
  11
29.91682
  21
52.29087
  31
0
  0
LINE
  8
0
  10
29.91682
  20
52.29087
  30
0
  11
29.95492
  21
52.2891
  31
0
  0
LINE
  8
0
  10
29.95492
  20
52.2891
  30
0
  11
29.99308
  21
52.2867
  31
0
  0
LINE
  8
0
  10
29.99308
  20
52.2867
  30
0
  11
30.0313
  21
52.2837
  31
0
  0
LINE
  8
0
  10
30.0313
  20
52.2837
  30
0
  11
30.10791
  21
52.27612
  31
0
  0
LINE
  8
0
  10
30.10791
  20
52.27612
  30
0
  11
30.1847
  21
52.26658
  31
0
  0
LINE
  8
0
  10
30.1847
  20
52.26658
  30
0
  11
30.26165
  21
52.25525
  31
0
  0
LINE
  8
0
  10
30.26165
  20
52.25525
  30
0
  11
30.41598
  21
52.22768
  31
0
  0
LINE
  8
0
  10
30.41598
  20
52.22768
  30
0
  11
30.57077
  21
52.19412
  31
0
  0
LINE
  8
0
  10
30.57077
  20
52.19412
  30
0
  11
30.72591
  21
52.15502
  31
0
  0
LINE
  8
0
  10
30.72591
  20
52.15502
  30
0
  11
30.88134
  21
52.11073
  31
0
  0
LINE
  8
0
  10
30.88134
  20
52.11073
  30
0
  11
31.03696
  21
52.06151
  31
0
  0
LINE
  8
0
  10
31.03696
  20
52.06151
  30
0
  11
31.19272
  21
52.00756
  31
0
  0
LINE
  8
0
  10
31.19272
  20
52.00756
  30
0
  11
31.34854
  21
51.94904
  31
0
  0
LINE
  8
0
  10
31.34854
  20
51.94904
  30
0
  11
31.46541
  21
51.90224
  31
0
  0
LINE
  8
0
  10
31.46541
  20
51.90224
  30
0
  11
31.50642
  21
50.92385
  31
0
  0
LINE
  8
0
  10
31.50642
  20
50.92385
  30
0
  11
31.39387
  21
50.86743
  31
0
  0
LINE
  8
0
  10
31.39387
  20
50.86743
  30
0
  11
31.24349
  21
50.79608
  31
0
  0
LINE
  8
0
  10
31.24349
  20
50.79608
  30
0
  11
31.0928
  21
50.72928
  31
0
  0
LINE
  8
0
  10
31.0928
  20
50.72928
  30
0
  11
30.94184
  21
50.66721
  31
0
  0
LINE
  8
0
  10
30.94184
  20
50.66721
  30
0
  11
30.79067
  21
50.61008
  31
0
  0
LINE
  8
0
  10
30.79067
  20
50.61008
  30
0
  11
30.63933
  21
50.55814
  31
0
  0
LINE
  8
0
  10
30.63933
  20
50.55814
  30
0
  11
30.4879
  21
50.51174
  31
0
  0
LINE
  8
0
  10
30.4879
  20
50.51174
  30
0
  11
30.33642
  21
50.47135
  31
0
  0
LINE
  8
0
  10
30.33642
  20
50.47135
  30
0
  11
30.26068
  21
50.45362
  31
0
  0
LINE
  8
0
  10
30.26068
  20
50.45362
  30
0
  11
30.18496
  21
50.43769
  31
0
  0
LINE
  8
0
  10
30.18496
  20
50.43769
  30
0
  11
30.10926
  21
50.42372
  31
0
  0
LINE
  8
0
  10
30.10926
  20
50.42372
  30
0
  11
30.07142
  21
50.41754
  31
0
  0
LINE
  8
0
  10
30.07142
  20
50.41754
  30
0
  11
30.0336
  21
50.41195
  31
0
  0
LINE
  8
0
  10
30.0336
  20
50.41195
  30
0
  11
29.99578
  21
50.407
  31
0
  0
LINE
  8
0
  10
29.99578
  20
50.407
  30
0
  11
29.92693
  21
49.3126
  31
0
  0
LINE
  8
0
  10
16.25367
  20
50.75367
  30
0
  11
16.25367
  21
50.75367
  31
0
  0
LINE
  8
0
  10
16.25367
  20
50.75367
  30
0
  11
16.23663
  21
50.88308
  31
0
  0
LINE
  8
0
  10
16.23663
  20
50.88308
  30
0
  11
16.18668
  21
51.00367
  31
0
  0
LINE
  8
0
  10
16.18668
  20
51.00367
  30
0
  11
16.10722
  21
51.10722
  31
0
  0
LINE
  8
0
  10
16.10722
  20
51.10722
  30
0
  11
16.00367
  21
51.18668
  31
0
  0
LINE
  8
0
  10
16.00367
  20
51.18668
  30
0
  11
15.88308
  21
51.23663
  31
0
  0
LINE
  8
0
  10
15.88308
  20
51.23663
  30
0
  11
15.75367
  21
51.25367
  31
0
  0
LINE
  8
0
  10
15.75367
  20
51.25367
  30
0
  11
15.62426
  21
51.23663
  31
0
  0
LINE
  8
0
  10
15.62426
  20
51.23663
  30
0
  11
15.50367
  21
51.18668
  31
0
  0
LINE
  8
0
  10
15.50367
  20
51.18668
  30
0
  11
15.40011
  21
51.10722
  31
0
  0
LINE
  8
0
  10
15.40011
  20
51.10722
  30
0
  11
15.32066
  21
51.00367
  31
0
  0
LINE
  8
0
  10
15.32066
  20
51.00367
  30
0
  11
15.27071
  21
50.88308
  31
0
  0
LINE
  8
0
  10
15.27071
  20
50.88308
  30
0
  11
15.25367
  21
50.75367
  31
0
  0
LINE
  8
0
  10
15.25367
  20
50.75367
  30
0
  11
15.27071
  21
50.62426
  31
0
  0
LINE
  8
0
  10
15.27071
  20
50.62426
  30
0
  11
15.32066
  21
50.50367
  31
0
  0
LINE
  8
0
  10
15.32066
  20
50.50367
  30
0
  11
15.40011
  21
50.40011
  31
0
  0
LINE
  8
0
  10
15.40011
  20
50.40011
  30
0
  11
15.50367
  21
50.32066
  31
0
  0
LINE
  8
0
  10
15.50367
  20
50.32066
  30
0
  11
15.62426
  21
50.27071
  31
0
  0
LINE
  8
0
  10
15.62426
  20
50.27071
  30
0
  11
15.75367
  21
50.25367
  31
0
  0
LINE
  8
0
  10
15.75367
  20
50.25367
  30
0
  11
15.88308
  21
50.27071
  31
0
  0
LINE
  8
0
  10
15.88308
  20
50.27071
  30
0
  11
16.00367
  21
50.32066
  31
0
  0
LINE
  8
0
  10
16.00367
  20
50.32066
  30
0
  11
16.10722
  21
50.40011
  31
0
  0
LINE
  8
0
  10
16.10722
  20
50.40011
  30
0
  11
16.18668
  21
50.50367
  31
0
  0
LINE
  8
0
  10
16.18668
  20
50.50367
  30
0
  11
16.23663
  21
50.62426
  31
0
  0
LINE
  8
0
  10
16.23663
  20
50.62426
  30
0
  11
16.25367
  21
50.75367
  31
0
  0
LINE
  8
0
  10
16.25367
  20
50.75367
  30
0
  11
16.25367
  21
50.75367
  31
0
  0
LINE
  8
0
  10
29.4752
  20
46.92255
  30
0
  11
30.92701
  21
46.51719
  31
0
  0
LINE
  8
0
  10
28.37882
  20
44.1534
  30
0
  11
29.71463
  21
43.45506
  31
0
  0
LINE
  8
0
  10
26.73066
  20
41.67271
  30
0
  11
27.89208
  21
40.7119
  31
0
  0
LINE
  8
0
  10
24.60275
  20
39.58891
  30
0
  11
25.53902
  21
38.40762
  31
0
  0
LINE
  8
0
  10
22.08809
  20
37.99306
  30
0
  11
22.7583
  21
36.64292
  31
0
  0
LINE
  8
0
  10
19.29659
  20
36.95491
  30
0
  11
19.67145
  21
35.49493
  31
0
  0
LINE
  8
0
  10
16.35024
  20
36.51983
  30
0
  11
16.41336
  21
35.01382
  31
0
  0
LINE
  8
0
  10
13.37783
  20
36.70684
  30
0
  11
13.12645
  21
35.22061
  31
0
  0
LINE
  8
0
  10
10.50924
  20
37.50776
  30
0
  11
9.95436
  21
36.10628
  31
0
  0
LINE
  8
0
  10
7.86987
  20
38.8876
  30
0
  11
7.03572
  21
37.6321
  31
0
  0
LINE
  8
0
  10
5.57505
  20
40.78603
  30
0
  11
4.4981
  21
39.7314
  31
0
  0
LINE
  8
0
  10
3.72509
  20
43.1201
  30
0
  11
2.45241
  21
42.31243
  31
0
  0
LINE
  8
0
  10
2.40084
  20
45.78779
  30
0
  11
0.98804
  21
45.26238
  31
0
  0
LINE
  8
0
  10
1.66017
  20
48.67252
  30
0
  11
0.169
  21
48.45232
  31
0
  0
LINE
  8
0
  10
1.53545
  20
51.6482
  30
0
  11
0.03109
  21
51.74285
  31
0
  0
LINE
  8
0
  10
2.03213
  20
54.58479
  30
0
  11
0.58032
  21
54.99014
  31
0
  0
LINE
  8
0
  10
3.12852
  20
57.35394
  30
0
  11
1.79271
  21
58.05228
  31
0
  0
LINE
  8
0
  10
4.77668
  20
59.83462
  30
0
  11
3.61526
  21
60.79543
  31
0
  0
LINE
  8
0
  10
6.90459
  20
61.91843
  30
0
  11
5.96831
  21
63.09971
  31
0
  0
LINE
  8
0
  10
9.41925
  20
63.51428
  30
0
  11
8.74903
  21
64.86441
  31
0
  0
LINE
  8
0
  10
12.21075
  20
64.55243
  30
0
  11
11.83589
  21
66.01241
  31
0
  0
LINE
  8
0
  10
15.15709
  20
64.9875
  30
0
  11
15.09397
  21
66.49352
  31
0
  0
LINE
  8
0
  10
18.12951
  20
64.80049
  30
0
  11
18.38089
  21
66.28672
  31
0
  0
LINE
  8
0
  10
20.99809
  20
63.99957
  30
0
  11
21.55298
  21
65.40106
  31
0
  0
LINE
  8
0
  10
23.63747
  20
62.61974
  30
0
  11
24.47161
  21
63.87523
  31
0
  0
LINE
  8
0
  10
25.93228
  20
60.7213
  30
0
  11
27.00923
  21
61.77593
  31
0
  0
LINE
  8
0
  10
27.78224
  20
58.38723
  30
0
  11
29.05493
  21
59.19491
  31
0
  0
LINE
  8
0
  10
29.1065
  20
55.71954
  30
0
  11
30.5193
  21
56.24496
  31
0
  0
LINE
  8
0
  10
29.84717
  20
52.83482
  30
0
  11
31.33834
  21
53.05501
  31
0
  0
LINE
  8
0
  10
29.97189
  20
49.85913
  30
0
  11
31.47625
  21
49.76449
  31
0
  0
LINE
  8
0
  10
30.75367
  20
50.75367
  30
0
  11
30.75367
  21
50.75367
  31
0
  0
LINE
  8
0
  10
30.75367
  20
50.75367
  30
0
  11
30.72407
  21
51.69553
  31
0
  0
LINE
  8
0
  10
30.72407
  20
51.69553
  30
0
  11
30.63539
  21
52.63367
  31
0
  0
LINE
  8
0
  10
30.63539
  20
52.63367
  30
0
  11
30.48798
  21
53.56439
  31
0
  0
LINE
  8
0
  10
30.48798
  20
53.56439
  30
0
  11
30.28242
  21
54.48402
  31
0
  0
LINE
  8
0
  10
30.28242
  20
54.48402
  30
0
  11
30.01952
  21
55.38892
  31
0
  0
LINE
  8
0
  10
30.01952
  20
55.38892
  30
0
  11
29.70032
  21
56.27554
  31
0
  0
LINE
  8
0
  10
29.70032
  20
56.27554
  30
0
  11
29.32607
  21
57.14036
  31
0
  0
LINE
  8
0
  10
29.32607
  20
57.14036
  30
0
  11
28.89827
  21
57.97997
  31
0
  0
LINE
  8
0
  10
28.89827
  20
57.97997
  30
0
  11
28.41859
  21
58.79107
  31
0
  0
LINE
  8
0
  10
28.41859
  20
58.79107
  30
0
  11
27.88892
  21
59.57045
  31
0
  0
LINE
  8
0
  10
27.88892
  20
59.57045
  30
0
  11
27.31137
  21
60.31503
  31
0
  0
LINE
  8
0
  10
27.31137
  20
60.31503
  30
0
  11
26.6882
  21
61.02187
  31
0
  0
LINE
  8
0
  10
26.6882
  20
61.02187
  30
0
  11
26.02187
  21
61.6882
  31
0
  0
LINE
  8
0
  10
26.02187
  20
61.6882
  30
0
  11
25.31503
  21
62.31137
  31
0
  0
LINE
  8
0
  10
25.31503
  20
62.31137
  30
0
  11
24.57045
  21
62.88892
  31
0
  0
LINE
  8
0
  10
24.57045
  20
62.88892
  30
0
  11
23.79107
  21
63.41859
  31
0
  0
LINE
  8
0
  10
23.79107
  20
63.41859
  30
0
  11
22.97997
  21
63.89827
  31
0
  0
LINE
  8
0
  10
22.97997
  20
63.89827
  30
0
  11
22.14036
  21
64.32607
  31
0
  0
LINE
  8
0
  10
22.14036
  20
64.32607
  30
0
  11
21.27554
  21
64.70032
  31
0
  0
LINE
  8
0
  10
21.27554
  20
64.70032
  30
0
  11
20.38892
  21
65.01952
  31
0
  0
LINE
  8
0
  10
20.38892
  20
65.01952
  30
0
  11
19.48402
  21
65.28242
  31
0
  0
LINE
  8
0
  10
19.48402
  20
65.28242
  30
0
  11
18.56439
  21
65.48798
  31
0
  0
LINE
  8
0
  10
18.56439
  20
65.48798
  30
0
  11
17.63367
  21
65.63539
  31
0
  0
LINE
  8
0
  10
17.63367
  20
65.63539
  30
0
  11
16.69553
  21
65.72407
  31
0
  0
LINE
  8
0
  10
16.69553
  20
65.72407
  30
0
  11
15.75367
  21
65.75367
  31
0
  0
LINE
  8
0
  10
15.75367
  20
65.75367
  30
0
  11
14.81181
  21
65.72407
  31
0
  0
LINE
  8
0
  10
14.81181
  20
65.72407
  30
0
  11
13.87367
  21
65.63539
  31
0
  0
LINE
  8
0
  10
13.87367
  20
65.63539
  30
0
  11
12.94295
  21
65.48798
  31
0
  0
LINE
  8
0
  10
12.94295
  20
65.48798
  30
0
  11
12.02332
  21
65.28242
  31
0
  0
LINE
  8
0
  10
12.02332
  20
65.28242
  30
0
  11
11.11841
  21
65.01952
  31
0
  0
LINE
  8
0
  10
11.11841
  20
65.01952
  30
0
  11
10.2318
  21
64.70032
  31
0
  0
LINE
  8
0
  10
10.2318
  20
64.70032
  30
0
  11
9.36698
  21
64.32607
  31
0
  0
LINE
  8
0
  10
9.36698
  20
64.32607
  30
0
  11
8.52736
  21
63.89827
  31
0
  0
LINE
  8
0
  10
8.52736
  20
63.89827
  30
0
  11
7.71627
  21
63.41859
  31
0
  0
LINE
  8
0
  10
7.71627
  20
63.41859
  30
0
  11
6.93689
  21
62.88892
  31
0
  0
LINE
  8
0
  10
6.93689
  20
62.88892
  30
0
  11
6.19231
  21
62.31137
  31
0
  0
LINE
  8
0
  10
6.19231
  20
62.31137
  30
0
  11
5.48546
  21
61.6882
  31
0
  0
LINE
  8
0
  10
5.48546
  20
61.6882
  30
0
  11
4.81914
  21
61.02187
  31
0
  0
LINE
  8
0
  10
4.81914
  20
61.02187
  30
0
  11
4.19597
  21
60.31503
  31
0
  0
LINE
  8
0
  10
4.19597
  20
60.31503
  30
0
  11
3.61841
  21
59.57045
  31
0
  0
LINE
  8
0
  10
3.61841
  20
59.57045
  30
0
  11
3.08875
  21
58.79107
  31
0
  0
LINE
  8
0
  10
3.08875
  20
58.79107
  30
0
  11
2.60907
  21
57.97997
  31
0
  0
LINE
  8
0
  10
2.60907
  20
57.97997
  30
0
  11
2.18126
  21
57.14036
  31
0
  0
LINE
  8
0
  10
2.18126
  20
57.14036
  30
0
  11
1.80702
  21
56.27554
  31
0
  0
LINE
  8
0
  10
1.80702
  20
56.27554
  30
0
  11
1.48782
  21
55.38892
  31
0
  0
LINE
  8
0
  10
1.48782
  20
55.38892
  30
0
  11
1.22492
  21
54.48402
  31
0
  0
LINE
  8
0
  10
1.22492
  20
54.48402
  30
0
  11
1.01936
  21
53.56439
  31
0
  0
LINE
  8
0
  10
1.01936
  20
53.56439
  30
0
  11
0.87195
  21
52.63367
  31
0
  0
LINE
  8
0
  10
0.87195
  20
52.63367
  30
0
  11
0.78327
  21
51.69553
  31
0
  0
LINE
  8
0
  10
0.78327
  20
51.69553
  30
0
  11
0.75367
  21
50.75367
  31
0
  0
LINE
  8
0
  10
0.75367
  20
50.75367
  30
0
  11
0.78327
  21
49.81181
  31
0
  0
LINE
  8
0
  10
0.78327
  20
49.81181
  30
0
  11
0.87195
  21
48.87367
  31
0
  0
LINE
  8
0
  10
0.87195
  20
48.87367
  30
0
  11
1.01936
  21
47.94295
  31
0
  0
LINE
  8
0
  10
1.01936
  20
47.94295
  30
0
  11
1.22492
  21
47.02332
  31
0
  0
LINE
  8
0
  10
1.22492
  20
47.02332
  30
0
  11
1.48782
  21
46.11841
  31
0
  0
LINE
  8
0
  10
1.48782
  20
46.11841
  30
0
  11
1.80702
  21
45.2318
  31
0
  0
LINE
  8
0
  10
1.80702
  20
45.2318
  30
0
  11
2.18126
  21
44.36698
  31
0
  0
LINE
  8
0
  10
2.18126
  20
44.36698
  30
0
  11
2.60907
  21
43.52736
  31
0
  0
LINE
  8
0
  10
2.60907
  20
43.52736
  30
0
  11
3.08875
  21
42.71627
  31
0
  0
LINE
  8
0
  10
3.08875
  20
42.71627
  30
0
  11
3.61841
  21
41.93689
  31
0
  0
LINE
  8
0
  10
3.61841
  20
41.93689
  30
0
  11
4.19597
  21
41.19231
  31
0
  0
LINE
  8
0
  10
4.19597
  20
41.19231
  30
0
  11
4.81914
  21
40.48546
  31
0
  0
LINE
  8
0
  10
4.81914
  20
40.48546
  30
0
  11
5.48546
  21
39.81914
  31
0
  0
LINE
  8
0
  10
5.48546
  20
39.81914
  30
0
  11
6.19231
  21
39.19597
  31
0
  0
LINE
  8
0
  10
6.19231
  20
39.19597
  30
0
  11
6.93689
  21
38.61841
  31
0
  0
LINE
  8
0
  10
6.93689
  20
38.61841
  30
0
  11
7.71627
  21
38.08875
  31
0
  0
LINE
  8
0
  10
7.71627
  20
38.08875
  30
0
  11
8.52736
  21
37.60907
  31
0
  0
LINE
  8
0
  10
8.52736
  20
37.60907
  30
0
  11
9.36698
  21
37.18126
  31
0
  0
LINE
  8
0
  10
9.36698
  20
37.18126
  30
0
  11
10.2318
  21
36.80702
  31
0
  0
LINE
  8
0
  10
10.2318
  20
36.80702
  30
0
  11
11.11841
  21
36.48782
  31
0
  0
LINE
  8
0
  10
11.11841
  20
36.48782
  30
0
  11
12.02332
  21
36.22492
  31
0
  0
LINE
  8
0
  10
12.02332
  20
36.22492
  30
0
  11
12.94295
  21
36.01936
  31
0
  0
LINE
  8
0
  10
12.94295
  20
36.01936
  30
0
  11
13.87367
  21
35.87195
  31
0
  0
LINE
  8
0
  10
13.87367
  20
35.87195
  30
0
  11
14.81181
  21
35.78327
  31
0
  0
LINE
  8
0
  10
14.81181
  20
35.78327
  30
0
  11
15.75367
  21
35.75367
  31
0
  0
LINE
  8
0
  10
15.75367
  20
35.75367
  30
0
  11
16.69553
  21
35.78327
  31
0
  0
LINE
  8
0
  10
16.69553
  20
35.78327
  30
0
  11
17.63367
  21
35.87195
  31
0
  0
LINE
  8
0
  10
17.63367
  20
35.87195
  30
0
  11
18.56439
  21
36.01936
  31
0
  0
LINE
  8
0
  10
18.56439
  20
36.01936
  30
0
  11
19.48402
  21
36.22492
  31
0
  0
LINE
  8
0
  10
19.48402
  20
36.22492
  30
0
  11
20.38892
  21
36.48782
  31
0
  0
LINE
  8
0
  10
20.38892
  20
36.48782
  30
0
  11
21.27554
  21
36.80702
  31
0
  0
LINE
  8
0
  10
21.27554
  20
36.80702
  30
0
  11
22.14036
  21
37.18126
  31
0
  0
LINE
  8
0
  10
22.14036
  20
37.18126
  30
0
  11
22.97997
  21
37.60907
  31
0
  0
LINE
  8
0
  10
22.97997
  20
37.60907
  30
0
  11
23.79107
  21
38.08875
  31
0
  0
LINE
  8
0
  10
23.79107
  20
38.08875
  30
0
  11
24.57045
  21
38.61841
  31
0
  0
LINE
  8
0
  10
24.57045
  20
38.61841
  30
0
  11
25.31503
  21
39.19597
  31
0
  0
LINE
  8
0
  10
25.31503
  20
39.19597
  30
0
  11
26.02187
  21
39.81914
  31
0
  0
LINE
  8
0
  10
26.02187
  20
39.81914
  30
0
  11
26.6882
  21
40.48546
  31
0
  0
LINE
  8
0
  10
26.6882
  20
40.48546
  30
0
  11
27.31137
  21
41.19231
  31
0
  0
LINE
  8
0
  10
27.31137
  20
41.19231
  30
0
  11
27.88892
  21
41.93689
  31
0
  0
LINE
  8
0
  10
27.88892
  20
41.93689
  30
0
  11
28.41859
  21
42.71627
  31
0
  0
LINE
  8
0
  10
28.41859
  20
42.71627
  30
0
  11
28.89827
  21
43.52736
  31
0
  0
LINE
  8
0
  10
28.89827
  20
43.52736
  30
0
  11
29.32607
  21
44.36698
  31
0
  0
LINE
  8
0
  10
29.32607
  20
44.36698
  30
0
  11
29.70032
  21
45.2318
  31
0
  0
LINE
  8
0
  10
29.70032
  20
45.2318
  30
0
  11
30.01952
  21
46.11841
  31
0
  0
LINE
  8
0
  10
30.01952
  20
46.11841
  30
0
  11
30.28242
  21
47.02332
  31
0
  0
LINE
  8
0
  10
30.28242
  20
47.02332
  30
0
  11
30.48798
  21
47.94295
  31
0
  0
LINE
  8
0
  10
30.48798
  20
47.94295
  30
0
  11
30.63539
  21
48.87367
  31
0
  0
LINE
  8
0
  10
30.63539
  20
48.87367
  30
0
  11
30.72407
  21
49.81181
  31
0
  0
LINE
  8
0
  10
30.72407
  20
49.81181
  30
0
  11
30.75367
  21
50.75367
  31
0
  0
LINE
  8
0
  10
30.75367
  20
50.75367
  30
0
  11
30.75367
  21
50.75367
  31
0
  0
LINE
  8
0
  10
10.50245
  20
50.75367
  30
0
  11
21.00489
  21
50.75367
  31
0
  0
LINE
  8
0
  10
15.75367
  20
45.50245
  30
0
  11
15.75367
  21
56.00489
  31
0
  0
LINE
  8
0
  10
31.54617
  20
48.79844
  30
0
  11
31.54617
  21
48.79844
  31
0
  0
LINE
  8
0
  10
31.54617
  20
48.79844
  30
0
  11
31.45085
  21
48.8246
  31
0
  0
LINE
  8
0
  10
31.45085
  20
48.8246
  30
0
  11
31.2602
  21
48.87894
  31
0
  0
LINE
  8
0
  10
31.2602
  20
48.87894
  30
0
  11
30.87886
  21
48.99543
  31
0
  0
LINE
  8
0
  10
30.87886
  20
48.99543
  30
0
  11
30.49753
  21
49.12193
  31
0
  0
LINE
  8
0
  10
30.49753
  20
49.12193
  30
0
  11
30.11629
  21
49.25799
  31
0
  0
LINE
  8
0
  10
30.11629
  20
49.25799
  30
0
  11
30.02101
  21
49.29347
  31
0
  0
LINE
  8
0
  10
30.02101
  20
49.29347
  30
0
  11
30.00202
  21
50.30071
  31
0
  0
LINE
  8
0
  10
30.00202
  20
50.30071
  30
0
  11
30.0959
  21
50.33975
  31
0
  0
LINE
  8
0
  10
30.0959
  20
50.33975
  30
0
  11
30.47173
  21
50.49009
  31
0
  0
LINE
  8
0
  10
30.47173
  20
50.49009
  30
0
  11
30.84803
  21
50.63086
  31
0
  0
LINE
  8
0
  10
30.84803
  20
50.63086
  30
0
  11
31.22471
  21
50.76165
  31
0
  0
LINE
  8
0
  10
31.22471
  20
50.76165
  30
0
  11
31.41318
  21
50.82313
  31
0
  0
LINE
  8
0
  10
31.41318
  20
50.82313
  30
0
  11
31.50744
  21
50.85287
  31
0
  0
LINE
  8
0
  10
31.50744
  20
50.85287
  30
0
  11
31.5205
  21
51.89206
  31
0
  0
LINE
  8
0
  10
31.5205
  20
51.89206
  30
0
  11
31.42701
  21
51.92416
  31
0
  0
LINE
  8
0
  10
31.42701
  20
51.92416
  30
0
  11
31.24015
  21
51.99036
  31
0
  0
LINE
  8
0
  10
31.24015
  20
51.99036
  30
0
  11
30.86687
  21
52.13057
  31
0
  0
LINE
  8
0
  10
30.86687
  20
52.13057
  30
0
  11
30.49424
  21
52.28075
  31
0
  0
LINE
  8
0
  10
30.49424
  20
52.28075
  30
0
  11
30.1223
  21
52.44049
  31
0
  0
LINE
  8
0
  10
30.1223
  20
52.44049
  30
0
  11
30.02943
  21
52.48188
  31
0
  0
LINE
  8
0
  10
30.02943
  20
52.48188
  30
0
  11
30.07373
  21
53.48833
  31
0
  0
LINE
  8
0
  10
30.07373
  20
53.48833
  30
0
  11
30.16987
  21
53.52139
  31
0
  0
LINE
  8
0
  10
30.16987
  20
53.52139
  30
0
  11
30.5544
  21
53.64784
  31
0
  0
LINE
  8
0
  10
30.5544
  20
53.64784
  30
0
  11
30.93879
  21
53.76471
  31
0
  0
LINE
  8
0
  10
30.93879
  20
53.76471
  30
0
  11
31.32295
  21
53.87158
  31
0
  0
LINE
  8
0
  10
31.32295
  20
53.87158
  30
0
  11
31.5149
  21
53.92111
  31
0
  0
LINE
  8
0
  10
31.5149
  20
53.92111
  30
0
  11
31.61084
  21
53.94487
  31
0
  0
LINE
  8
0
  10
31.61084
  20
53.94487
  30
0
  11
31.68913
  21
54.9812
  31
0
  0
LINE
  8
0
  10
31.68913
  20
54.9812
  30
0
  11
31.59784
  21
55.01909
  31
0
  0
LINE
  8
0
  10
31.59784
  20
55.01909
  30
0
  11
31.41551
  21
55.0969
  31
0
  0
LINE
  8
0
  10
31.41551
  20
55.0969
  30
0
  11
31.05177
  21
55.26027
  31
0
  0
LINE
  8
0
  10
31.05177
  20
55.26027
  30
0
  11
30.6893
  21
55.43356
  31
0
  0
LINE
  8
0
  10
30.6893
  20
55.43356
  30
0
  11
30.32813
  21
55.61633
  31
0
  0
LINE
  8
0
  10
30.32813
  20
55.61633
  30
0
  11
30.23804
  21
55.66347
  31
0
  0
LINE
  8
0
  10
30.23804
  20
55.66347
  30
0
  11
30.34544
  21
56.66515
  31
0
  0
LINE
  8
0
  10
30.34544
  20
56.66515
  30
0
  11
30.44347
  21
56.69211
  31
0
  0
LINE
  8
0
  10
30.44347
  20
56.69211
  30
0
  11
30.83519
  21
56.79416
  31
0
  0
LINE
  8
0
  10
30.83519
  20
56.79416
  30
0
  11
31.22616
  21
56.88667
  31
0
  0
LINE
  8
0
  10
31.22616
  20
56.88667
  30
0
  11
31.61626
  21
56.96921
  31
0
  0
LINE
  8
0
  10
31.61626
  20
56.96921
  30
0
  11
31.81095
  21
57.00659
  31
0
  0
LINE
  8
0
  10
31.81095
  20
57.00659
  30
0
  11
31.90819
  21
57.02427
  31
0
  0
LINE
  8
0
  10
31.90819
  20
57.02427
  30
0
  11
32.05139
  21
58.05364
  31
0
  0
LINE
  8
0
  10
32.05139
  20
58.05364
  30
0
  11
31.96267
  21
58.0972
  31
0
  0
LINE
  8
0
  10
31.96267
  20
58.0972
  30
0
  11
31.78558
  21
58.1863
  31
0
  0
LINE
  8
0
  10
31.78558
  20
58.1863
  30
0
  11
31.43282
  21
58.37218
  31
0
  0
LINE
  8
0
  10
31.43282
  20
58.37218
  30
0
  11
31.08194
  21
58.56789
  31
0
  0
LINE
  8
0
  10
31.08194
  20
58.56789
  30
0
  11
30.73296
  21
58.77298
  31
0
  0
LINE
  8
0
  10
30.73296
  20
58.77298
  30
0
  11
30.64601
  21
58.82568
  31
0
  0
LINE
  8
0
  10
30.64601
  20
58.82568
  30
0
  11
30.8161
  21
59.81864
  31
0
  0
LINE
  8
0
  10
30.8161
  20
59.81864
  30
0
  11
30.91563
  21
59.8394
  31
0
  0
LINE
  8
0
  10
30.91563
  20
59.8394
  30
0
  11
31.31297
  21
59.91665
  31
0
  0
LINE
  8
0
  10
31.31297
  20
59.91665
  30
0
  11
31.70898
  21
59.98442
  31
0
  0
LINE
  8
0
  10
31.70898
  20
59.98442
  30
0
  11
32.1035
  21
60.04231
  31
0
  0
LINE
  8
0
  10
32.1035
  20
60.04231
  30
0
  11
32.30015
  21
60.06739
  31
0
  0
LINE
  8
0
  10
32.30015
  20
60.06739
  30
0
  11
32.39831
  21
60.07893
  31
0
  0
LINE
  8
0
  10
32.39831
  20
60.07893
  30
0
  11
32.60586
  21
61.09728
  31
0
  0
LINE
  8
0
  10
32.60586
  20
61.09728
  30
0
  11
32.52005
  21
61.14632
  31
0
  0
LINE
  8
0
  10
32.52005
  20
61.14632
  30
0
  11
32.34891
  21
61.24636
  31
0
  0
LINE
  8
0
  10
32.34891
  20
61.24636
  30
0
  11
32.00851
  21
61.45403
  31
0
  0
LINE
  8
0
  10
32.00851
  20
61.45403
  30
0
  11
31.67062
  21
61.67138
  31
0
  0
LINE
  8
0
  10
31.67062
  20
61.67138
  30
0
  11
31.3352
  21
61.89799
  31
0
  0
LINE
  8
0
  10
31.3352
  20
61.89799
  30
0
  11
31.25173
  21
61.95604
  31
0
  0
LINE
  8
0
  10
31.25173
  20
61.95604
  30
0
  11
31.48383
  21
62.93636
  31
0
  0
LINE
  8
0
  10
31.48383
  20
62.93636
  30
0
  11
31.58447
  21
62.95083
  31
0
  0
LINE
  8
0
  10
31.58447
  20
62.95083
  30
0
  11
31.98588
  21
63.00298
  31
0
  0
LINE
  8
0
  10
31.98588
  20
63.00298
  30
0
  11
32.38537
  21
63.04575
  31
0
  0
LINE
  8
0
  10
32.38537
  20
63.04575
  30
0
  11
32.78274
  21
63.07875
  31
0
  0
LINE
  8
0
  10
32.78274
  20
63.07875
  30
0
  11
32.98057
  21
63.09143
  31
0
  0
LINE
  8
0
  10
32.98057
  20
63.09143
  30
0
  11
33.07927
  21
63.09679
  31
0
  0
LINE
  8
0
  10
33.07927
  20
63.09679
  30
0
  11
33.35035
  21
64.10009
  31
0
  0
LINE
  8
0
  10
33.35035
  20
64.10009
  30
0
  11
33.26779
  21
64.15442
  31
0
  0
LINE
  8
0
  10
33.26779
  20
64.15442
  30
0
  11
33.10326
  21
64.26502
  31
0
  0
LINE
  8
0
  10
33.10326
  20
64.26502
  30
0
  11
32.77658
  21
64.49365
  31
0
  0
LINE
  8
0
  10
32.77658
  20
64.49365
  30
0
  11
32.453
  21
64.73179
  31
0
  0
LINE
  8
0
  10
32.453
  20
64.73179
  30
0
  11
32.13247
  21
64.97901
  31
0
  0
LINE
  8
0
  10
32.13247
  20
64.97901
  30
0
  11
32.05282
  21
65.04219
  31
0
  0
LINE
  8
0
  10
32.05282
  20
65.04219
  30
0
  11
32.34601
  21
66.006
  31
0
  0
LINE
  8
0
  10
32.34601
  20
66.006
  30
0
  11
32.44736
  21
66.01412
  31
0
  0
LINE
  8
0
  10
32.44736
  20
66.01412
  30
0
  11
32.85126
  21
66.04096
  31
0
  0
LINE
  8
0
  10
32.85126
  20
66.04096
  30
0
  11
33.25264
  21
66.05857
  31
0
  0
LINE
  8
0
  10
33.25264
  20
66.05857
  30
0
  11
33.6513
  21
66.06655
  31
0
  0
LINE
  8
0
  10
33.6513
  20
66.06655
  30
0
  11
33.84954
  21
66.06678
  31
0
  0
LINE
  8
0
  10
33.84954
  20
66.06678
  30
0
  11
33.94837
  21
66.06593
  31
0
  0
LINE
  8
0
  10
33.94837
  20
66.06593
  30
0
  11
34.28192
  21
67.05023
  31
0
  0
LINE
  8
0
  10
34.28192
  20
67.05023
  30
0
  11
34.20293
  21
67.10964
  31
0
  0
LINE
  8
0
  10
34.20293
  20
67.10964
  30
0
  11
34.04567
  21
67.23035
  31
0
  0
LINE
  8
0
  10
34.04567
  20
67.23035
  30
0
  11
33.73399
  21
67.47904
  31
0
  0
LINE
  8
0
  10
33.73399
  20
67.47904
  30
0
  11
33.426
  21
67.73703
  31
0
  0
LINE
  8
0
  10
33.426
  20
67.73703
  30
0
  11
33.12163
  21
68.00389
  31
0
  0
LINE
  8
0
  10
33.12163
  20
68.00389
  30
0
  11
33.0461
  21
68.07194
  31
0
  0
LINE
  8
0
  10
33.0461
  20
68.07194
  30
0
  11
33.39924
  21
69.01545
  31
0
  0
LINE
  8
0
  10
33.39924
  20
69.01545
  30
0
  11
33.50089
  21
69.01718
  31
0
  0
LINE
  8
0
  10
33.50089
  20
69.01718
  30
0
  11
33.90568
  21
69.01861
  31
0
  0
LINE
  8
0
  10
33.90568
  20
69.01861
  30
0
  11
34.30737
  21
69.01098
  31
0
  0
LINE
  8
0
  10
34.30737
  20
69.01098
  30
0
  11
34.70575
  21
68.99391
  31
0
  0
LINE
  8
0
  10
34.70575
  20
68.99391
  30
0
  11
34.90361
  21
68.9817
  31
0
  0
LINE
  8
0
  10
34.90361
  20
68.9817
  30
0
  11
35.0022
  21
68.97465
  31
0
  0
LINE
  8
0
  10
35.0022
  20
68.97465
  30
0
  11
35.39689
  21
69.93606
  31
0
  0
LINE
  8
0
  10
35.39689
  20
69.93606
  30
0
  11
35.32179
  21
70.00031
  31
0
  0
LINE
  8
0
  10
35.32179
  20
70.00031
  30
0
  11
35.17242
  21
70.13065
  31
0
  0
LINE
  8
0
  10
35.17242
  20
70.13065
  30
0
  11
34.87697
  21
70.39843
  31
0
  0
LINE
  8
0
  10
34.87697
  20
70.39843
  30
0
  11
34.58579
  21
70.67525
  31
0
  0
LINE
  8
0
  10
34.58579
  20
70.67525
  30
0
  11
34.29877
  21
70.96069
  31
0
  0
LINE
  8
0
  10
34.29877
  20
70.96069
  30
0
  11
34.22766
  21
71.03335
  31
0
  0
LINE
  8
0
  10
34.22766
  20
71.03335
  30
0
  11
34.63935
  21
71.95282
  31
0
  0
LINE
  8
0
  10
34.63935
  20
71.95282
  30
0
  11
34.74091
  21
71.94817
  31
0
  0
LINE
  8
0
  10
34.74091
  20
71.94817
  30
0
  11
35.14499
  21
71.92418
  31
0
  0
LINE
  8
0
  10
35.14499
  20
71.92418
  30
0
  11
35.54541
  21
71.89134
  31
0
  0
LINE
  8
0
  10
35.54541
  20
71.89134
  30
0
  11
35.94193
  21
71.84929
  31
0
  0
LINE
  8
0
  10
35.94193
  20
71.84929
  30
0
  11
36.13863
  21
71.82468
  31
0
  0
LINE
  8
0
  10
36.13863
  20
71.82468
  30
0
  11
36.23658
  21
71.81145
  31
0
  0
LINE
  8
0
  10
36.23658
  20
71.81145
  30
0
  11
36.69087
  21
72.74619
  31
0
  0
LINE
  8
0
  10
36.69087
  20
72.74619
  30
0
  11
36.61995
  21
72.81503
  31
0
  0
LINE
  8
0
  10
36.61995
  20
72.81503
  30
0
  11
36.47906
  21
72.95449
  31
0
  0
LINE
  8
0
  10
36.47906
  20
72.95449
  30
0
  11
36.201
  21
73.24029
  31
0
  0
LINE
  8
0
  10
36.201
  20
73.24029
  30
0
  11
35.92778
  21
73.53484
  31
0
  0
LINE
  8
0
  10
35.92778
  20
73.53484
  30
0
  11
35.65925
  21
73.83774
  31
0
  0
LINE
  8
0
  10
35.65925
  20
73.83774
  30
0
  11
35.59284
  21
73.91473
  31
0
  0
LINE
  8
0
  10
35.59284
  20
73.91473
  30
0
  11
36.06145
  21
74.80653
  31
0
  0
LINE
  8
0
  10
36.06145
  20
74.80653
  30
0
  11
36.16252
  21
74.79551
  31
0
  0
LINE
  8
0
  10
36.16252
  20
74.79551
  30
0
  11
36.56429
  21
74.7462
  31
0
  0
LINE
  8
0
  10
36.56429
  20
74.7462
  30
0
  11
36.96186
  21
74.68828
  31
0
  0
LINE
  8
0
  10
36.96186
  20
74.68828
  30
0
  11
37.35496
  21
74.62142
  31
0
  0
LINE
  8
0
  10
37.35496
  20
74.62142
  30
0
  11
37.54973
  21
74.5845
  31
0
  0
LINE
  8
0
  10
37.54973
  20
74.5845
  30
0
  11
37.64665
  21
74.56515
  31
0
  0
LINE
  8
0
  10
37.64665
  20
74.56515
  30
0
  11
38.15874
  21
75.46951
  31
0
  0
LINE
  8
0
  10
38.15874
  20
75.46951
  30
0
  11
38.09228
  21
75.54267
  31
0
  0
LINE
  8
0
  10
38.09228
  20
75.54267
  30
0
  11
37.96042
  21
75.69071
  31
0
  0
LINE
  8
0
  10
37.96042
  20
75.69071
  30
0
  11
37.70086
  21
75.9934
  31
0
  0
LINE
  8
0
  10
37.70086
  20
75.9934
  30
0
  11
37.44667
  21
76.30453
  31
0
  0
LINE
  8
0
  10
37.44667
  20
76.30453
  30
0
  11
37.1977
  21
76.62369
  31
0
  0
LINE
  8
0
  10
37.1977
  20
76.62369
  30
0
  11
37.13625
  21
76.7047
  31
0
  0
LINE
  8
0
  10
37.13625
  20
76.7047
  30
0
  11
37.65993
  21
77.56532
  31
0
  0
LINE
  8
0
  10
37.65993
  20
77.56532
  30
0
  11
37.76011
  21
77.54797
  31
0
  0
LINE
  8
0
  10
37.76011
  20
77.54797
  30
0
  11
38.15799
  21
77.47353
  31
0
  0
LINE
  8
0
  10
38.15799
  20
77.47353
  30
0
  11
38.55114
  21
77.39076
  31
0
  0
LINE
  8
0
  10
38.55114
  20
77.39076
  30
0
  11
38.93926
  21
77.29935
  31
0
  0
LINE
  8
0
  10
38.93926
  20
77.29935
  30
0
  11
39.13133
  21
77.25028
  31
0
  0
LINE
  8
0
  10
39.13133
  20
77.25028
  30
0
  11
39.22685
  21
77.22487
  31
0
  0
LINE
  8
0
  10
39.22685
  20
77.22487
  30
0
  11
39.79471
  21
78.0953
  31
0
  0
LINE
  8
0
  10
39.79471
  20
78.0953
  30
0
  11
39.73298
  21
78.17249
  31
0
  0
LINE
  8
0
  10
39.73298
  20
78.17249
  30
0
  11
39.61068
  21
78.32851
  31
0
  0
LINE
  8
0
  10
39.61068
  20
78.32851
  30
0
  11
39.37063
  21
78.6469
  31
0
  0
LINE
  8
0
  10
39.37063
  20
78.6469
  30
0
  11
39.13648
  21
78.97338
  31
0
  0
LINE
  8
0
  10
39.13648
  20
78.97338
  30
0
  11
38.90804
  21
79.30754
  31
0
  0
LINE
  8
0
  10
38.90804
  20
79.30754
  30
0
  11
38.8518
  21
79.39225
  31
0
  0
LINE
  8
0
  10
38.8518
  20
79.39225
  30
0
  11
39.42848
  21
80.21829
  31
0
  0
LINE
  8
0
  10
39.42848
  20
80.21829
  30
0
  11
39.52738
  21
80.19469
  31
0
  0
LINE
  8
0
  10
39.52738
  20
80.19469
  30
0
  11
39.9198
  21
80.09541
  31
0
  0
LINE
  8
0
  10
39.9198
  20
80.09541
  30
0
  11
40.30697
  21
79.98812
  31
0
  0
LINE
  8
0
  10
40.30697
  20
79.98812
  30
0
  11
40.68859
  21
79.87251
  31
0
  0
LINE
  8
0
  10
40.68859
  20
79.87251
  30
0
  11
40.8772
  21
79.81148
  31
0
  0
LINE
  8
0
  10
40.8772
  20
79.81148
  30
0
  11
40.97094
  21
79.78013
  31
0
  0
LINE
  8
0
  10
40.97094
  20
79.78013
  30
0
  11
41.59233
  21
80.61318
  31
0
  0
LINE
  8
0
  10
41.59233
  20
80.61318
  30
0
  11
41.53556
  21
80.69409
  31
0
  0
LINE
  8
0
  10
41.53556
  20
80.69409
  30
0
  11
41.4233
  21
80.85749
  31
0
  0
LINE
  8
0
  10
41.4233
  20
80.85749
  30
0
  11
41.20373
  21
81.19032
  31
0
  0
LINE
  8
0
  10
41.20373
  20
81.19032
  30
0
  11
40.99053
  21
81.53086
  31
0
  0
LINE
  8
0
  10
40.99053
  20
81.53086
  30
0
  11
40.78352
  21
81.87871
  31
0
  0
LINE
  8
0
  10
40.78352
  20
81.87871
  30
0
  11
40.73271
  21
81.96678
  31
0
  0
LINE
  8
0
  10
40.73271
  20
81.96678
  30
0
  11
41.36013
  21
82.75498
  31
0
  0
LINE
  8
0
  10
41.36013
  20
82.75498
  30
0
  11
41.45734
  21
82.72521
  31
0
  0
LINE
  8
0
  10
41.45734
  20
82.72521
  30
0
  11
41.84276
  21
82.60149
  31
0
  0
LINE
  8
0
  10
41.84276
  20
82.60149
  30
0
  11
42.22243
  21
82.4701
  31
0
  0
LINE
  8
0
  10
42.22243
  20
82.4701
  30
0
  11
42.59604
  21
82.33076
  31
0
  0
LINE
  8
0
  10
42.59604
  20
82.33076
  30
0
  11
42.78044
  21
82.258
  31
0
  0
LINE
  8
0
  10
42.78044
  20
82.258
  30
0
  11
42.87202
  21
82.22083
  31
0
  0
LINE
  8
0
  10
42.87202
  20
82.22083
  30
0
  11
43.5445
  21
83.01322
  31
0
  0
LINE
  8
0
  10
43.5445
  20
83.01322
  30
0
  11
43.49292
  21
83.09754
  31
0
  0
LINE
  8
0
  10
43.49292
  20
83.09754
  30
0
  11
43.39114
  21
83.26766
  31
0
  0
LINE
  8
0
  10
43.39114
  20
83.26766
  30
0
  11
43.1929
  21
83.61363
  31
0
  0
LINE
  8
0
  10
43.1929
  20
83.61363
  30
0
  11
43.00151
  21
83.96688
  31
0
  0
LINE
  8
0
  10
43.00151
  20
83.96688
  30
0
  11
42.81675
  21
84.32704
  31
0
  0
LINE
  8
0
  10
42.81675
  20
84.32704
  30
0
  11
42.77157
  21
84.41812
  31
0
  0
LINE
  8
0
  10
42.77157
  20
84.41812
  30
0
  11
43.44724
  21
85.16537
  31
0
  0
LINE
  8
0
  10
43.44724
  20
85.16537
  30
0
  11
43.5424
  21
85.12956
  31
0
  0
LINE
  8
0
  10
43.5424
  20
85.12956
  30
0
  11
43.91928
  21
84.98188
  31
0
  0
LINE
  8
0
  10
43.91928
  20
84.98188
  30
0
  11
44.28996
  21
84.82691
  31
0
  0
LINE
  8
0
  10
44.28996
  20
84.82691
  30
0
  11
44.65407
  21
84.66439
  31
0
  0
LINE
  8
0
  10
44.65407
  20
84.66439
  30
0
  11
44.83355
  21
84.5802
  31
0
  0
LINE
  8
0
  10
44.83355
  20
84.5802
  30
0
  11
44.92261
  21
84.53735
  31
0
  0
LINE
  8
0
  10
44.92261
  20
84.53735
  30
0
  11
45.64352
  21
85.28595
  31
0
  0
LINE
  8
0
  10
45.64352
  20
85.28595
  30
0
  11
45.59734
  21
85.37334
  31
0
  0
LINE
  8
0
  10
45.59734
  20
85.37334
  30
0
  11
45.50644
  21
85.54951
  31
0
  0
LINE
  8
0
  10
45.50644
  20
85.54951
  30
0
  11
45.33031
  21
85.90724
  31
0
  0
LINE
  8
0
  10
45.33031
  20
85.90724
  30
0
  11
45.16148
  21
86.27181
  31
0
  0
LINE
  8
0
  10
45.16148
  20
86.27181
  30
0
  11
44.9997
  21
86.64287
  31
0
  0
LINE
  8
0
  10
44.9997
  20
86.64287
  30
0
  11
44.96033
  21
86.73661
  31
0
  0
LINE
  8
0
  10
44.96033
  20
86.73661
  30
0
  11
45.68158
  21
87.43996
  31
0
  0
LINE
  8
0
  10
45.68158
  20
87.43996
  30
0
  11
45.7743
  21
87.39824
  31
0
  0
LINE
  8
0
  10
45.7743
  20
87.39824
  30
0
  11
46.14117
  21
87.22719
  31
0
  0
LINE
  8
0
  10
46.14117
  20
87.22719
  30
0
  11
46.50139
  21
87.04925
  31
0
  0
LINE
  8
0
  10
46.50139
  20
87.04925
  30
0
  11
46.85458
  21
86.86419
  31
0
  0
LINE
  8
0
  10
46.85458
  20
86.86419
  30
0
  11
47.02841
  21
86.76889
  31
0
  0
LINE
  8
0
  10
47.02841
  20
86.76889
  30
0
  11
47.11461
  21
86.72053
  31
0
  0
LINE
  8
0
  10
47.11461
  20
86.72053
  30
0
  11
47.8811
  21
87.42239
  31
0
  0
LINE
  8
0
  10
47.8811
  20
87.42239
  30
0
  11
47.8405
  21
87.51251
  31
0
  0
LINE
  8
0
  10
47.8405
  20
87.51251
  30
0
  11
47.76084
  21
87.69404
  31
0
  0
LINE
  8
0
  10
47.76084
  20
87.69404
  30
0
  11
47.60752
  21
88.06213
  31
0
  0
LINE
  8
0
  10
47.60752
  20
88.06213
  30
0
  11
47.46192
  21
88.43658
  31
0
  0
LINE
  8
0
  10
47.46192
  20
88.43658
  30
0
  11
47.32375
  21
88.81706
  31
0
  0
LINE
  8
0
  10
47.32375
  20
88.81706
  30
0
  11
47.29035
  21
88.91308
  31
0
  0
LINE
  8
0
  10
47.29035
  20
88.91308
  30
0
  11
48.05434
  21
89.56976
  31
0
  0
LINE
  8
0
  10
48.05434
  20
89.56976
  30
0
  11
48.14426
  21
89.52231
  31
0
  0
LINE
  8
0
  10
48.14426
  20
89.52231
  30
0
  11
48.49967
  21
89.32855
  31
0
  0
LINE
  8
0
  10
48.49967
  20
89.32855
  30
0
  11
48.84799
  21
89.12835
  31
0
  0
LINE
  8
0
  10
48.84799
  20
89.12835
  30
0
  11
49.18887
  21
88.92147
  31
0
  0
LINE
  8
0
  10
49.18887
  20
88.92147
  30
0
  11
49.35638
  21
88.81545
  31
0
  0
LINE
  8
0
  10
49.35638
  20
88.81545
  30
0
  11
49.43937
  21
88.76177
  31
0
  0
LINE
  8
0
  10
49.43937
  20
88.76177
  30
0
  11
50.24841
  21
89.41412
  31
0
  0
LINE
  8
0
  10
50.24841
  20
89.41412
  30
0
  11
50.21355
  21
89.50661
  31
0
  0
LINE
  8
0
  10
50.21355
  20
89.50661
  30
0
  11
50.14545
  21
89.69278
  31
0
  0
LINE
  8
0
  10
50.14545
  20
89.69278
  30
0
  11
50.01555
  21
90.06977
  31
0
  0
LINE
  8
0
  10
50.01555
  20
90.06977
  30
0
  11
49.89374
  21
90.45263
  31
0
  0
LINE
  8
0
  10
49.89374
  20
90.45263
  30
0
  11
49.77974
  21
90.84103
  31
0
  0
LINE
  8
0
  10
49.77974
  20
90.84103
  30
0
  11
49.75243
  21
90.93897
  31
0
  0
LINE
  8
0
  10
49.75243
  20
90.93897
  30
0
  11
50.55615
  21
91.54637
  31
0
  0
LINE
  8
0
  10
50.55615
  20
91.54637
  30
0
  11
50.64291
  21
91.49337
  31
0
  0
LINE
  8
0
  10
50.64291
  20
91.49337
  30
0
  11
50.98545
  21
91.27768
  31
0
  0
LINE
  8
0
  10
50.98545
  20
91.27768
  30
0
  11
51.32052
  21
91.056
  31
0
  0
LINE
  8
0
  10
51.32052
  20
91.056
  30
0
  11
51.64773
  21
90.82813
  31
0
  0
LINE
  8
0
  10
51.64773
  20
90.82813
  30
0
  11
51.80825
  21
90.71179
  31
0
  0
LINE
  8
0
  10
51.80825
  20
90.71179
  30
0
  11
51.88771
  21
90.65301
  31
0
  0
LINE
  8
0
  10
51.88771
  20
90.65301
  30
0
  11
52.73612
  21
91.25327
  31
0
  0
LINE
  8
0
  10
52.73612
  20
91.25327
  30
0
  11
52.70713
  21
91.34777
  31
0
  0
LINE
  8
0
  10
52.70713
  20
91.34777
  30
0
  11
52.65086
  21
91.53785
  31
0
  0
LINE
  8
0
  10
52.65086
  20
91.53785
  30
0
  11
52.54488
  21
91.92225
  31
0
  0
LINE
  8
0
  10
52.54488
  20
91.92225
  30
0
  11
52.44735
  21
92.312
  31
0
  0
LINE
  8
0
  10
52.44735
  20
92.312
  30
0
  11
52.35797
  21
92.7068
  31
0
  0
LINE
  8
0
  10
52.35797
  20
92.7068
  30
0
  11
52.33686
  21
92.80625
  31
0
  0
LINE
  8
0
  10
52.33686
  20
92.80625
  30
0
  11
53.17713
  21
93.36199
  31
0
  0
LINE
  8
0
  10
53.17713
  20
93.36199
  30
0
  11
53.26039
  21
93.30365
  31
0
  0
LINE
  8
0
  10
53.26039
  20
93.30365
  30
0
  11
53.58871
  21
93.06688
  31
0
  0
LINE
  8
0
  10
53.58871
  20
93.06688
  30
0
  11
53.9092
  21
92.82459
  31
0
  0
LINE
  8
0
  10
53.9092
  20
92.82459
  30
0
  11
54.22146
  21
92.57663
  31
0
  0
LINE
  8
0
  10
54.22146
  20
92.57663
  30
0
  11
54.37436
  21
92.45044
  31
0
  0
LINE
  8
0
  10
54.37436
  20
92.45044
  30
0
  11
54.44997
  21
92.38679
  31
0
  0
LINE
  8
0
  10
54.44997
  20
92.38679
  30
0
  11
55.3344
  21
92.93259
  31
0
  0
LINE
  8
0
  10
55.3344
  20
92.93259
  30
0
  11
55.3114
  21
93.02872
  31
0
  0
LINE
  8
0
  10
55.3114
  20
93.02872
  30
0
  11
55.26717
  21
93.22196
  31
0
  0
LINE
  8
0
  10
55.26717
  20
93.22196
  30
0
  11
55.18554
  21
93.61226
  31
0
  0
LINE
  8
0
  10
55.18554
  20
93.61226
  30
0
  11
55.11268
  21
94.00736
  31
0
  0
LINE
  8
0
  10
55.11268
  20
94.00736
  30
0
  11
55.04826
  21
94.40699
  31
0
  0
LINE
  8
0
  10
55.04826
  20
94.40699
  30
0
  11
55.03344
  21
94.50758
  31
0
  0
LINE
  8
0
  10
55.03344
  20
94.50758
  30
0
  11
55.90695
  21
95.00946
  31
0
  0
LINE
  8
0
  10
55.90695
  20
95.00946
  30
0
  11
55.98638
  21
94.946
  31
0
  0
LINE
  8
0
  10
55.98638
  20
94.946
  30
0
  11
56.29918
  21
94.68908
  31
0
  0
LINE
  8
0
  10
56.29918
  20
94.68908
  30
0
  11
56.60383
  21
94.42715
  31
0
  0
LINE
  8
0
  10
56.60383
  20
94.42715
  30
0
  11
56.8999
  21
94.16007
  31
0
  0
LINE
  8
0
  10
56.8999
  20
94.16007
  30
0
  11
57.04458
  21
94.02454
  31
0
  0
LINE
  8
0
  10
57.04458
  20
94.02454
  30
0
  11
57.11604
  21
93.95626
  31
0
  0
LINE
  8
0
  10
57.11604
  20
93.95626
  30
0
  11
58.03299
  21
94.44545
  31
0
  0
LINE
  8
0
  10
58.03299
  20
94.44545
  30
0
  11
58.01608
  21
94.54283
  31
0
  0
LINE
  8
0
  10
58.01608
  20
94.54283
  30
0
  11
57.98407
  21
94.73847
  31
0
  0
LINE
  8
0
  10
57.98407
  20
94.73847
  30
0
  11
57.92711
  21
95.13312
  31
0
  0
LINE
  8
0
  10
57.92711
  20
95.13312
  30
0
  11
57.8792
  21
95.53202
  31
0
  0
LINE
  8
0
  10
57.8792
  20
95.53202
  30
0
  11
57.84
  21
95.93491
  31
0
  0
LINE
  8
0
  10
57.84
  20
95.93491
  30
0
  11
57.83152
  21
96.03623
  31
0
  0
LINE
  8
0
  10
57.83152
  20
96.03623
  30
0
  11
58.73482
  21
96.48227
  31
0
  0
LINE
  8
0
  10
58.73482
  20
96.48227
  30
0
  11
58.81011
  21
96.41395
  31
0
  0
LINE
  8
0
  10
58.81011
  20
96.41395
  30
0
  11
59.10617
  21
96.1379
  31
0
  0
LINE
  8
0
  10
59.10617
  20
96.1379
  30
0
  11
59.39376
  21
95.85735
  31
0
  0
LINE
  8
0
  10
59.39376
  20
95.85735
  30
0
  11
59.67248
  21
95.57221
  31
0
  0
LINE
  8
0
  10
59.67248
  20
95.57221
  30
0
  11
59.80836
  21
95.42786
  31
0
  0
LINE
  8
0
  10
59.80836
  20
95.42786
  30
0
  11
59.8754
  21
95.35523
  31
0
  0
LINE
  8
0
  10
59.8754
  20
95.35523
  30
0
  11
60.82126
  21
95.78588
  31
0
  0
LINE
  8
0
  10
60.82126
  20
95.78588
  30
0
  11
60.81049
  21
95.88413
  31
0
  0
LINE
  8
0
  10
60.81049
  20
95.88413
  30
0
  11
60.79083
  21
96.08139
  31
0
  0
LINE
  8
0
  10
60.79083
  20
96.08139
  30
0
  11
60.75876
  21
96.47884
  31
0
  0
LINE
  8
0
  10
60.75876
  20
96.47884
  30
0
  11
60.73599
  21
96.87996
  31
0
  0
LINE
  8
0
  10
60.73599
  20
96.87996
  30
0
  11
60.72216
  21
97.28451
  31
0
  0
LINE
  8
0
  10
60.72216
  20
97.28451
  30
0
  11
60.72007
  21
97.38616
  31
0
  0
LINE
  8
0
  10
60.72007
  20
97.38616
  30
0
  11
61.64959
  21
97.77461
  31
0
  0
LINE
  8
0
  10
61.64959
  20
97.77461
  30
0
  11
61.72045
  21
97.7017
  31
0
  0
LINE
  8
0
  10
61.72045
  20
97.7017
  30
0
  11
61.99858
  21
97.4076
  31
0
  0
LINE
  8
0
  10
61.99858
  20
97.4076
  30
0
  11
62.268
  21
97.10955
  31
0
  0
LINE
  8
0
  10
62.268
  20
97.10955
  30
0
  11
62.52826
  21
96.80746
  31
0
  0
LINE
  8
0
  10
62.52826
  20
96.80746
  30
0
  11
62.65481
  21
96.65487
  31
0
  0
LINE
  8
0
  10
62.65481
  20
96.65487
  30
0
  11
62.71715
  21
96.57817
  31
0
  0
LINE
  8
0
  10
62.71715
  20
96.57817
  30
0
  11
63.68818
  21
96.94859
  31
0
  0
LINE
  8
0
  10
63.68818
  20
96.94859
  30
0
  11
63.68361
  21
97.04732
  31
0
  0
LINE
  8
0
  10
63.68361
  20
97.04732
  30
0
  11
63.67637
  21
97.24543
  31
0
  0
LINE
  8
0
  10
63.67637
  20
97.24543
  30
0
  11
63.66932
  21
97.64411
  31
0
  0
LINE
  8
0
  10
63.66932
  20
97.64411
  30
0
  11
63.67179
  21
98.04586
  31
0
  0
LINE
  8
0
  10
63.67179
  20
98.04586
  30
0
  11
63.68339
  21
98.45049
  31
0
  0
LINE
  8
0
  10
63.68339
  20
98.45049
  30
0
  11
63.68768
  21
98.55207
  31
0
  0
LINE
  8
0
  10
63.68768
  20
98.55207
  30
0
  11
64.63976
  21
98.88138
  31
0
  0
LINE
  8
0
  10
64.63976
  20
98.88138
  30
0
  11
64.70589
  21
98.80416
  31
0
  0
LINE
  8
0
  10
64.70589
  20
98.80416
  30
0
  11
64.96502
  21
98.49318
  31
0
  0
LINE
  8
0
  10
64.96502
  20
98.49318
  30
0
  11
65.21518
  21
98.1788
  31
0
  0
LINE
  8
0
  10
65.21518
  20
98.1788
  30
0
  11
65.45597
  21
97.86097
  31
0
  0
LINE
  8
0
  10
65.45597
  20
97.86097
  30
0
  11
65.57268
  21
97.70073
  31
0
  0
LINE
  8
0
  10
65.57268
  20
97.70073
  30
0
  11
65.63009
  21
97.62027
  31
0
  0
LINE
  8
0
  10
65.63009
  20
97.62027
  30
0
  11
66.62246
  21
97.92898
  31
0
  0
LINE
  8
0
  10
66.62246
  20
97.92898
  30
0
  11
66.62409
  21
98.02781
  31
0
  0
LINE
  8
0
  10
66.62409
  20
98.02781
  30
0
  11
66.62931
  21
98.22598
  31
0
  0
LINE
  8
0
  10
66.62931
  20
98.22598
  30
0
  11
66.64731
  21
98.62431
  31
0
  0
LINE
  8
0
  10
66.64731
  20
98.62431
  30
0
  11
66.67499
  21
99.02512
  31
0
  0
LINE
  8
0
  10
66.67499
  20
99.02512
  30
0
  11
66.71198
  21
99.42822
  31
0
  0
LINE
  8
0
  10
66.71198
  20
99.42822
  30
0
  11
66.72264
  21
99.52933
  31
0
  0
LINE
  8
0
  10
66.72264
  20
99.52933
  30
0
  11
67.69352
  21
99.79821
  31
0
  0
LINE
  8
0
  10
67.69352
  20
99.79821
  30
0
  11
67.75468
  21
99.71699
  31
0
  0
LINE
  8
0
  10
67.75468
  20
99.71699
  30
0
  11
67.99376
  21
99.39035
  31
0
  0
LINE
  8
0
  10
67.99376
  20
99.39035
  30
0
  11
68.22369
  21
99.06089
  31
0
  0
LINE
  8
0
  10
68.22369
  20
99.06089
  30
0
  11
68.44405
  21
98.72857
  31
0
  0
LINE
  8
0
  10
68.44405
  20
98.72857
  30
0
  11
68.55047
  21
98.56131
  31
0
  0
LINE
  8
0
  10
68.55047
  20
98.56131
  30
0
  11
68.60271
  21
98.47741
  31
0
  0
LINE
  8
0
  10
68.60271
  20
98.47741
  30
0
  11
69.61251
  21
98.7232
  31
0
  0
LINE
  8
0
  10
69.61251
  20
98.7232
  30
0
  11
69.62034
  21
98.82172
  31
0
  0
LINE
  8
0
  10
69.62034
  20
98.82172
  30
0
  11
69.63799
  21
99.01918
  31
0
  0
LINE
  8
0
  10
69.63799
  20
99.01918
  30
0
  11
69.68097
  21
99.4156
  31
0
  0
LINE
  8
0
  10
69.68097
  20
99.4156
  30
0
  11
69.73377
  21
99.81388
  31
0
  0
LINE
  8
0
  10
69.73377
  20
99.81388
  30
0
  11
69.79599
  21
100.21386
  31
0
  0
LINE
  8
0
  10
69.79599
  20
100.21386
  30
0
  11
69.81298
  21
100.3141
  31
0
  0
LINE
  8
0
  10
69.81298
  20
100.3141
  30
0
  11
70.79882
  21
100.52149
  31
0
  0
LINE
  8
0
  10
70.79882
  20
100.52149
  30
0
  11
70.85476
  21
100.43659
  31
0
  0
LINE
  8
0
  10
70.85476
  20
100.43659
  30
0
  11
71.07286
  21
100.09558
  31
0
  0
LINE
  8
0
  10
71.07286
  20
100.09558
  30
0
  11
71.28165
  21
99.75233
  31
0
  0
LINE
  8
0
  10
71.28165
  20
99.75233
  30
0
  11
71.48071
  21
99.40683
  31
0
  0
LINE
  8
0
  10
71.48071
  20
99.40683
  30
0
  11
71.57642
  21
99.23322
  31
0
  0
LINE
  8
0
  10
71.57642
  20
99.23322
  30
0
  11
71.62328
  21
99.1462
  31
0
  0
LINE
  8
0
  10
71.62328
  20
99.1462
  30
0
  11
72.64652
  21
99.3281
  31
0
  0
LINE
  8
0
  10
72.64652
  20
99.3281
  30
0
  11
72.66053
  21
99.42594
  31
0
  0
LINE
  8
0
  10
72.66053
  20
99.42594
  30
0
  11
72.69055
  21
99.6219
  31
0
  0
LINE
  8
0
  10
72.69055
  20
99.6219
  30
0
  11
72.75833
  21
100.01483
  31
0
  0
LINE
  8
0
  10
72.75833
  20
100.01483
  30
0
  11
72.83603
  21
100.40901
  31
0
  0
LINE
  8
0
  10
72.83603
  20
100.40901
  30
0
  11
72.92324
  21
100.8043
  31
0
  0
LINE
  8
0
  10
72.92324
  20
100.8043
  30
0
  11
72.94649
  21
100.90327
  31
0
  0
LINE
  8
0
  10
72.94649
  20
100.90327
  30
0
  11
73.94341
  21
101.04835
  31
0
  0
LINE
  8
0
  10
73.94341
  20
101.04835
  30
0
  11
73.99391
  21
100.96011
  31
0
  0
LINE
  8
0
  10
73.99391
  20
100.96011
  30
0
  11
74.19017
  21
100.60608
  31
0
  0
LINE
  8
0
  10
74.19017
  20
100.60608
  30
0
  11
74.377
  21
100.2504
  31
0
  0
LINE
  8
0
  10
74.377
  20
100.2504
  30
0
  11
74.55396
  21
99.89307
  31
0
  0
LINE
  8
0
  10
74.55396
  20
99.89307
  30
0
  11
74.63858
  21
99.7138
  31
0
  0
LINE
  8
0
  10
74.63858
  20
99.7138
  30
0
  11
74.67989
  21
99.62401
  31
0
  0
LINE
  8
0
  10
74.67989
  20
99.62401
  30
0
  11
75.71254
  21
99.7413
  31
0
  0
LINE
  8
0
  10
75.71254
  20
99.7413
  30
0
  11
75.73266
  21
99.83807
  31
0
  0
LINE
  8
0
  10
75.73266
  20
99.83807
  30
0
  11
75.77492
  21
100.03175
  31
0
  0
LINE
  8
0
  10
75.77492
  20
100.03175
  30
0
  11
75.86724
  21
100.41966
  31
0
  0
LINE
  8
0
  10
75.86724
  20
100.41966
  30
0
  11
75.96954
  21
100.80818
  31
0
  0
LINE
  8
0
  10
75.96954
  20
100.80818
  30
0
  11
76.0814
  21
101.19721
  31
0
  0
LINE
  8
0
  10
76.0814
  20
101.19721
  30
0
  11
76.11082
  21
101.29453
  31
0
  0
LINE
  8
0
  10
76.11082
  20
101.29453
  30
0
  11
77.11488
  21
101.37673
  31
0
  0
LINE
  8
0
  10
77.11488
  20
101.37673
  30
0
  11
77.15974
  21
101.28548
  31
0
  0
LINE
  8
0
  10
77.15974
  20
101.28548
  30
0
  11
77.33338
  21
100.91983
  31
0
  0
LINE
  8
0
  10
77.33338
  20
100.91983
  30
0
  11
77.49751
  21
100.55312
  31
0
  0
LINE
  8
0
  10
77.49751
  20
100.55312
  30
0
  11
77.65168
  21
100.18539
  31
0
  0
LINE
  8
0
  10
77.65168
  20
100.18539
  30
0
  11
77.72488
  21
100.00116
  31
0
  0
LINE
  8
0
  10
77.72488
  20
100.00116
  30
0
  11
77.76047
  21
99.90895
  31
0
  0
LINE
  8
0
  10
77.76047
  20
99.90895
  30
0
  11
78.79844
  21
99.96117
  31
0
  0
LINE
  8
0
  10
78.79844
  20
99.96117
  30
0
  11
78.8246
  21
100.05648
  31
0
  0
LINE
  8
0
  10
78.8246
  20
100.05648
  30
0
  11
78.87894
  21
100.24713
  31
0
  0
LINE
  8
0
  10
78.87894
  20
100.24713
  30
0
  11
78.99543
  21
100.62848
  31
0
  0
LINE
  8
0
  10
78.99543
  20
100.62848
  30
0
  11
79.12193
  21
101.00981
  31
0
  0
LINE
  8
0
  10
79.12193
  20
101.00981
  30
0
  11
79.25799
  21
101.39104
  31
0
  0
LINE
  8
0
  10
79.25799
  20
101.39104
  30
0
  11
79.29347
  21
101.48633
  31
0
  0
LINE
  8
0
  10
79.29347
  20
101.48633
  30
0
  11
80.30071
  21
101.50531
  31
0
  0
LINE
  8
0
  10
80.30071
  20
101.50531
  30
0
  11
80.33975
  21
101.41144
  31
0
  0
LINE
  8
0
  10
80.33975
  20
101.41144
  30
0
  11
80.49009
  21
101.0356
  31
0
  0
LINE
  8
0
  10
80.49009
  20
101.0356
  30
0
  11
80.63086
  21
100.65931
  31
0
  0
LINE
  8
0
  10
80.63086
  20
100.65931
  30
0
  11
80.76165
  21
100.28262
  31
0
  0
LINE
  8
0
  10
80.76165
  20
100.28262
  30
0
  11
80.82313
  21
100.09416
  31
0
  0
LINE
  8
0
  10
80.82313
  20
100.09416
  30
0
  11
80.85287
  21
99.9999
  31
0
  0
LINE
  8
0
  10
80.85287
  20
99.9999
  30
0
  11
81.89206
  21
99.98684
  31
0
  0
LINE
  8
0
  10
81.89206
  20
99.98684
  30
0
  11
81.92416
  21
100.08032
  31
0
  0
LINE
  8
0
  10
81.92416
  20
100.08032
  30
0
  11
81.99036
  21
100.26718
  31
0
  0
LINE
  8
0
  10
81.99036
  20
100.26718
  30
0
  11
82.13057
  21
100.64046
  31
0
  0
LINE
  8
0
  10
82.13057
  20
100.64046
  30
0
  11
82.28075
  21
101.0131
  31
0
  0
LINE
  8
0
  10
82.28075
  20
101.0131
  30
0
  11
82.44049
  21
101.38504
  31
0
  0
LINE
  8
0
  10
82.44049
  20
101.38504
  30
0
  11
82.48188
  21
101.4779
  31
0
  0
LINE
  8
0
  10
82.48188
  20
101.4779
  30
0
  11
83.48833
  21
101.43361
  31
0
  0
LINE
  8
0
  10
83.48833
  20
101.43361
  30
0
  11
83.52139
  21
101.33747
  31
0
  0
LINE
  8
0
  10
83.52139
  20
101.33747
  30
0
  11
83.64784
  21
100.95293
  31
0
  0
LINE
  8
0
  10
83.64784
  20
100.95293
  30
0
  11
83.76471
  21
100.56854
  31
0
  0
LINE
  8
0
  10
83.76471
  20
100.56854
  30
0
  11
83.87158
  21
100.18439
  31
0
  0
LINE
  8
0
  10
83.87158
  20
100.18439
  30
0
  11
83.92111
  21
99.99244
  31
0
  0
LINE
  8
0
  10
83.92111
  20
99.99244
  30
0
  11
83.94487
  21
99.8965
  31
0
  0
LINE
  8
0
  10
83.94487
  20
99.8965
  30
0
  11
84.9812
  21
99.81821
  31
0
  0
LINE
  8
0
  10
84.9812
  20
99.81821
  30
0
  11
85.01909
  21
99.90949
  31
0
  0
LINE
  8
0
  10
85.01909
  20
99.90949
  30
0
  11
85.0969
  21
100.09183
  31
0
  0
LINE
  8
0
  10
85.0969
  20
100.09183
  30
0
  11
85.26027
  21
100.45557
  31
0
  0
LINE
  8
0
  10
85.26027
  20
100.45557
  30
0
  11
85.43356
  21
100.81804
  31
0
  0
LINE
  8
0
  10
85.43356
  20
100.81804
  30
0
  11
85.61633
  21
101.17921
  31
0
  0
LINE
  8
0
  10
85.61633
  20
101.17921
  30
0
  11
85.66347
  21
101.2693
  31
0
  0
LINE
  8
0
  10
85.66347
  20
101.2693
  30
0
  11
86.66515
  21
101.16189
  31
0
  0
LINE
  8
0
  10
86.66515
  20
101.16189
  30
0
  11
86.69211
  21
101.06386
  31
0
  0
LINE
  8
0
  10
86.69211
  20
101.06386
  30
0
  11
86.79416
  21
100.67215
  31
0
  0
LINE
  8
0
  10
86.79416
  20
100.67215
  30
0
  11
86.88667
  21
100.28118
  31
0
  0
LINE
  8
0
  10
86.88667
  20
100.28118
  30
0
  11
86.96921
  21
99.89107
  31
0
  0
LINE
  8
0
  10
86.96921
  20
99.89107
  30
0
  11
87.00659
  21
99.69639
  31
0
  0
LINE
  8
0
  10
87.00659
  20
99.69639
  30
0
  11
87.02427
  21
99.59915
  31
0
  0
LINE
  8
0
  10
87.02427
  20
99.59915
  30
0
  11
88.05364
  21
99.45594
  31
0
  0
LINE
  8
0
  10
88.05364
  20
99.45594
  30
0
  11
88.0972
  21
99.54467
  31
0
  0
LINE
  8
0
  10
88.0972
  20
99.54467
  30
0
  11
88.1863
  21
99.72176
  31
0
  0
LINE
  8
0
  10
88.1863
  20
99.72176
  30
0
  11
88.37218
  21
100.07452
  31
0
  0
LINE
  8
0
  10
88.37218
  20
100.07452
  30
0
  11
88.56789
  21
100.42539
  31
0
  0
LINE
  8
0
  10
88.56789
  20
100.42539
  30
0
  11
88.77298
  21
100.77438
  31
0
  0
LINE
  8
0
  10
88.77298
  20
100.77438
  30
0
  11
88.82568
  21
100.86133
  31
0
  0
LINE
  8
0
  10
88.82568
  20
100.86133
  30
0
  11
89.81864
  21
100.69124
  31
0
  0
LINE
  8
0
  10
89.81864
  20
100.69124
  30
0
  11
89.8394
  21
100.59171
  31
0
  0
LINE
  8
0
  10
89.8394
  20
100.59171
  30
0
  11
89.91665
  21
100.19436
  31
0
  0
LINE
  8
0
  10
89.91665
  20
100.19436
  30
0
  11
89.98442
  21
99.79835
  31
0
  0
LINE
  8
0
  10
89.98442
  20
99.79835
  30
0
  11
90.04231
  21
99.40384
  31
0
  0
LINE
  8
0
  10
90.04231
  20
99.40384
  30
0
  11
90.06739
  21
99.20719
  31
0
  0
LINE
  8
0
  10
90.06739
  20
99.20719
  30
0
  11
90.07893
  21
99.10903
  31
0
  0
LINE
  8
0
  10
90.07893
  20
99.10903
  30
0
  11
91.09728
  21
98.90147
  31
0
  0
LINE
  8
0
  10
91.09728
  20
98.90147
  30
0
  11
91.14632
  21
98.98728
  31
0
  0
LINE
  8
0
  10
91.14632
  20
98.98728
  30
0
  11
91.24636
  21
99.15843
  31
0
  0
LINE
  8
0
  10
91.24636
  20
99.15843
  30
0
  11
91.45403
  21
99.49882
  31
0
  0
LINE
  8
0
  10
91.45403
  20
99.49882
  30
0
  11
91.67138
  21
99.83672
  31
0
  0
LINE
  8
0
  10
91.67138
  20
99.83672
  30
0
  11
91.89799
  21
100.17214
  31
0
  0
LINE
  8
0
  10
91.89799
  20
100.17214
  30
0
  11
91.95604
  21
100.2556
  31
0
  0
LINE
  8
0
  10
91.95604
  20
100.2556
  30
0
  11
92.93636
  21
100.0235
  31
0
  0
LINE
  8
0
  10
92.93636
  20
100.0235
  30
0
  11
92.95083
  21
99.92287
  31
0
  0
LINE
  8
0
  10
92.95083
  20
99.92287
  30
0
  11
93.00298
  21
99.52145
  31
0
  0
LINE
  8
0
  10
93.00298
  20
99.52145
  30
0
  11
93.04575
  21
99.12197
  31
0
  0
LINE
  8
0
  10
93.04575
  20
99.12197
  30
0
  11
93.07875
  21
98.7246
  31
0
  0
LINE
  8
0
  10
93.07875
  20
98.7246
  30
0
  11
93.09143
  21
98.52676
  31
0
  0
LINE
  8
0
  10
93.09143
  20
98.52676
  30
0
  11
93.09679
  21
98.42807
  31
0
  0
LINE
  8
0
  10
93.09679
  20
98.42807
  30
0
  11
94.10009
  21
98.15698
  31
0
  0
LINE
  8
0
  10
94.10009
  20
98.15698
  30
0
  11
94.15442
  21
98.23955
  31
0
  0
LINE
  8
0
  10
94.15442
  20
98.23955
  30
0
  11
94.26502
  21
98.40407
  31
0
  0
LINE
  8
0
  10
94.26502
  20
98.40407
  30
0
  11
94.49365
  21
98.73076
  31
0
  0
LINE
  8
0
  10
94.49365
  20
98.73076
  30
0
  11
94.73179
  21
99.05434
  31
0
  0
LINE
  8
0
  10
94.73179
  20
99.05434
  30
0
  11
94.97901
  21
99.37486
  31
0
  0
LINE
  8
0
  10
94.97901
  20
99.37486
  30
0
  11
95.04219
  21
99.45452
  31
0
  0
LINE
  8
0
  10
95.04219
  20
99.45452
  30
0
  11
96.006
  21
99.16132
  31
0
  0
LINE
  8
0
  10
96.006
  20
99.16132
  30
0
  11
96.01412
  21
99.05998
  31
0
  0
LINE
  8
0
  10
96.01412
  20
99.05998
  30
0
  11
96.04096
  21
98.65608
  31
0
  0
LINE
  8
0
  10
96.04096
  20
98.65608
  30
0
  11
96.05857
  21
98.2547
  31
0
  0
LINE
  8
0
  10
96.05857
  20
98.2547
  30
0
  11
96.06655
  21
97.85604
  31
0
  0
LINE
  8
0
  10
96.06655
  20
97.85604
  30
0
  11
96.06678
  21
97.6578
  31
0
  0
LINE
  8
0
  10
96.06678
  20
97.6578
  30
0
  11
96.06593
  21
97.55896
  31
0
  0
LINE
  8
0
  10
96.06593
  20
97.55896
  30
0
  11
97.05023
  21
97.22541
  31
0
  0
LINE
  8
0
  10
97.05023
  20
97.22541
  30
0
  11
97.10964
  21
97.3044
  31
0
  0
LINE
  8
0
  10
97.10964
  20
97.3044
  30
0
  11
97.23035
  21
97.46166
  31
0
  0
LINE
  8
0
  10
97.23035
  20
97.46166
  30
0
  11
97.47904
  21
97.77334
  31
0
  0
LINE
  8
0
  10
97.47904
  20
97.77334
  30
0
  11
97.73703
  21
98.08133
  31
0
  0
LINE
  8
0
  10
97.73703
  20
98.08133
  30
0
  11
98.00389
  21
98.3857
  31
0
  0
LINE
  8
0
  10
98.00389
  20
98.3857
  30
0
  11
98.07194
  21
98.46124
  31
0
  0
LINE
  8
0
  10
98.07194
  20
98.46124
  30
0
  11
99.01545
  21
98.1081
  31
0
  0
LINE
  8
0
  10
99.01545
  20
98.1081
  30
0
  11
99.01718
  21
98.00644
  31
0
  0
LINE
  8
0
  10
99.01718
  20
98.00644
  30
0
  11
99.01861
  21
97.60166
  31
0
  0
LINE
  8
0
  10
99.01861
  20
97.60166
  30
0
  11
99.01098
  21
97.19997
  31
0
  0
LINE
  8
0
  10
99.01098
  20
97.19997
  30
0
  11
98.99391
  21
96.80159
  31
0
  0
LINE
  8
0
  10
98.99391
  20
96.80159
  30
0
  11
98.9817
  21
96.60373
  31
0
  0
LINE
  8
0
  10
98.9817
  20
96.60373
  30
0
  11
98.97465
  21
96.50514
  31
0
  0
LINE
  8
0
  10
98.97465
  20
96.50514
  30
0
  11
99.93606
  21
96.11044
  31
0
  0
LINE
  8
0
  10
99.93606
  20
96.11044
  30
0
  11
100.00031
  21
96.18555
  31
0
  0
LINE
  8
0
  10
100.00031
  20
96.18555
  30
0
  11
100.13065
  21
96.33491
  31
0
  0
LINE
  8
0
  10
100.13065
  20
96.33491
  30
0
  11
100.39843
  21
96.63037
  31
0
  0
LINE
  8
0
  10
100.39843
  20
96.63037
  30
0
  11
100.67525
  21
96.92155
  31
0
  0
LINE
  8
0
  10
100.67525
  20
96.92155
  30
0
  11
100.96069
  21
97.20856
  31
0
  0
LINE
  8
0
  10
100.96069
  20
97.20856
  30
0
  11
101.03335
  21
97.27967
  31
0
  0
LINE
  8
0
  10
101.03335
  20
97.27967
  30
0
  11
101.95282
  21
96.86799
  31
0
  0
LINE
  8
0
  10
101.95282
  20
96.86799
  30
0
  11
101.94817
  21
96.76643
  31
0
  0
LINE
  8
0
  10
101.94817
  20
96.76643
  30
0
  11
101.92418
  21
96.36235
  31
0
  0
LINE
  8
0
  10
101.92418
  20
96.36235
  30
0
  11
101.89134
  21
95.96193
  31
0
  0
LINE
  8
0
  10
101.89134
  20
95.96193
  30
0
  11
101.84929
  21
95.56541
  31
0
  0
LINE
  8
0
  10
101.84929
  20
95.56541
  30
0
  11
101.82468
  21
95.3687
  31
0
  0
LINE
  8
0
  10
101.82468
  20
95.3687
  30
0
  11
101.81145
  21
95.27076
  31
0
  0
LINE
  8
0
  10
101.81145
  20
95.27076
  30
0
  11
102.74619
  21
94.81647
  31
0
  0
LINE
  8
0
  10
102.74619
  20
94.81647
  30
0
  11
102.81503
  21
94.88739
  31
0
  0
LINE
  8
0
  10
102.81503
  20
94.88739
  30
0
  11
102.95449
  21
95.02828
  31
0
  0
LINE
  8
0
  10
102.95449
  20
95.02828
  30
0
  11
103.24029
  21
95.30633
  31
0
  0
LINE
  8
0
  10
103.24029
  20
95.30633
  30
0
  11
103.53484
  21
95.57956
  31
0
  0
LINE
  8
0
  10
103.53484
  20
95.57956
  30
0
  11
103.83774
  21
95.84809
  31
0
  0
LINE
  8
0
  10
103.83774
  20
95.84809
  30
0
  11
103.91473
  21
95.91449
  31
0
  0
LINE
  8
0
  10
103.91473
  20
95.91449
  30
0
  11
104.80653
  21
95.44589
  31
0
  0
LINE
  8
0
  10
104.80653
  20
95.44589
  30
0
  11
104.79551
  21
95.34482
  31
0
  0
LINE
  8
0
  10
104.79551
  20
95.34482
  30
0
  11
104.7462
  21
94.94304
  31
0
  0
LINE
  8
0
  10
104.7462
  20
94.94304
  30
0
  11
104.68828
  21
94.54548
  31
0
  0
LINE
  8
0
  10
104.68828
  20
94.54548
  30
0
  11
104.62142
  21
94.15238
  31
0
  0
LINE
  8
0
  10
104.62142
  20
94.15238
  30
0
  11
104.5845
  21
93.95761
  31
0
  0
LINE
  8
0
  10
104.5845
  20
93.95761
  30
0
  11
104.56515
  21
93.86068
  31
0
  0
LINE
  8
0
  10
104.56515
  20
93.86068
  30
0
  11
105.46951
  21
93.3486
  31
0
  0
LINE
  8
0
  10
105.46951
  20
93.3486
  30
0
  11
105.54267
  21
93.41506
  31
0
  0
LINE
  8
0
  10
105.54267
  20
93.41506
  30
0
  11
105.69071
  21
93.54691
  31
0
  0
LINE
  8
0
  10
105.69071
  20
93.54691
  30
0
  11
105.9934
  21
93.80647
  31
0
  0
LINE
  8
0
  10
105.9934
  20
93.80647
  30
0
  11
106.30453
  21
94.06066
  31
0
  0
LINE
  8
0
  10
106.30453
  20
94.06066
  30
0
  11
106.62369
  21
94.30964
  31
0
  0
LINE
  8
0
  10
106.62369
  20
94.30964
  30
0
  11
106.7047
  21
94.37108
  31
0
  0
LINE
  8
0
  10
106.7047
  20
94.37108
  30
0
  11
107.56532
  21
93.84741
  31
0
  0
LINE
  8
0
  10
107.56532
  20
93.84741
  30
0
  11
107.54797
  21
93.74723
  31
0
  0
LINE
  8
0
  10
107.54797
  20
93.74723
  30
0
  11
107.47353
  21
93.34934
  31
0
  0
LINE
  8
0
  10
107.47353
  20
93.34934
  30
0
  11
107.39076
  21
92.9562
  31
0
  0
LINE
  8
0
  10
107.39076
  20
92.9562
  30
0
  11
107.29935
  21
92.56807
  31
0
  0
LINE
  8
0
  10
107.29935
  20
92.56807
  30
0
  11
107.25028
  21
92.376
  31
0
  0
LINE
  8
0
  10
107.25028
  20
92.376
  30
0
  11
107.22487
  21
92.28048
  31
0
  0
LINE
  8
0
  10
107.22487
  20
92.28048
  30
0
  11
108.0953
  21
91.71263
  31
0
  0
LINE
  8
0
  10
108.0953
  20
91.71263
  30
0
  11
108.17249
  21
91.77436
  31
0
  0
LINE
  8
0
  10
108.17249
  20
91.77436
  30
0
  11
108.32851
  21
91.89666
  31
0
  0
LINE
  8
0
  10
108.32851
  20
91.89666
  30
0
  11
108.6469
  21
92.1367
  31
0
  0
LINE
  8
0
  10
108.6469
  20
92.1367
  30
0
  11
108.97338
  21
92.37086
  31
0
  0
LINE
  8
0
  10
108.97338
  20
92.37086
  30
0
  11
109.30754
  21
92.5993
  31
0
  0
LINE
  8
0
  10
109.30754
  20
92.5993
  30
0
  11
109.39225
  21
92.65554
  31
0
  0
LINE
  8
0
  10
109.39225
  20
92.65554
  30
0
  11
110.21829
  21
92.07885
  31
0
  0
LINE
  8
0
  10
110.21829
  20
92.07885
  30
0
  11
110.19469
  21
91.97996
  31
0
  0
LINE
  8
0
  10
110.19469
  20
91.97996
  30
0
  11
110.09541
  21
91.58754
  31
0
  0
LINE
  8
0
  10
110.09541
  20
91.58754
  30
0
  11
109.98812
  21
91.20036
  31
0
  0
LINE
  8
0
  10
109.98812
  20
91.20036
  30
0
  11
109.87251
  21
90.81875
  31
0
  0
LINE
  8
0
  10
109.87251
  20
90.81875
  30
0
  11
109.81148
  21
90.63013
  31
0
  0
LINE
  8
0
  10
109.81148
  20
90.63013
  30
0
  11
109.78013
  21
90.5364
  31
0
  0
LINE
  8
0
  10
109.78013
  20
90.5364
  30
0
  11
110.61318
  21
89.91501
  31
0
  0
LINE
  8
0
  10
110.61318
  20
89.91501
  30
0
  11
110.69409
  21
89.97177
  31
0
  0
LINE
  8
0
  10
110.69409
  20
89.97177
  30
0
  11
110.85749
  21
90.08404
  31
0
  0
LINE
  8
0
  10
110.85749
  20
90.08404
  30
0
  11
111.19032
  21
90.30361
  31
0
  0
LINE
  8
0
  10
111.19032
  20
90.30361
  30
0
  11
111.53086
  21
90.5168
  31
0
  0
LINE
  8
0
  10
111.53086
  20
90.5168
  30
0
  11
111.87871
  21
90.72382
  31
0
  0
LINE
  8
0
  10
111.87871
  20
90.72382
  30
0
  11
111.96678
  21
90.77462
  31
0
  0
LINE
  8
0
  10
111.96678
  20
90.77462
  30
0
  11
112.75498
  21
90.14721
  31
0
  0
LINE
  8
0
  10
112.75498
  20
90.14721
  30
0
  11
112.72521
  21
90.04999
  31
0
  0
LINE
  8
0
  10
112.72521
  20
90.04999
  30
0
  11
112.60149
  21
89.66458
  31
0
  0
LINE
  8
0
  10
112.60149
  20
89.66458
  30
0
  11
112.4701
  21
89.2849
  31
0
  0
LINE
  8
0
  10
112.4701
  20
89.2849
  30
0
  11
112.33076
  21
88.9113
  31
0
  0
LINE
  8
0
  10
112.33076
  20
88.9113
  30
0
  11
112.258
  21
88.72689
  31
0
  0
LINE
  8
0
  10
112.258
  20
88.72689
  30
0
  11
112.22083
  21
88.63531
  31
0
  0
LINE
  8
0
  10
112.22083
  20
88.63531
  30
0
  11
113.01322
  21
87.96284
  31
0
  0
LINE
  8
0
  10
113.01322
  20
87.96284
  30
0
  11
113.09754
  21
88.01441
  31
0
  0
LINE
  8
0
  10
113.09754
  20
88.01441
  30
0
  11
113.26766
  21
88.11619
  31
0
  0
LINE
  8
0
  10
113.26766
  20
88.11619
  30
0
  11
113.61363
  21
88.31443
  31
0
  0
LINE
  8
0
  10
113.61363
  20
88.31443
  30
0
  11
113.96688
  21
88.50582
  31
0
  0
LINE
  8
0
  10
113.96688
  20
88.50582
  30
0
  11
114.32704
  21
88.69059
  31
0
  0
LINE
  8
0
  10
114.32704
  20
88.69059
  30
0
  11
114.41812
  21
88.73576
  31
0
  0
LINE
  8
0
  10
114.41812
  20
88.73576
  30
0
  11
115.16537
  21
88.0601
  31
0
  0
LINE
  8
0
  10
115.16537
  20
88.0601
  30
0
  11
115.12956
  21
87.96494
  31
0
  0
LINE
  8
0
  10
115.12956
  20
87.96494
  30
0
  11
114.98188
  21
87.58805
  31
0
  0
LINE
  8
0
  10
114.98188
  20
87.58805
  30
0
  11
114.82691
  21
87.21738
  31
0
  0
LINE
  8
0
  10
114.82691
  20
87.21738
  30
0
  11
114.66439
  21
86.85326
  31
0
  0
LINE
  8
0
  10
114.66439
  20
86.85326
  30
0
  11
114.5802
  21
86.67379
  31
0
  0
LINE
  8
0
  10
114.5802
  20
86.67379
  30
0
  11
114.53735
  21
86.58472
  31
0
  0
LINE
  8
0
  10
114.53735
  20
86.58472
  30
0
  11
115.28595
  21
85.86382
  31
0
  0
LINE
  8
0
  10
115.28595
  20
85.86382
  30
0
  11
115.37334
  21
85.91
  31
0
  0
LINE
  8
0
  10
115.37334
  20
85.91
  30
0
  11
115.54951
  21
86.00089
  31
0
  0
LINE
  8
0
  10
115.54951
  20
86.00089
  30
0
  11
115.90724
  21
86.17702
  31
0
  0
LINE
  8
0
  10
115.90724
  20
86.17702
  30
0
  11
116.27181
  21
86.34585
  31
0
  0
LINE
  8
0
  10
116.27181
  20
86.34585
  30
0
  11
116.64287
  21
86.50764
  31
0
  0
LINE
  8
0
  10
116.64287
  20
86.50764
  30
0
  11
116.73661
  21
86.547
  31
0
  0
LINE
  8
0
  10
116.73661
  20
86.547
  30
0
  11
117.43996
  21
85.82575
  31
0
  0
LINE
  8
0
  10
117.43996
  20
85.82575
  30
0
  11
117.39824
  21
85.73303
  31
0
  0
LINE
  8
0
  10
117.39824
  20
85.73303
  30
0
  11
117.22719
  21
85.36616
  31
0
  0
LINE
  8
0
  10
117.22719
  20
85.36616
  30
0
  11
117.04925
  21
85.00595
  31
0
  0
LINE
  8
0
  10
117.04925
  20
85.00595
  30
0
  11
116.86419
  21
84.65276
  31
0
  0
LINE
  8
0
  10
116.86419
  20
84.65276
  30
0
  11
116.76889
  21
84.47892
  31
0
  0
LINE
  8
0
  10
116.76889
  20
84.47892
  30
0
  11
116.72053
  21
84.39272
  31
0
  0
LINE
  8
0
  10
116.72053
  20
84.39272
  30
0
  11
117.42239
  21
83.62624
  31
0
  0
LINE
  8
0
  10
117.42239
  20
83.62624
  30
0
  11
117.51251
  21
83.66684
  31
0
  0
LINE
  8
0
  10
117.51251
  20
83.66684
  30
0
  11
117.69404
  21
83.74649
  31
0
  0
LINE
  8
0
  10
117.69404
  20
83.74649
  30
0
  11
118.06213
  21
83.89981
  31
0
  0
LINE
  8
0
  10
118.06213
  20
83.89981
  30
0
  11
118.43658
  21
84.04542
  31
0
  0
LINE
  8
0
  10
118.43658
  20
84.04542
  30
0
  11
118.81706
  21
84.18358
  31
0
  0
LINE
  8
0
  10
118.81706
  20
84.18358
  30
0
  11
118.91308
  21
84.21699
  31
0
  0
LINE
  8
0
  10
118.91308
  20
84.21699
  30
0
  11
119.56976
  21
83.453
  31
0
  0
LINE
  8
0
  10
119.56976
  20
83.453
  30
0
  11
119.52231
  21
83.36308
  31
0
  0
LINE
  8
0
  10
119.52231
  20
83.36308
  30
0
  11
119.32855
  21
83.00767
  31
0
  0
LINE
  8
0
  10
119.32855
  20
83.00767
  30
0
  11
119.12835
  21
82.65934
  31
0
  0
LINE
  8
0
  10
119.12835
  20
82.65934
  30
0
  11
118.92147
  21
82.31846
  31
0
  0
LINE
  8
0
  10
118.92147
  20
82.31846
  30
0
  11
118.81545
  21
82.15096
  31
0
  0
LINE
  8
0
  10
118.81545
  20
82.15096
  30
0
  11
118.76177
  21
82.06797
  31
0
  0
LINE
  8
0
  10
118.76177
  20
82.06797
  30
0
  11
119.41412
  21
81.25892
  31
0
  0
LINE
  8
0
  10
119.41412
  20
81.25892
  30
0
  11
119.50661
  21
81.29378
  31
0
  0
LINE
  8
0
  10
119.50661
  20
81.29378
  30
0
  11
119.69278
  21
81.36188
  31
0
  0
LINE
  8
0
  10
119.69278
  20
81.36188
  30
0
  11
120.06977
  21
81.49179
  31
0
  0
LINE
  8
0
  10
120.06977
  20
81.49179
  30
0
  11
120.45263
  21
81.6136
  31
0
  0
LINE
  8
0
  10
120.45263
  20
81.6136
  30
0
  11
120.84103
  21
81.7276
  31
0
  0
LINE
  8
0
  10
120.84103
  20
81.7276
  30
0
  11
120.93897
  21
81.75491
  31
0
  0
LINE
  8
0
  10
120.93897
  20
81.75491
  30
0
  11
121.54637
  21
80.95119
  31
0
  0
LINE
  8
0
  10
121.54637
  20
80.95119
  30
0
  11
121.49337
  21
80.86443
  31
0
  0
LINE
  8
0
  10
121.49337
  20
80.86443
  30
0
  11
121.27768
  21
80.52189
  31
0
  0
LINE
  8
0
  10
121.27768
  20
80.52189
  30
0
  11
121.056
  21
80.18682
  31
0
  0
LINE
  8
0
  10
121.056
  20
80.18682
  30
0
  11
120.82813
  21
79.8596
  31
0
  0
LINE
  8
0
  10
120.82813
  20
79.8596
  30
0
  11
120.71179
  21
79.69908
  31
0
  0
LINE
  8
0
  10
120.71179
  20
79.69908
  30
0
  11
120.65301
  21
79.61962
  31
0
  0
LINE
  8
0
  10
120.65301
  20
79.61962
  30
0
  11
121.25327
  21
78.77122
  31
0
  0
LINE
  8
0
  10
121.25327
  20
78.77122
  30
0
  11
121.34777
  21
78.8002
  31
0
  0
LINE
  8
0
  10
121.34777
  20
78.8002
  30
0
  11
121.53785
  21
78.85648
  31
0
  0
LINE
  8
0
  10
121.53785
  20
78.85648
  30
0
  11
121.92225
  21
78.96246
  31
0
  0
LINE
  8
0
  10
121.92225
  20
78.96246
  30
0
  11
122.312
  21
79.05998
  31
0
  0
LINE
  8
0
  10
122.312
  20
79.05998
  30
0
  11
122.7068
  21
79.14937
  31
0
  0
LINE
  8
0
  10
122.7068
  20
79.14937
  30
0
  11
122.80625
  21
79.17048
  31
0
  0
LINE
  8
0
  10
122.80625
  20
79.17048
  30
0
  11
123.36199
  21
78.33021
  31
0
  0
LINE
  8
0
  10
123.36199
  20
78.33021
  30
0
  11
123.30365
  21
78.24694
  31
0
  0
LINE
  8
0
  10
123.30365
  20
78.24694
  30
0
  11
123.06688
  21
77.91862
  31
0
  0
LINE
  8
0
  10
123.06688
  20
77.91862
  30
0
  11
122.82459
  21
77.59813
  31
0
  0
LINE
  8
0
  10
122.82459
  20
77.59813
  30
0
  11
122.57663
  21
77.28587
  31
0
  0
LINE
  8
0
  10
122.57663
  20
77.28587
  30
0
  11
122.45044
  21
77.13297
  31
0
  0
LINE
  8
0
  10
122.45044
  20
77.13297
  30
0
  11
122.38679
  21
77.05736
  31
0
  0
LINE
  8
0
  10
122.38679
  20
77.05736
  30
0
  11
122.93259
  21
76.17294
  31
0
  0
LINE
  8
0
  10
122.93259
  20
76.17294
  30
0
  11
123.02872
  21
76.19593
  31
0
  0
LINE
  8
0
  10
123.02872
  20
76.19593
  30
0
  11
123.22196
  21
76.24016
  31
0
  0
LINE
  8
0
  10
123.22196
  20
76.24016
  30
0
  11
123.61226
  21
76.32179
  31
0
  0
LINE
  8
0
  10
123.61226
  20
76.32179
  30
0
  11
124.00736
  21
76.39466
  31
0
  0
LINE
  8
0
  10
124.00736
  20
76.39466
  30
0
  11
124.40699
  21
76.45908
  31
0
  0
LINE
  8
0
  10
124.40699
  20
76.45908
  30
0
  11
124.50758
  21
76.4739
  31
0
  0
LINE
  8
0
  10
124.50758
  20
76.4739
  30
0
  11
125.00946
  21
75.60039
  31
0
  0
LINE
  8
0
  10
125.00946
  20
75.60039
  30
0
  11
124.946
  21
75.52096
  31
0
  0
LINE
  8
0
  10
124.946
  20
75.52096
  30
0
  11
124.68908
  21
75.20815
  31
0
  0
LINE
  8
0
  10
124.68908
  20
75.20815
  30
0
  11
124.42715
  21
74.90351
  31
0
  0
LINE
  8
0
  10
124.42715
  20
74.90351
  30
0
  11
124.16007
  21
74.60743
  31
0
  0
LINE
  8
0
  10
124.16007
  20
74.60743
  30
0
  11
124.02454
  21
74.46276
  31
0
  0
LINE
  8
0
  10
124.02454
  20
74.46276
  30
0
  11
123.95626
  21
74.39129
  31
0
  0
LINE
  8
0
  10
123.95626
  20
74.39129
  30
0
  11
124.44545
  21
73.47434
  31
0
  0
LINE
  8
0
  10
124.44545
  20
73.47434
  30
0
  11
124.54283
  21
73.49126
  31
0
  0
LINE
  8
0
  10
124.54283
  20
73.49126
  30
0
  11
124.73847
  21
73.52327
  31
0
  0
LINE
  8
0
  10
124.73847
  20
73.52327
  30
0
  11
125.13312
  21
73.58023
  31
0
  0
LINE
  8
0
  10
125.13312
  20
73.58023
  30
0
  11
125.53202
  21
73.62814
  31
0
  0
LINE
  8
0
  10
125.53202
  20
73.62814
  30
0
  11
125.93491
  21
73.66734
  31
0
  0
LINE
  8
0
  10
125.93491
  20
73.66734
  30
0
  11
126.03623
  21
73.67581
  31
0
  0
LINE
  8
0
  10
126.03623
  20
73.67581
  30
0
  11
126.48227
  21
72.77252
  31
0
  0
LINE
  8
0
  10
126.48227
  20
72.77252
  30
0
  11
126.41395
  21
72.69722
  31
0
  0
LINE
  8
0
  10
126.41395
  20
72.69722
  30
0
  11
126.1379
  21
72.40117
  31
0
  0
LINE
  8
0
  10
126.1379
  20
72.40117
  30
0
  11
125.85735
  21
72.11357
  31
0
  0
LINE
  8
0
  10
125.85735
  20
72.11357
  30
0
  11
125.57221
  21
71.83485
  31
0
  0
LINE
  8
0
  10
125.57221
  20
71.83485
  30
0
  11
125.42786
  21
71.69897
  31
0
  0
LINE
  8
0
  10
125.42786
  20
71.69897
  30
0
  11
125.35523
  21
71.63194
  31
0
  0
LINE
  8
0
  10
125.35523
  20
71.63194
  30
0
  11
125.78588
  21
70.68608
  31
0
  0
LINE
  8
0
  10
125.78588
  20
70.68608
  30
0
  11
125.88413
  21
70.69685
  31
0
  0
LINE
  8
0
  10
125.88413
  20
70.69685
  30
0
  11
126.08139
  21
70.71651
  31
0
  0
LINE
  8
0
  10
126.08139
  20
70.71651
  30
0
  11
126.47884
  21
70.74858
  31
0
  0
LINE
  8
0
  10
126.47884
  20
70.74858
  30
0
  11
126.87996
  21
70.77134
  31
0
  0
LINE
  8
0
  10
126.87996
  20
70.77134
  30
0
  11
127.28451
  21
70.78517
  31
0
  0
LINE
  8
0
  10
127.28451
  20
70.78517
  30
0
  11
127.38616
  21
70.78727
  31
0
  0
LINE
  8
0
  10
127.38616
  20
70.78727
  30
0
  11
127.77461
  21
69.85774
  31
0
  0
LINE
  8
0
  10
127.77461
  20
69.85774
  30
0
  11
127.7017
  21
69.78689
  31
0
  0
LINE
  8
0
  10
127.7017
  20
69.78689
  30
0
  11
127.4076
  21
69.50875
  31
0
  0
LINE
  8
0
  10
127.4076
  20
69.50875
  30
0
  11
127.10955
  21
69.23934
  31
0
  0
LINE
  8
0
  10
127.10955
  20
69.23934
  30
0
  11
126.80746
  21
68.97907
  31
0
  0
LINE
  8
0
  10
126.80746
  20
68.97907
  30
0
  11
126.65487
  21
68.85253
  31
0
  0
LINE
  8
0
  10
126.65487
  20
68.85253
  30
0
  11
126.57817
  21
68.79018
  31
0
  0
LINE
  8
0
  10
126.57817
  20
68.79018
  30
0
  11
126.94859
  21
67.81915
  31
0
  0
LINE
  8
0
  10
126.94859
  20
67.81915
  30
0
  11
127.04732
  21
67.82373
  31
0
  0
LINE
  8
0
  10
127.04732
  20
67.82373
  30
0
  11
127.24543
  21
67.83096
  31
0
  0
LINE
  8
0
  10
127.24543
  20
67.83096
  30
0
  11
127.64411
  21
67.83801
  31
0
  0
LINE
  8
0
  10
127.64411
  20
67.83801
  30
0
  11
128.04586
  21
67.83555
  31
0
  0
LINE
  8
0
  10
128.04586
  20
67.83555
  30
0
  11
128.45049
  21
67.82395
  31
0
  0
LINE
  8
0
  10
128.45049
  20
67.82395
  30
0
  11
128.55207
  21
67.81966
  31
0
  0
LINE
  8
0
  10
128.55207
  20
67.81966
  30
0
  11
128.88138
  21
66.86758
  31
0
  0
LINE
  8
0
  10
128.88138
  20
66.86758
  30
0
  11
128.80416
  21
66.80144
  31
0
  0
LINE
  8
0
  10
128.80416
  20
66.80144
  30
0
  11
128.49318
  21
66.54232
  31
0
  0
LINE
  8
0
  10
128.49318
  20
66.54232
  30
0
  11
128.1788
  21
66.29215
  31
0
  0
LINE
  8
0
  10
128.1788
  20
66.29215
  30
0
  11
127.86097
  21
66.05137
  31
0
  0
LINE
  8
0
  10
127.86097
  20
66.05137
  30
0
  11
127.70073
  21
65.93465
  31
0
  0
LINE
  8
0
  10
127.70073
  20
65.93465
  30
0
  11
127.62027
  21
65.87725
  31
0
  0
LINE
  8
0
  10
127.62027
  20
65.87725
  30
0
  11
127.92898
  21
64.88488
  31
0
  0
LINE
  8
0
  10
127.92898
  20
64.88488
  30
0
  11
128.02781
  21
64.88324
  31
0
  0
LINE
  8
0
  10
128.02781
  20
64.88324
  30
0
  11
128.22598
  21
64.87802
  31
0
  0
LINE
  8
0
  10
128.22598
  20
64.87802
  30
0
  11
128.62431
  21
64.86003
  31
0
  0
LINE
  8
0
  10
128.62431
  20
64.86003
  30
0
  11
129.02512
  21
64.83234
  31
0
  0
LINE
  8
0
  10
129.02512
  20
64.83234
  30
0
  11
129.42822
  21
64.79536
  31
0
  0
LINE
  8
0
  10
129.42822
  20
64.79536
  30
0
  11
129.52933
  21
64.7847
  31
0
  0
LINE
  8
0
  10
129.52933
  20
64.7847
  30
0
  11
129.79821
  21
63.81382
  31
0
  0
LINE
  8
0
  10
129.79821
  20
63.81382
  30
0
  11
129.71699
  21
63.75266
  31
0
  0
LINE
  8
0
  10
129.71699
  20
63.75266
  30
0
  11
129.39035
  21
63.51358
  31
0
  0
LINE
  8
0
  10
129.39035
  20
63.51358
  30
0
  11
129.06089
  21
63.28364
  31
0
  0
LINE
  8
0
  10
129.06089
  20
63.28364
  30
0
  11
128.72857
  21
63.06329
  31
0
  0
LINE
  8
0
  10
128.72857
  20
63.06329
  30
0
  11
128.56131
  21
62.95687
  31
0
  0
LINE
  8
0
  10
128.56131
  20
62.95687
  30
0
  11
128.47741
  21
62.90463
  31
0
  0
LINE
  8
0
  10
128.47741
  20
62.90463
  30
0
  11
128.7232
  21
61.89483
  31
0
  0
LINE
  8
0
  10
128.7232
  20
61.89483
  30
0
  11
128.82172
  21
61.88699
  31
0
  0
LINE
  8
0
  10
128.82172
  20
61.88699
  30
0
  11
129.01918
  21
61.86934
  31
0
  0
LINE
  8
0
  10
129.01918
  20
61.86934
  30
0
  11
129.4156
  21
61.82637
  31
0
  0
LINE
  8
0
  10
129.4156
  20
61.82637
  30
0
  11
129.81388
  21
61.77357
  31
0
  0
LINE
  8
0
  10
129.81388
  20
61.77357
  30
0
  11
130.21386
  21
61.71135
  31
0
  0
LINE
  8
0
  10
130.21386
  20
61.71135
  30
0
  11
130.3141
  21
61.69436
  31
0
  0
LINE
  8
0
  10
130.3141
  20
61.69436
  30
0
  11
130.52149
  21
60.70851
  31
0
  0
LINE
  8
0
  10
130.52149
  20
60.70851
  30
0
  11
130.43659
  21
60.65258
  31
0
  0
LINE
  8
0
  10
130.43659
  20
60.65258
  30
0
  11
130.09558
  21
60.43447
  31
0
  0
LINE
  8
0
  10
130.09558
  20
60.43447
  30
0
  11
129.75233
  21
60.22568
  31
0
  0
LINE
  8
0
  10
129.75233
  20
60.22568
  30
0
  11
129.40683
  21
60.02663
  31
0
  0
LINE
  8
0
  10
129.40683
  20
60.02663
  30
0
  11
129.23322
  21
59.93092
  31
0
  0
LINE
  8
0
  10
129.23322
  20
59.93092
  30
0
  11
129.1462
  21
59.88405
  31
0
  0
LINE
  8
0
  10
129.1462
  20
59.88405
  30
0
  11
129.3281
  21
58.86081
  31
0
  0
LINE
  8
0
  10
129.3281
  20
58.86081
  30
0
  11
129.42594
  21
58.84681
  31
0
  0
LINE
  8
0
  10
129.42594
  20
58.84681
  30
0
  11
129.6219
  21
58.81679
  31
0
  0
LINE
  8
0
  10
129.6219
  20
58.81679
  30
0
  11
130.01483
  21
58.74901
  31
0
  0
LINE
  8
0
  10
130.01483
  20
58.74901
  30
0
  11
130.40901
  21
58.67131
  31
0
  0
LINE
  8
0
  10
130.40901
  20
58.67131
  30
0
  11
130.8043
  21
58.58409
  31
0
  0
LINE
  8
0
  10
130.8043
  20
58.58409
  30
0
  11
130.90327
  21
58.56084
  31
0
  0
LINE
  8
0
  10
130.90327
  20
58.56084
  30
0
  11
131.04835
  21
57.56392
  31
0
  0
LINE
  8
0
  10
131.04835
  20
57.56392
  30
0
  11
130.96011
  21
57.51343
  31
0
  0
LINE
  8
0
  10
130.96011
  20
57.51343
  30
0
  11
130.60608
  21
57.31717
  31
0
  0
LINE
  8
0
  10
130.60608
  20
57.31717
  30
0
  11
130.2504
  21
57.13034
  31
0
  0
LINE
  8
0
  10
130.2504
  20
57.13034
  30
0
  11
129.89307
  21
56.95338
  31
0
  0
LINE
  8
0
  10
129.89307
  20
56.95338
  30
0
  11
129.7138
  21
56.86875
  31
0
  0
LINE
  8
0
  10
129.7138
  20
56.86875
  30
0
  11
129.62401
  21
56.82744
  31
0
  0
LINE
  8
0
  10
129.62401
  20
56.82744
  30
0
  11
129.7413
  21
55.7948
  31
0
  0
LINE
  8
0
  10
129.7413
  20
55.7948
  30
0
  11
129.83807
  21
55.77468
  31
0
  0
LINE
  8
0
  10
129.83807
  20
55.77468
  30
0
  11
130.03175
  21
55.73242
  31
0
  0
LINE
  8
0
  10
130.03175
  20
55.73242
  30
0
  11
130.41966
  21
55.6401
  31
0
  0
LINE
  8
0
  10
130.41966
  20
55.6401
  30
0
  11
130.80818
  21
55.5378
  31
0
  0
LINE
  8
0
  10
130.80818
  20
55.5378
  30
0
  11
131.19721
  21
55.42594
  31
0
  0
LINE
  8
0
  10
131.19721
  20
55.42594
  30
0
  11
131.29453
  21
55.39652
  31
0
  0
LINE
  8
0
  10
131.29453
  20
55.39652
  30
0
  11
131.37673
  21
54.39245
  31
0
  0
LINE
  8
0
  10
131.37673
  20
54.39245
  30
0
  11
131.28548
  21
54.3476
  31
0
  0
LINE
  8
0
  10
131.28548
  20
54.3476
  30
0
  11
130.91983
  21
54.17396
  31
0
  0
LINE
  8
0
  10
130.91983
  20
54.17396
  30
0
  11
130.55312
  21
54.00983
  31
0
  0
LINE
  8
0
  10
130.55312
  20
54.00983
  30
0
  11
130.18539
  21
53.85565
  31
0
  0
LINE
  8
0
  10
130.18539
  20
53.85565
  30
0
  11
130.00116
  21
53.78246
  31
0
  0
LINE
  8
0
  10
130.00116
  20
53.78246
  30
0
  11
129.90895
  21
53.74686
  31
0
  0
LINE
  8
0
  10
129.90895
  20
53.74686
  30
0
  11
129.96117
  21
52.70889
  31
0
  0
LINE
  8
0
  10
129.96117
  20
52.70889
  30
0
  11
130.05648
  21
52.68274
  31
0
  0
LINE
  8
0
  10
130.05648
  20
52.68274
  30
0
  11
130.24713
  21
52.6284
  31
0
  0
LINE
  8
0
  10
130.24713
  20
52.6284
  30
0
  11
130.62848
  21
52.5119
  31
0
  0
LINE
  8
0
  10
130.62848
  20
52.5119
  30
0
  11
131.00981
  21
52.38541
  31
0
  0
LINE
  8
0
  10
131.00981
  20
52.38541
  30
0
  11
131.39104
  21
52.24934
  31
0
  0
LINE
  8
0
  10
131.39104
  20
52.24934
  30
0
  11
131.48633
  21
52.21387
  31
0
  0
LINE
  8
0
  10
131.48633
  20
52.21387
  30
0
  11
131.50531
  21
51.20663
  31
0
  0
LINE
  8
0
  10
131.50531
  20
51.20663
  30
0
  11
131.41144
  21
51.16759
  31
0
  0
LINE
  8
0
  10
131.41144
  20
51.16759
  30
0
  11
131.0356
  21
51.01725
  31
0
  0
LINE
  8
0
  10
131.0356
  20
51.01725
  30
0
  11
130.65931
  21
50.87647
  31
0
  0
LINE
  8
0
  10
130.65931
  20
50.87647
  30
0
  11
130.28262
  21
50.74569
  31
0
  0
LINE
  8
0
  10
130.28262
  20
50.74569
  30
0
  11
130.09416
  21
50.6842
  31
0
  0
LINE
  8
0
  10
130.09416
  20
50.6842
  30
0
  11
129.9999
  21
50.65447
  31
0
  0
LINE
  8
0
  10
129.9999
  20
50.65447
  30
0
  11
129.98684
  21
49.61527
  31
0
  0
LINE
  8
0
  10
129.98684
  20
49.61527
  30
0
  11
130.08032
  21
49.58318
  31
0
  0
LINE
  8
0
  10
130.08032
  20
49.58318
  30
0
  11
130.26718
  21
49.51698
  31
0
  0
LINE
  8
0
  10
130.26718
  20
49.51698
  30
0
  11
130.64046
  21
49.37677
  31
0
  0
LINE
  8
0
  10
130.64046
  20
49.37677
  30
0
  11
131.0131
  21
49.22658
  31
0
  0
LINE
  8
0
  10
131.0131
  20
49.22658
  30
0
  11
131.38504
  21
49.06684
  31
0
  0
LINE
  8
0
  10
131.38504
  20
49.06684
  30
0
  11
131.4779
  21
49.02546
  31
0
  0
LINE
  8
0
  10
131.4779
  20
49.02546
  30
0
  11
131.43361
  21
48.01901
  31
0
  0
LINE
  8
0
  10
131.43361
  20
48.01901
  30
0
  11
131.33747
  21
47.98594
  31
0
  0
LINE
  8
0
  10
131.33747
  20
47.98594
  30
0
  11
130.95293
  21
47.8595
  31
0
  0
LINE
  8
0
  10
130.95293
  20
47.8595
  30
0
  11
130.56854
  21
47.74263
  31
0
  0
LINE
  8
0
  10
130.56854
  20
47.74263
  30
0
  11
130.18439
  21
47.63576
  31
0
  0
LINE
  8
0
  10
130.18439
  20
47.63576
  30
0
  11
129.99244
  21
47.58623
  31
0
  0
LINE
  8
0
  10
129.99244
  20
47.58623
  30
0
  11
129.8965
  21
47.56247
  31
0
  0
LINE
  8
0
  10
129.8965
  20
47.56247
  30
0
  11
129.81821
  21
46.52614
  31
0
  0
LINE
  8
0
  10
129.81821
  20
46.52614
  30
0
  11
129.90949
  21
46.48824
  31
0
  0
LINE
  8
0
  10
129.90949
  20
46.48824
  30
0
  11
130.09183
  21
46.41044
  31
0
  0
LINE
  8
0
  10
130.09183
  20
46.41044
  30
0
  11
130.45557
  21
46.24707
  31
0
  0
LINE
  8
0
  10
130.45557
  20
46.24707
  30
0
  11
130.81804
  21
46.07378
  31
0
  0
LINE
  8
0
  10
130.81804
  20
46.07378
  30
0
  11
131.17921
  21
45.891
  31
0
  0
LINE
  8
0
  10
131.17921
  20
45.891
  30
0
  11
131.2693
  21
45.84387
  31
0
  0
LINE
  8
0
  10
131.2693
  20
45.84387
  30
0
  11
131.16189
  21
44.84219
  31
0
  0
LINE
  8
0
  10
131.16189
  20
44.84219
  30
0
  11
131.06386
  21
44.81522
  31
0
  0
LINE
  8
0
  10
131.06386
  20
44.81522
  30
0
  11
130.67215
  21
44.71317
  31
0
  0
LINE
  8
0
  10
130.67215
  20
44.71317
  30
0
  11
130.28118
  21
44.62067
  31
0
  0
LINE
  8
0
  10
130.28118
  20
44.62067
  30
0
  11
129.89107
  21
44.53813
  31
0
  0
LINE
  8
0
  10
129.89107
  20
44.53813
  30
0
  11
129.69639
  21
44.50075
  31
0
  0
LINE
  8
0
  10
129.69639
  20
44.50075
  30
0
  11
129.59915
  21
44.48306
  31
0
  0
LINE
  8
0
  10
129.59915
  20
44.48306
  30
0
  11
129.45594
  21
43.4537
  31
0
  0
LINE
  8
0
  10
129.45594
  20
43.4537
  30
0
  11
129.54467
  21
43.41014
  31
0
  0
LINE
  8
0
  10
129.54467
  20
43.41014
  30
0
  11
129.72176
  21
43.32104
  31
0
  0
LINE
  8
0
  10
129.72176
  20
43.32104
  30
0
  11
130.07452
  21
43.13515
  31
0
  0
LINE
  8
0
  10
130.07452
  20
43.13515
  30
0
  11
130.42539
  21
42.93945
  31
0
  0
LINE
  8
0
  10
130.42539
  20
42.93945
  30
0
  11
130.77438
  21
42.73435
  31
0
  0
LINE
  8
0
  10
130.77438
  20
42.73435
  30
0
  11
130.86133
  21
42.68165
  31
0
  0
LINE
  8
0
  10
130.86133
  20
42.68165
  30
0
  11
130.69124
  21
41.68869
  31
0
  0
LINE
  8
0
  10
130.69124
  20
41.68869
  30
0
  11
130.59171
  21
41.66794
  31
0
  0
LINE
  8
0
  10
130.59171
  20
41.66794
  30
0
  11
130.19436
  21
41.59068
  31
0
  0
LINE
  8
0
  10
130.19436
  20
41.59068
  30
0
  11
129.79835
  21
41.52291
  31
0
  0
LINE
  8
0
  10
129.79835
  20
41.52291
  30
0
  11
129.40384
  21
41.46503
  31
0
  0
LINE
  8
0
  10
129.40384
  20
41.46503
  30
0
  11
129.20719
  21
41.43995
  31
0
  0
LINE
  8
0
  10
129.20719
  20
41.43995
  30
0
  11
129.10903
  21
41.4284
  31
0
  0
LINE
  8
0
  10
129.10903
  20
41.4284
  30
0
  11
128.90147
  21
40.41006
  31
0
  0
LINE
  8
0
  10
128.90147
  20
40.41006
  30
0
  11
128.98728
  21
40.36102
  31
0
  0
LINE
  8
0
  10
128.98728
  20
40.36102
  30
0
  11
129.15843
  21
40.26098
  31
0
  0
LINE
  8
0
  10
129.15843
  20
40.26098
  30
0
  11
129.49882
  21
40.0533
  31
0
  0
LINE
  8
0
  10
129.49882
  20
40.0533
  30
0
  11
129.83672
  21
39.83595
  31
0
  0
LINE
  8
0
  10
129.83672
  20
39.83595
  30
0
  11
130.17214
  21
39.60935
  31
0
  0
LINE
  8
0
  10
130.17214
  20
39.60935
  30
0
  11
130.2556
  21
39.5513
  31
0
  0
LINE
  8
0
  10
130.2556
  20
39.5513
  30
0
  11
130.0235
  21
38.57097
  31
0
  0
LINE
  8
0
  10
130.0235
  20
38.57097
  30
0
  11
129.92287
  21
38.55651
  31
0
  0
LINE
  8
0
  10
129.92287
  20
38.55651
  30
0
  11
129.52145
  21
38.50436
  31
0
  0
LINE
  8
0
  10
129.52145
  20
38.50436
  30
0
  11
129.12197
  21
38.46159
  31
0
  0
LINE
  8
0
  10
129.12197
  20
38.46159
  30
0
  11
128.7246
  21
38.42859
  31
0
  0
LINE
  8
0
  10
128.7246
  20
38.42859
  30
0
  11
128.52676
  21
38.4159
  31
0
  0
LINE
  8
0
  10
128.52676
  20
38.4159
  30
0
  11
128.42807
  21
38.41055
  31
0
  0
LINE
  8
0
  10
128.42807
  20
38.41055
  30
0
  11
128.15698
  21
37.40724
  31
0
  0
LINE
  8
0
  10
128.15698
  20
37.40724
  30
0
  11
128.23955
  21
37.35291
  31
0
  0
LINE
  8
0
  10
128.23955
  20
37.35291
  30
0
  11
128.40407
  21
37.24232
  31
0
  0
LINE
  8
0
  10
128.40407
  20
37.24232
  30
0
  11
128.73076
  21
37.01369
  31
0
  0
LINE
  8
0
  10
128.73076
  20
37.01369
  30
0
  11
129.05434
  21
36.77555
  31
0
  0
LINE
  8
0
  10
129.05434
  20
36.77555
  30
0
  11
129.37486
  21
36.52833
  31
0
  0
LINE
  8
0
  10
129.37486
  20
36.52833
  30
0
  11
129.45452
  21
36.46515
  31
0
  0
LINE
  8
0
  10
129.45452
  20
36.46515
  30
0
  11
129.16132
  21
35.50134
  31
0
  0
LINE
  8
0
  10
129.16132
  20
35.50134
  30
0
  11
129.05998
  21
35.49322
  31
0
  0
LINE
  8
0
  10
129.05998
  20
35.49322
  30
0
  11
128.65608
  21
35.46637
  31
0
  0
LINE
  8
0
  10
128.65608
  20
35.46637
  30
0
  11
128.2547
  21
35.44877
  31
0
  0
LINE
  8
0
  10
128.2547
  20
35.44877
  30
0
  11
127.85604
  21
35.44079
  31
0
  0
LINE
  8
0
  10
127.85604
  20
35.44079
  30
0
  11
127.6578
  21
35.44055
  31
0
  0
LINE
  8
0
  10
127.6578
  20
35.44055
  30
0
  11
127.55896
  21
35.4414
  31
0
  0
LINE
  8
0
  10
127.55896
  20
35.4414
  30
0
  11
127.22541
  21
34.4571
  31
0
  0
LINE
  8
0
  10
127.22541
  20
34.4571
  30
0
  11
127.3044
  21
34.39769
  31
0
  0
LINE
  8
0
  10
127.3044
  20
34.39769
  30
0
  11
127.46166
  21
34.27699
  31
0
  0
LINE
  8
0
  10
127.46166
  20
34.27699
  30
0
  11
127.77334
  21
34.02829
  31
0
  0
LINE
  8
0
  10
127.77334
  20
34.02829
  30
0
  11
128.08133
  21
33.7703
  31
0
  0
LINE
  8
0
  10
128.08133
  20
33.7703
  30
0
  11
128.3857
  21
33.50345
  31
0
  0
LINE
  8
0
  10
128.3857
  20
33.50345
  30
0
  11
128.46124
  21
33.43539
  31
0
  0
LINE
  8
0
  10
128.46124
  20
33.43539
  30
0
  11
128.1081
  21
32.49189
  31
0
  0
LINE
  8
0
  10
128.1081
  20
32.49189
  30
0
  11
128.00644
  21
32.49015
  31
0
  0
LINE
  8
0
  10
128.00644
  20
32.49015
  30
0
  11
127.60166
  21
32.48872
  31
0
  0
LINE
  8
0
  10
127.60166
  20
32.48872
  30
0
  11
127.19997
  21
32.49636
  31
0
  0
LINE
  8
0
  10
127.19997
  20
32.49636
  30
0
  11
126.80159
  21
32.51342
  31
0
  0
LINE
  8
0
  10
126.80159
  20
32.51342
  30
0
  11
126.60373
  21
32.52564
  31
0
  0
LINE
  8
0
  10
126.60373
  20
32.52564
  30
0
  11
126.50514
  21
32.53269
  31
0
  0
LINE
  8
0
  10
126.50514
  20
32.53269
  30
0
  11
126.11044
  21
31.57127
  31
0
  0
LINE
  8
0
  10
126.11044
  20
31.57127
  30
0
  11
126.18555
  21
31.50702
  31
0
  0
LINE
  8
0
  10
126.18555
  20
31.50702
  30
0
  11
126.33491
  21
31.37668
  31
0
  0
LINE
  8
0
  10
126.33491
  20
31.37668
  30
0
  11
126.63037
  21
31.10891
  31
0
  0
LINE
  8
0
  10
126.63037
  20
31.10891
  30
0
  11
126.92155
  21
30.83209
  31
0
  0
LINE
  8
0
  10
126.92155
  20
30.83209
  30
0
  11
127.20856
  21
30.54665
  31
0
  0
LINE
  8
0
  10
127.20856
  20
30.54665
  30
0
  11
127.27967
  21
30.47398
  31
0
  0
LINE
  8
0
  10
127.27967
  20
30.47398
  30
0
  11
126.86799
  21
29.55452
  31
0
  0
LINE
  8
0
  10
126.86799
  20
29.55452
  30
0
  11
126.76643
  21
29.55917
  31
0
  0
LINE
  8
0
  10
126.76643
  20
29.55917
  30
0
  11
126.36235
  21
29.58316
  31
0
  0
LINE
  8
0
  10
126.36235
  20
29.58316
  30
0
  11
125.96193
  21
29.616
  31
0
  0
LINE
  8
0
  10
125.96193
  20
29.616
  30
0
  11
125.56541
  21
29.65804
  31
0
  0
LINE
  8
0
  10
125.56541
  20
29.65804
  30
0
  11
125.3687
  21
29.68266
  31
0
  0
LINE
  8
0
  10
125.3687
  20
29.68266
  30
0
  11
125.27076
  21
29.69589
  31
0
  0
LINE
  8
0
  10
125.27076
  20
29.69589
  30
0
  11
124.81647
  21
28.76115
  31
0
  0
LINE
  8
0
  10
124.81647
  20
28.76115
  30
0
  11
124.88739
  21
28.69231
  31
0
  0
LINE
  8
0
  10
124.88739
  20
28.69231
  30
0
  11
125.02828
  21
28.55285
  31
0
  0
LINE
  8
0
  10
125.02828
  20
28.55285
  30
0
  11
125.30633
  21
28.26705
  31
0
  0
LINE
  8
0
  10
125.30633
  20
28.26705
  30
0
  11
125.57956
  21
27.97249
  31
0
  0
LINE
  8
0
  10
125.57956
  20
27.97249
  30
0
  11
125.84809
  21
27.6696
  31
0
  0
LINE
  8
0
  10
125.84809
  20
27.6696
  30
0
  11
125.91449
  21
27.59261
  31
0
  0
LINE
  8
0
  10
125.91449
  20
27.59261
  30
0
  11
125.44589
  21
26.70081
  31
0
  0
LINE
  8
0
  10
125.44589
  20
26.70081
  30
0
  11
125.34482
  21
26.71182
  31
0
  0
LINE
  8
0
  10
125.34482
  20
26.71182
  30
0
  11
124.94304
  21
26.76114
  31
0
  0
LINE
  8
0
  10
124.94304
  20
26.76114
  30
0
  11
124.54548
  21
26.81906
  31
0
  0
LINE
  8
0
  10
124.54548
  20
26.81906
  30
0
  11
124.15238
  21
26.88592
  31
0
  0
LINE
  8
0
  10
124.15238
  20
26.88592
  30
0
  11
123.95761
  21
26.92283
  31
0
  0
LINE
  8
0
  10
123.95761
  20
26.92283
  30
0
  11
123.86068
  21
26.94219
  31
0
  0
LINE
  8
0
  10
123.86068
  20
26.94219
  30
0
  11
123.3486
  21
26.03782
  31
0
  0
LINE
  8
0
  10
123.3486
  20
26.03782
  30
0
  11
123.41506
  21
25.96466
  31
0
  0
LINE
  8
0
  10
123.41506
  20
25.96466
  30
0
  11
123.54691
  21
25.81663
  31
0
  0
LINE
  8
0
  10
123.54691
  20
25.81663
  30
0
  11
123.80647
  21
25.51394
  31
0
  0
LINE
  8
0
  10
123.80647
  20
25.51394
  30
0
  11
124.06066
  21
25.20281
  31
0
  0
LINE
  8
0
  10
124.06066
  20
25.20281
  30
0
  11
124.30964
  21
24.88364
  31
0
  0
LINE
  8
0
  10
124.30964
  20
24.88364
  30
0
  11
124.37108
  21
24.80264
  31
0
  0
LINE
  8
0
  10
124.37108
  20
24.80264
  30
0
  11
123.84741
  21
23.94202
  31
0
  0
LINE
  8
0
  10
123.84741
  20
23.94202
  30
0
  11
123.74723
  21
23.95936
  31
0
  0
LINE
  8
0
  10
123.74723
  20
23.95936
  30
0
  11
123.34934
  21
24.03381
  31
0
  0
LINE
  8
0
  10
123.34934
  20
24.03381
  30
0
  11
122.9562
  21
24.11658
  31
0
  0
LINE
  8
0
  10
122.9562
  20
24.11658
  30
0
  11
122.56807
  21
24.20799
  31
0
  0
LINE
  8
0
  10
122.56807
  20
24.20799
  30
0
  11
122.376
  21
24.25706
  31
0
  0
LINE
  8
0
  10
122.376
  20
24.25706
  30
0
  11
122.28048
  21
24.28246
  31
0
  0
LINE
  8
0
  10
122.28048
  20
24.28246
  30
0
  11
121.71263
  21
23.41203
  31
0
  0
LINE
  8
0
  10
121.71263
  20
23.41203
  30
0
  11
121.77436
  21
23.33485
  31
0
  0
LINE
  8
0
  10
121.77436
  20
23.33485
  30
0
  11
121.89666
  21
23.17883
  31
0
  0
LINE
  8
0
  10
121.89666
  20
23.17883
  30
0
  11
122.1367
  21
22.86043
  31
0
  0
LINE
  8
0
  10
122.1367
  20
22.86043
  30
0
  11
122.37086
  21
22.53396
  31
0
  0
LINE
  8
0
  10
122.37086
  20
22.53396
  30
0
  11
122.5993
  21
22.19979
  31
0
  0
LINE
  8
0
  10
122.5993
  20
22.19979
  30
0
  11
122.65554
  21
22.11509
  31
0
  0
LINE
  8
0
  10
122.65554
  20
22.11509
  30
0
  11
122.07885
  21
21.28905
  31
0
  0
LINE
  8
0
  10
122.07885
  20
21.28905
  30
0
  11
121.97996
  21
21.31265
  31
0
  0
LINE
  8
0
  10
121.97996
  20
21.31265
  30
0
  11
121.58754
  21
21.41193
  31
0
  0
LINE
  8
0
  10
121.58754
  20
21.41193
  30
0
  11
121.20036
  21
21.51922
  31
0
  0
LINE
  8
0
  10
121.20036
  20
21.51922
  30
0
  11
120.81875
  21
21.63482
  31
0
  0
LINE
  8
0
  10
120.81875
  20
21.63482
  30
0
  11
120.63013
  21
21.69586
  31
0
  0
LINE
  8
0
  10
120.63013
  20
21.69586
  30
0
  11
120.5364
  21
21.72721
  31
0
  0
LINE
  8
0
  10
120.5364
  20
21.72721
  30
0
  11
119.91501
  21
20.89415
  31
0
  0
LINE
  8
0
  10
119.91501
  20
20.89415
  30
0
  11
119.97177
  21
20.81324
  31
0
  0
LINE
  8
0
  10
119.97177
  20
20.81324
  30
0
  11
120.08404
  21
20.64985
  31
0
  0
LINE
  8
0
  10
120.08404
  20
20.64985
  30
0
  11
120.30361
  21
20.31701
  31
0
  0
LINE
  8
0
  10
120.30361
  20
20.31701
  30
0
  11
120.5168
  21
19.97648
  31
0
  0
LINE
  8
0
  10
120.5168
  20
19.97648
  30
0
  11
120.72382
  21
19.62863
  31
0
  0
LINE
  8
0
  10
120.72382
  20
19.62863
  30
0
  11
120.77462
  21
19.54056
  31
0
  0
LINE
  8
0
  10
120.77462
  20
19.54056
  30
0
  11
120.14721
  21
18.75236
  31
0
  0
LINE
  8
0
  10
120.14721
  20
18.75236
  30
0
  11
120.04999
  21
18.78212
  31
0
  0
LINE
  8
0
  10
120.04999
  20
18.78212
  30
0
  11
119.66458
  21
18.90585
  31
0
  0
LINE
  8
0
  10
119.66458
  20
18.90585
  30
0
  11
119.2849
  21
19.03724
  31
0
  0
LINE
  8
0
  10
119.2849
  20
19.03724
  30
0
  11
118.9113
  21
19.17657
  31
0
  0
LINE
  8
0
  10
118.9113
  20
19.17657
  30
0
  11
118.72689
  21
19.24933
  31
0
  0
LINE
  8
0
  10
118.72689
  20
19.24933
  30
0
  11
118.63531
  21
19.28651
  31
0
  0
LINE
  8
0
  10
118.63531
  20
19.28651
  30
0
  11
117.96284
  21
18.49411
  31
0
  0
LINE
  8
0
  10
117.96284
  20
18.49411
  30
0
  11
118.01441
  21
18.4098
  31
0
  0
LINE
  8
0
  10
118.01441
  20
18.4098
  30
0
  11
118.11619
  21
18.23968
  31
0
  0
LINE
  8
0
  10
118.11619
  20
18.23968
  30
0
  11
118.31443
  21
17.89371
  31
0
  0
LINE
  8
0
  10
118.31443
  20
17.89371
  30
0
  11
118.50582
  21
17.54046
  31
0
  0
LINE
  8
0
  10
118.50582
  20
17.54046
  30
0
  11
118.69059
  21
17.1803
  31
0
  0
LINE
  8
0
  10
118.69059
  20
17.1803
  30
0
  11
118.73576
  21
17.08922
  31
0
  0
LINE
  8
0
  10
118.73576
  20
17.08922
  30
0
  11
118.0601
  21
16.34197
  31
0
  0
LINE
  8
0
  10
118.0601
  20
16.34197
  30
0
  11
117.96494
  21
16.37777
  31
0
  0
LINE
  8
0
  10
117.96494
  20
16.37777
  30
0
  11
117.58805
  21
16.52546
  31
0
  0
LINE
  8
0
  10
117.58805
  20
16.52546
  30
0
  11
117.21738
  21
16.68043
  31
0
  0
LINE
  8
0
  10
117.21738
  20
16.68043
  30
0
  11
116.85326
  21
16.84295
  31
0
  0
LINE
  8
0
  10
116.85326
  20
16.84295
  30
0
  11
116.67379
  21
16.92714
  31
0
  0
LINE
  8
0
  10
116.67379
  20
16.92714
  30
0
  11
116.58472
  21
16.96999
  31
0
  0
LINE
  8
0
  10
116.58472
  20
16.96999
  30
0
  11
115.86382
  21
16.22139
  31
0
  0
LINE
  8
0
  10
115.86382
  20
16.22139
  30
0
  11
115.91
  21
16.134
  31
0
  0
LINE
  8
0
  10
115.91
  20
16.134
  30
0
  11
116.00089
  21
15.95783
  31
0
  0
LINE
  8
0
  10
116.00089
  20
15.95783
  30
0
  11
116.17702
  21
15.60009
  31
0
  0
LINE
  8
0
  10
116.17702
  20
15.60009
  30
0
  11
116.34585
  21
15.23552
  31
0
  0
LINE
  8
0
  10
116.34585
  20
15.23552
  30
0
  11
116.50764
  21
14.86447
  31
0
  0
LINE
  8
0
  10
116.50764
  20
14.86447
  30
0
  11
116.547
  21
14.77073
  31
0
  0
LINE
  8
0
  10
116.547
  20
14.77073
  30
0
  11
115.82575
  21
14.06738
  31
0
  0
LINE
  8
0
  10
115.82575
  20
14.06738
  30
0
  11
115.73303
  21
14.10909
  31
0
  0
LINE
  8
0
  10
115.73303
  20
14.10909
  30
0
  11
115.36616
  21
14.28015
  31
0
  0
LINE
  8
0
  10
115.36616
  20
14.28015
  30
0
  11
115.00595
  21
14.45809
  31
0
  0
LINE
  8
0
  10
115.00595
  20
14.45809
  30
0
  11
114.65276
  21
14.64315
  31
0
  0
LINE
  8
0
  10
114.65276
  20
14.64315
  30
0
  11
114.47892
  21
14.73845
  31
0
  0
LINE
  8
0
  10
114.47892
  20
14.73845
  30
0
  11
114.39272
  21
14.7868
  31
0
  0
LINE
  8
0
  10
114.39272
  20
14.7868
  30
0
  11
113.62624
  21
14.08494
  31
0
  0
LINE
  8
0
  10
113.62624
  20
14.08494
  30
0
  11
113.66684
  21
13.99483
  31
0
  0
LINE
  8
0
  10
113.66684
  20
13.99483
  30
0
  11
113.74649
  21
13.8133
  31
0
  0
LINE
  8
0
  10
113.74649
  20
13.8133
  30
0
  11
113.89981
  21
13.44521
  31
0
  0
LINE
  8
0
  10
113.89981
  20
13.44521
  30
0
  11
114.04542
  21
13.07076
  31
0
  0
LINE
  8
0
  10
114.04542
  20
13.07076
  30
0
  11
114.18358
  21
12.69028
  31
0
  0
LINE
  8
0
  10
114.18358
  20
12.69028
  30
0
  11
114.21699
  21
12.59425
  31
0
  0
LINE
  8
0
  10
114.21699
  20
12.59425
  30
0
  11
113.453
  21
11.93758
  31
0
  0
LINE
  8
0
  10
113.453
  20
11.93758
  30
0
  11
113.36308
  21
11.98503
  31
0
  0
LINE
  8
0
  10
113.36308
  20
11.98503
  30
0
  11
113.00767
  21
12.17878
  31
0
  0
LINE
  8
0
  10
113.00767
  20
12.17878
  30
0
  11
112.65934
  21
12.37899
  31
0
  0
LINE
  8
0
  10
112.65934
  20
12.37899
  30
0
  11
112.31846
  21
12.58586
  31
0
  0
LINE
  8
0
  10
112.31846
  20
12.58586
  30
0
  11
112.15096
  21
12.69189
  31
0
  0
LINE
  8
0
  10
112.15096
  20
12.69189
  30
0
  11
112.06797
  21
12.74556
  31
0
  0
LINE
  8
0
  10
112.06797
  20
12.74556
  30
0
  11
111.25892
  21
12.09322
  31
0
  0
LINE
  8
0
  10
111.25892
  20
12.09322
  30
0
  11
111.29378
  21
12.00073
  31
0
  0
LINE
  8
0
  10
111.29378
  20
12.00073
  30
0
  11
111.36188
  21
11.81455
  31
0
  0
LINE
  8
0
  10
111.36188
  20
11.81455
  30
0
  11
111.49179
  21
11.43756
  31
0
  0
LINE
  8
0
  10
111.49179
  20
11.43756
  30
0
  11
111.6136
  21
11.05471
  31
0
  0
LINE
  8
0
  10
111.6136
  20
11.05471
  30
0
  11
111.7276
  21
10.66631
  31
0
  0
LINE
  8
0
  10
111.7276
  20
10.66631
  30
0
  11
111.75491
  21
10.56837
  31
0
  0
LINE
  8
0
  10
111.75491
  20
10.56837
  30
0
  11
110.95119
  21
9.96097
  31
0
  0
LINE
  8
0
  10
110.95119
  20
9.96097
  30
0
  11
110.86443
  21
10.01397
  31
0
  0
LINE
  8
0
  10
110.86443
  20
10.01397
  30
0
  11
110.52189
  21
10.22966
  31
0
  0
LINE
  8
0
  10
110.52189
  20
10.22966
  30
0
  11
110.18682
  21
10.45134
  31
0
  0
LINE
  8
0
  10
110.18682
  20
10.45134
  30
0
  11
109.8596
  21
10.67921
  31
0
  0
LINE
  8
0
  10
109.8596
  20
10.67921
  30
0
  11
109.69908
  21
10.79554
  31
0
  0
LINE
  8
0
  10
109.69908
  20
10.79554
  30
0
  11
109.61962
  21
10.85432
  31
0
  0
LINE
  8
0
  10
109.61962
  20
10.85432
  30
0
  11
108.77122
  21
10.25406
  31
0
  0
LINE
  8
0
  10
108.77122
  20
10.25406
  30
0
  11
108.8002
  21
10.15957
  31
0
  0
LINE
  8
0
  10
108.8002
  20
10.15957
  30
0
  11
108.85648
  21
9.96948
  31
0
  0
LINE
  8
0
  10
108.85648
  20
9.96948
  30
0
  11
108.96246
  21
9.58508
  31
0
  0
LINE
  8
0
  10
108.96246
  20
9.58508
  30
0
  11
109.05998
  21
9.19534
  31
0
  0
LINE
  8
0
  10
109.05998
  20
9.19534
  30
0
  11
109.14937
  21
8.80054
  31
0
  0
LINE
  8
0
  10
109.14937
  20
8.80054
  30
0
  11
109.17048
  21
8.70108
  31
0
  0
LINE
  8
0
  10
109.17048
  20
8.70108
  30
0
  11
108.33021
  21
8.14534
  31
0
  0
LINE
  8
0
  10
108.33021
  20
8.14534
  30
0
  11
108.24694
  21
8.20369
  31
0
  0
LINE
  8
0
  10
108.24694
  20
8.20369
  30
0
  11
107.91862
  21
8.44046
  31
0
  0
LINE
  8
0
  10
107.91862
  20
8.44046
  30
0
  11
107.59813
  21
8.68274
  31
0
  0
LINE
  8
0
  10
107.59813
  20
8.68274
  30
0
  11
107.28587
  21
8.93071
  31
0
  0
LINE
  8
0
  10
107.28587
  20
8.93071
  30
0
  11
107.13297
  21
9.05689
  31
0
  0
LINE
  8
0
  10
107.13297
  20
9.05689
  30
0
  11
107.05736
  21
9.12055
  31
0
  0
LINE
  8
0
  10
107.05736
  20
9.12055
  30
0
  11
106.17294
  21
8.57474
  31
0
  0
LINE
  8
0
  10
106.17294
  20
8.57474
  30
0
  11
106.19593
  21
8.47862
  31
0
  0
LINE
  8
0
  10
106.19593
  20
8.47862
  30
0
  11
106.24016
  21
8.28537
  31
0
  0
LINE
  8
0
  10
106.24016
  20
8.28537
  30
0
  11
106.32179
  21
7.89508
  31
0
  0
LINE
  8
0
  10
106.32179
  20
7.89508
  30
0
  11
106.39466
  21
7.49997
  31
0
  0
LINE
  8
0
  10
106.39466
  20
7.49997
  30
0
  11
106.45908
  21
7.10034
  31
0
  0
LINE
  8
0
  10
106.45908
  20
7.10034
  30
0
  11
106.4739
  21
6.99976
  31
0
  0
LINE
  8
0
  10
106.4739
  20
6.99976
  30
0
  11
105.60039
  21
6.49788
  31
0
  0
LINE
  8
0
  10
105.60039
  20
6.49788
  30
0
  11
105.52096
  21
6.56133
  31
0
  0
LINE
  8
0
  10
105.52096
  20
6.56133
  30
0
  11
105.20815
  21
6.81825
  31
0
  0
LINE
  8
0
  10
105.20815
  20
6.81825
  30
0
  11
104.90351
  21
7.08018
  31
0
  0
LINE
  8
0
  10
104.90351
  20
7.08018
  30
0
  11
104.60743
  21
7.34727
  31
0
  0
LINE
  8
0
  10
104.60743
  20
7.34727
  30
0
  11
104.46276
  21
7.4828
  31
0
  0
LINE
  8
0
  10
104.46276
  20
7.4828
  30
0
  11
104.39129
  21
7.55108
  31
0
  0
LINE
  8
0
  10
104.39129
  20
7.55108
  30
0
  11
103.47434
  21
7.06188
  31
0
  0
LINE
  8
0
  10
103.47434
  20
7.06188
  30
0
  11
103.49126
  21
6.9645
  31
0
  0
LINE
  8
0
  10
103.49126
  20
6.9645
  30
0
  11
103.52327
  21
6.76886
  31
0
  0
LINE
  8
0
  10
103.52327
  20
6.76886
  30
0
  11
103.58023
  21
6.37421
  31
0
  0
LINE
  8
0
  10
103.58023
  20
6.37421
  30
0
  11
103.62814
  21
5.97531
  31
0
  0
LINE
  8
0
  10
103.62814
  20
5.97531
  30
0
  11
103.66734
  21
5.57243
  31
0
  0
LINE
  8
0
  10
103.66734
  20
5.57243
  30
0
  11
103.67581
  21
5.47111
  31
0
  0
LINE
  8
0
  10
103.67581
  20
5.47111
  30
0
  11
102.77252
  21
5.02507
  31
0
  0
LINE
  8
0
  10
102.77252
  20
5.02507
  30
0
  11
102.69722
  21
5.09339
  31
0
  0
LINE
  8
0
  10
102.69722
  20
5.09339
  30
0
  11
102.40117
  21
5.36944
  31
0
  0
LINE
  8
0
  10
102.40117
  20
5.36944
  30
0
  11
102.11357
  21
5.64998
  31
0
  0
LINE
  8
0
  10
102.11357
  20
5.64998
  30
0
  11
101.83485
  21
5.93513
  31
0
  0
LINE
  8
0
  10
101.83485
  20
5.93513
  30
0
  11
101.69897
  21
6.07948
  31
0
  0
LINE
  8
0
  10
101.69897
  20
6.07948
  30
0
  11
101.63194
  21
6.15211
  31
0
  0
LINE
  8
0
  10
101.63194
  20
6.15211
  30
0
  11
100.68608
  21
5.72146
  31
0
  0
LINE
  8
0
  10
100.68608
  20
5.72146
  30
0
  11
100.69685
  21
5.62321
  31
0
  0
LINE
  8
0
  10
100.69685
  20
5.62321
  30
0
  11
100.71651
  21
5.42594
  31
0
  0
LINE
  8
0
  10
100.71651
  20
5.42594
  30
0
  11
100.74858
  21
5.02849
  31
0
  0
LINE
  8
0
  10
100.74858
  20
5.02849
  30
0
  11
100.77134
  21
4.62737
  31
0
  0
LINE
  8
0
  10
100.77134
  20
4.62737
  30
0
  11
100.78517
  21
4.22282
  31
0
  0
LINE
  8
0
  10
100.78517
  20
4.22282
  30
0
  11
100.78727
  21
4.12117
  31
0
  0
LINE
  8
0
  10
100.78727
  20
4.12117
  30
0
  11
99.85774
  21
3.73273
  31
0
  0
LINE
  8
0
  10
99.85774
  20
3.73273
  30
0
  11
99.78689
  21
3.80564
  31
0
  0
LINE
  8
0
  10
99.78689
  20
3.80564
  30
0
  11
99.50875
  21
4.09974
  31
0
  0
LINE
  8
0
  10
99.50875
  20
4.09974
  30
0
  11
99.23934
  21
4.39778
  31
0
  0
LINE
  8
0
  10
99.23934
  20
4.39778
  30
0
  11
98.97907
  21
4.69987
  31
0
  0
LINE
  8
0
  10
98.97907
  20
4.69987
  30
0
  11
98.85253
  21
4.85247
  31
0
  0
LINE
  8
0
  10
98.85253
  20
4.85247
  30
0
  11
98.79018
  21
4.92916
  31
0
  0
LINE
  8
0
  10
98.79018
  20
4.92916
  30
0
  11
97.81915
  21
4.55875
  31
0
  0
LINE
  8
0
  10
97.81915
  20
4.55875
  30
0
  11
97.82373
  21
4.46002
  31
0
  0
LINE
  8
0
  10
97.82373
  20
4.46002
  30
0
  11
97.83096
  21
4.26191
  31
0
  0
LINE
  8
0
  10
97.83096
  20
4.26191
  30
0
  11
97.83801
  21
3.86323
  31
0
  0
LINE
  8
0
  10
97.83801
  20
3.86323
  30
0
  11
97.83555
  21
3.46147
  31
0
  0
LINE
  8
0
  10
97.83555
  20
3.46147
  30
0
  11
97.82395
  21
3.05685
  31
0
  0
LINE
  8
0
  10
97.82395
  20
3.05685
  30
0
  11
97.81966
  21
2.95527
  31
0
  0
LINE
  8
0
  10
97.81966
  20
2.95527
  30
0
  11
96.86758
  21
2.62596
  31
0
  0
LINE
  8
0
  10
96.86758
  20
2.62596
  30
0
  11
96.80144
  21
2.70318
  31
0
  0
LINE
  8
0
  10
96.80144
  20
2.70318
  30
0
  11
96.54232
  21
3.01416
  31
0
  0
LINE
  8
0
  10
96.54232
  20
3.01416
  30
0
  11
96.29215
  21
3.32853
  31
0
  0
LINE
  8
0
  10
96.29215
  20
3.32853
  30
0
  11
96.05137
  21
3.64637
  31
0
  0
LINE
  8
0
  10
96.05137
  20
3.64637
  30
0
  11
95.93465
  21
3.80661
  31
0
  0
LINE
  8
0
  10
95.93465
  20
3.80661
  30
0
  11
95.87725
  21
3.88706
  31
0
  0
LINE
  8
0
  10
95.87725
  20
3.88706
  30
0
  11
94.88488
  21
3.57835
  31
0
  0
LINE
  8
0
  10
94.88488
  20
3.57835
  30
0
  11
94.88324
  21
3.47953
  31
0
  0
LINE
  8
0
  10
94.88324
  20
3.47953
  30
0
  11
94.87802
  21
3.28136
  31
0
  0
LINE
  8
0
  10
94.87802
  20
3.28136
  30
0
  11
94.86003
  21
2.88302
  31
0
  0
LINE
  8
0
  10
94.86003
  20
2.88302
  30
0
  11
94.83234
  21
2.48221
  31
0
  0
LINE
  8
0
  10
94.83234
  20
2.48221
  30
0
  11
94.79536
  21
2.07912
  31
0
  0
LINE
  8
0
  10
94.79536
  20
2.07912
  30
0
  11
94.7847
  21
1.97801
  31
0
  0
LINE
  8
0
  10
94.7847
  20
1.97801
  30
0
  11
93.81382
  21
1.70912
  31
0
  0
LINE
  8
0
  10
93.81382
  20
1.70912
  30
0
  11
93.75266
  21
1.79034
  31
0
  0
LINE
  8
0
  10
93.75266
  20
1.79034
  30
0
  11
93.51358
  21
2.11698
  31
0
  0
LINE
  8
0
  10
93.51358
  20
2.11698
  30
0
  11
93.28364
  21
2.44645
  31
0
  0
LINE
  8
0
  10
93.28364
  20
2.44645
  30
0
  11
93.06329
  21
2.77877
  31
0
  0
LINE
  8
0
  10
93.06329
  20
2.77877
  30
0
  11
92.95687
  21
2.94602
  31
0
  0
LINE
  8
0
  10
92.95687
  20
2.94602
  30
0
  11
92.90463
  21
3.02993
  31
0
  0
LINE
  8
0
  10
92.90463
  20
3.02993
  30
0
  11
91.89483
  21
2.78414
  31
0
  0
LINE
  8
0
  10
91.89483
  20
2.78414
  30
0
  11
91.88699
  21
2.68561
  31
0
  0
LINE
  8
0
  10
91.88699
  20
2.68561
  30
0
  11
91.86934
  21
2.48816
  31
0
  0
LINE
  8
0
  10
91.86934
  20
2.48816
  30
0
  11
91.82637
  21
2.09174
  31
0
  0
LINE
  8
0
  10
91.82637
  20
2.09174
  30
0
  11
91.77357
  21
1.69346
  31
0
  0
LINE
  8
0
  10
91.77357
  20
1.69346
  30
0
  11
91.71135
  21
1.29348
  31
0
  0
LINE
  8
0
  10
91.71135
  20
1.29348
  30
0
  11
91.69436
  21
1.19324
  31
0
  0
LINE
  8
0
  10
91.69436
  20
1.19324
  30
0
  11
90.70851
  21
0.98585
  31
0
  0
LINE
  8
0
  10
90.70851
  20
0.98585
  30
0
  11
90.65258
  21
1.07075
  31
0
  0
LINE
  8
0
  10
90.65258
  20
1.07075
  30
0
  11
90.43447
  21
1.41175
  31
0
  0
LINE
  8
0
  10
90.43447
  20
1.41175
  30
0
  11
90.22568
  21
1.755
  31
0
  0
LINE
  8
0
  10
90.22568
  20
1.755
  30
0
  11
90.02663
  21
2.10051
  31
0
  0
LINE
  8
0
  10
90.02663
  20
2.10051
  30
0
  11
89.93092
  21
2.27412
  31
0
  0
LINE
  8
0
  10
89.93092
  20
2.27412
  30
0
  11
89.88405
  21
2.36113
  31
0
  0
LINE
  8
0
  10
89.88405
  20
2.36113
  30
0
  11
88.86081
  21
2.17924
  31
0
  0
LINE
  8
0
  10
88.86081
  20
2.17924
  30
0
  11
88.84681
  21
2.0814
  31
0
  0
LINE
  8
0
  10
88.84681
  20
2.0814
  30
0
  11
88.81679
  21
1.88544
  31
0
  0
LINE
  8
0
  10
88.81679
  20
1.88544
  30
0
  11
88.74901
  21
1.4925
  31
0
  0
LINE
  8
0
  10
88.74901
  20
1.4925
  30
0
  11
88.67131
  21
1.09832
  31
0
  0
LINE
  8
0
  10
88.67131
  20
1.09832
  30
0
  11
88.58409
  21
0.70304
  31
0
  0
LINE
  8
0
  10
88.58409
  20
0.70304
  30
0
  11
88.56084
  21
0.60406
  31
0
  0
LINE
  8
0
  10
88.56084
  20
0.60406
  30
0
  11
87.56392
  21
0.45898
  31
0
  0
LINE
  8
0
  10
87.56392
  20
0.45898
  30
0
  11
87.51343
  21
0.54723
  31
0
  0
LINE
  8
0
  10
87.51343
  20
0.54723
  30
0
  11
87.31717
  21
0.90126
  31
0
  0
LINE
  8
0
  10
87.31717
  20
0.90126
  30
0
  11
87.13034
  21
1.25694
  31
0
  0
LINE
  8
0
  10
87.13034
  20
1.25694
  30
0
  11
86.95338
  21
1.61426
  31
0
  0
LINE
  8
0
  10
86.95338
  20
1.61426
  30
0
  11
86.86875
  21
1.79353
  31
0
  0
LINE
  8
0
  10
86.86875
  20
1.79353
  30
0
  11
86.82744
  21
1.88332
  31
0
  0
LINE
  8
0
  10
86.82744
  20
1.88332
  30
0
  11
85.7948
  21
1.76604
  31
0
  0
LINE
  8
0
  10
85.7948
  20
1.76604
  30
0
  11
85.77468
  21
1.66927
  31
0
  0
LINE
  8
0
  10
85.77468
  20
1.66927
  30
0
  11
85.73242
  21
1.47558
  31
0
  0
LINE
  8
0
  10
85.73242
  20
1.47558
  30
0
  11
85.6401
  21
1.08768
  31
0
  0
LINE
  8
0
  10
85.6401
  20
1.08768
  30
0
  11
85.5378
  21
0.69915
  31
0
  0
LINE
  8
0
  10
85.5378
  20
0.69915
  30
0
  11
85.42594
  21
0.31013
  31
0
  0
LINE
  8
0
  10
85.42594
  20
0.31013
  30
0
  11
85.39652
  21
0.21281
  31
0
  0
LINE
  8
0
  10
85.39652
  20
0.21281
  30
0
  11
84.39245
  21
0.13061
  31
0
  0
LINE
  8
0
  10
84.39245
  20
0.13061
  30
0
  11
84.3476
  21
0.22185
  31
0
  0
LINE
  8
0
  10
84.3476
  20
0.22185
  30
0
  11
84.17396
  21
0.5875
  31
0
  0
LINE
  8
0
  10
84.17396
  20
0.5875
  30
0
  11
84.00983
  21
0.95422
  31
0
  0
LINE
  8
0
  10
84.00983
  20
0.95422
  30
0
  11
83.85565
  21
1.32194
  31
0
  0
LINE
  8
0
  10
83.85565
  20
1.32194
  30
0
  11
83.78246
  21
1.50618
  31
0
  0
LINE
  8
0
  10
83.78246
  20
1.50618
  30
0
  11
83.74686
  21
1.59838
  31
0
  0
LINE
  8
0
  10
83.74686
  20
1.59838
  30
0
  11
82.70889
  21
1.54617
  31
0
  0
LINE
  8
0
  10
82.70889
  20
1.54617
  30
0
  11
82.68274
  21
1.45085
  31
0
  0
LINE
  8
0
  10
82.68274
  20
1.45085
  30
0
  11
82.6284
  21
1.2602
  31
0
  0
LINE
  8
0
  10
82.6284
  20
1.2602
  30
0
  11
82.5119
  21
0.87886
  31
0
  0
LINE
  8
0
  10
82.5119
  20
0.87886
  30
0
  11
82.38541
  21
0.49753
  31
0
  0
LINE
  8
0
  10
82.38541
  20
0.49753
  30
0
  11
82.24934
  21
0.11629
  31
0
  0
LINE
  8
0
  10
82.24934
  20
0.11629
  30
0
  11
82.21387
  21
0.02101
  31
0
  0
LINE
  8
0
  10
82.21387
  20
0.02101
  30
0
  11
81.20663
  21
0.00202
  31
0
  0
LINE
  8
0
  10
81.20663
  20
0.00202
  30
0
  11
81.16759
  21
0.0959
  31
0
  0
LINE
  8
0
  10
81.16759
  20
0.0959
  30
0
  11
81.01725
  21
0.47173
  31
0
  0
LINE
  8
0
  10
81.01725
  20
0.47173
  30
0
  11
80.87647
  21
0.84803
  31
0
  0
LINE
  8
0
  10
80.87647
  20
0.84803
  30
0
  11
80.74569
  21
1.22471
  31
0
  0
LINE
  8
0
  10
80.74569
  20
1.22471
  30
0
  11
80.6842
  21
1.41318
  31
0
  0
LINE
  8
0
  10
80.6842
  20
1.41318
  30
0
  11
80.65447
  21
1.50744
  31
0
  0
LINE
  8
0
  10
80.65447
  20
1.50744
  30
0
  11
79.61527
  21
1.5205
  31
0
  0
LINE
  8
0
  10
79.61527
  20
1.5205
  30
0
  11
79.58318
  21
1.42701
  31
0
  0
LINE
  8
0
  10
79.58318
  20
1.42701
  30
0
  11
79.51698
  21
1.24015
  31
0
  0
LINE
  8
0
  10
79.51698
  20
1.24015
  30
0
  11
79.37677
  21
0.86687
  31
0
  0
LINE
  8
0
  10
79.37677
  20
0.86687
  30
0
  11
79.22658
  21
0.49424
  31
0
  0
LINE
  8
0
  10
79.22658
  20
0.49424
  30
0
  11
79.06684
  21
0.1223
  31
0
  0
LINE
  8
0
  10
79.06684
  20
0.1223
  30
0
  11
79.02546
  21
0.02943
  31
0
  0
LINE
  8
0
  10
79.02546
  20
0.02943
  30
0
  11
78.01901
  21
0.07373
  31
0
  0
LINE
  8
0
  10
78.01901
  20
0.07373
  30
0
  11
77.98594
  21
0.16987
  31
0
  0
LINE
  8
0
  10
77.98594
  20
0.16987
  30
0
  11
77.8595
  21
0.5544
  31
0
  0
LINE
  8
0
  10
77.8595
  20
0.5544
  30
0
  11
77.74263
  21
0.93879
  31
0
  0
LINE
  8
0
  10
77.74263
  20
0.93879
  30
0
  11
77.63576
  21
1.32295
  31
0
  0
LINE
  8
0
  10
77.63576
  20
1.32295
  30
0
  11
77.58623
  21
1.5149
  31
0
  0
LINE
  8
0
  10
77.58623
  20
1.5149
  30
0
  11
77.56247
  21
1.61084
  31
0
  0
LINE
  8
0
  10
77.56247
  20
1.61084
  30
0
  11
76.52614
  21
1.68913
  31
0
  0
LINE
  8
0
  10
76.52614
  20
1.68913
  30
0
  11
76.48824
  21
1.59784
  31
0
  0
LINE
  8
0
  10
76.48824
  20
1.59784
  30
0
  11
76.41044
  21
1.41551
  31
0
  0
LINE
  8
0
  10
76.41044
  20
1.41551
  30
0
  11
76.24707
  21
1.05177
  31
0
  0
LINE
  8
0
  10
76.24707
  20
1.05177
  30
0
  11
76.07378
  21
0.6893
  31
0
  0
LINE
  8
0
  10
76.07378
  20
0.6893
  30
0
  11
75.891
  21
0.32813
  31
0
  0
LINE
  8
0
  10
75.891
  20
0.32813
  30
0
  11
75.84387
  21
0.23804
  31
0
  0
LINE
  8
0
  10
75.84387
  20
0.23804
  30
0
  11
74.84219
  21
0.34544
  31
0
  0
LINE
  8
0
  10
74.84219
  20
0.34544
  30
0
  11
74.81522
  21
0.44347
  31
0
  0
LINE
  8
0
  10
74.81522
  20
0.44347
  30
0
  11
74.71317
  21
0.83519
  31
0
  0
LINE
  8
0
  10
74.71317
  20
0.83519
  30
0
  11
74.62067
  21
1.22616
  31
0
  0
LINE
  8
0
  10
74.62067
  20
1.22616
  30
0
  11
74.53813
  21
1.61626
  31
0
  0
LINE
  8
0
  10
74.53813
  20
1.61626
  30
0
  11
74.50075
  21
1.81095
  31
0
  0
LINE
  8
0
  10
74.50075
  20
1.81095
  30
0
  11
74.48306
  21
1.90819
  31
0
  0
LINE
  8
0
  10
74.48306
  20
1.90819
  30
0
  11
73.4537
  21
2.05139
  31
0
  0
LINE
  8
0
  10
73.4537
  20
2.05139
  30
0
  11
73.41014
  21
1.96267
  31
0
  0
LINE
  8
0
  10
73.41014
  20
1.96267
  30
0
  11
73.32104
  21
1.78558
  31
0
  0
LINE
  8
0
  10
73.32104
  20
1.78558
  30
0
  11
73.13515
  21
1.43282
  31
0
  0
LINE
  8
0
  10
73.13515
  20
1.43282
  30
0
  11
72.93945
  21
1.08194
  31
0
  0
LINE
  8
0
  10
72.93945
  20
1.08194
  30
0
  11
72.73435
  21
0.73296
  31
0
  0
LINE
  8
0
  10
72.73435
  20
0.73296
  30
0
  11
72.68165
  21
0.64601
  31
0
  0
LINE
  8
0
  10
72.68165
  20
0.64601
  30
0
  11
71.68869
  21
0.8161
  31
0
  0
LINE
  8
0
  10
71.68869
  20
0.8161
  30
0
  11
71.66794
  21
0.91563
  31
0
  0
LINE
  8
0
  10
71.66794
  20
0.91563
  30
0
  11
71.59068
  21
1.31297
  31
0
  0
LINE
  8
0
  10
71.59068
  20
1.31297
  30
0
  11
71.52291
  21
1.70898
  31
0
  0
LINE
  8
0
  10
71.52291
  20
1.70898
  30
0
  11
71.46503
  21
2.1035
  31
0
  0
LINE
  8
0
  10
71.46503
  20
2.1035
  30
0
  11
71.43995
  21
2.30015
  31
0
  0
LINE
  8
0
  10
71.43995
  20
2.30015
  30
0
  11
71.4284
  21
2.39831
  31
0
  0
LINE
  8
0
  10
71.4284
  20
2.39831
  30
0
  11
70.41006
  21
2.60586
  31
0
  0
LINE
  8
0
  10
70.41006
  20
2.60586
  30
0
  11
70.36102
  21
2.52005
  31
0
  0
LINE
  8
0
  10
70.36102
  20
2.52005
  30
0
  11
70.26098
  21
2.34891
  31
0
  0
LINE
  8
0
  10
70.26098
  20
2.34891
  30
0
  11
70.0533
  21
2.00851
  31
0
  0
LINE
  8
0
  10
70.0533
  20
2.00851
  30
0
  11
69.83595
  21
1.67062
  31
0
  0
LINE
  8
0
  10
69.83595
  20
1.67062
  30
0
  11
69.60935
  21
1.3352
  31
0
  0
LINE
  8
0
  10
69.60935
  20
1.3352
  30
0
  11
69.5513
  21
1.25173
  31
0
  0
LINE
  8
0
  10
69.5513
  20
1.25173
  30
0
  11
68.57097
  21
1.48383
  31
0
  0
LINE
  8
0
  10
68.57097
  20
1.48383
  30
0
  11
68.55651
  21
1.58447
  31
0
  0
LINE
  8
0
  10
68.55651
  20
1.58447
  30
0
  11
68.50436
  21
1.98588
  31
0
  0
LINE
  8
0
  10
68.50436
  20
1.98588
  30
0
  11
68.46159
  21
2.38537
  31
0
  0
LINE
  8
0
  10
68.46159
  20
2.38537
  30
0
  11
68.42859
  21
2.78274
  31
0
  0
LINE
  8
0
  10
68.42859
  20
2.78274
  30
0
  11
68.4159
  21
2.98057
  31
0
  0
LINE
  8
0
  10
68.4159
  20
2.98057
  30
0
  11
68.41055
  21
3.07927
  31
0
  0
LINE
  8
0
  10
68.41055
  20
3.07927
  30
0
  11
67.40724
  21
3.35035
  31
0
  0
LINE
  8
0
  10
67.40724
  20
3.35035
  30
0
  11
67.35291
  21
3.26779
  31
0
  0
LINE
  8
0
  10
67.35291
  20
3.26779
  30
0
  11
67.24232
  21
3.10326
  31
0
  0
LINE
  8
0
  10
67.24232
  20
3.10326
  30
0
  11
67.01369
  21
2.77658
  31
0
  0
LINE
  8
0
  10
67.01369
  20
2.77658
  30
0
  11
66.77555
  21
2.453
  31
0
  0
LINE
  8
0
  10
66.77555
  20
2.453
  30
0
  11
66.52833
  21
2.13247
  31
0
  0
LINE
  8
0
  10
66.52833
  20
2.13247
  30
0
  11
66.46515
  21
2.05282
  31
0
  0
LINE
  8
0
  10
66.46515
  20
2.05282
  30
0
  11
65.50134
  21
2.34601
  31
0
  0
LINE
  8
0
  10
65.50134
  20
2.34601
  30
0
  11
65.49322
  21
2.44736
  31
0
  0
LINE
  8
0
  10
65.49322
  20
2.44736
  30
0
  11
65.46637
  21
2.85126
  31
0
  0
LINE
  8
0
  10
65.46637
  20
2.85126
  30
0
  11
65.44877
  21
3.25264
  31
0
  0
LINE
  8
0
  10
65.44877
  20
3.25264
  30
0
  11
65.44079
  21
3.6513
  31
0
  0
LINE
  8
0
  10
65.44079
  20
3.6513
  30
0
  11
65.44055
  21
3.84954
  31
0
  0
LINE
  8
0
  10
65.44055
  20
3.84954
  30
0
  11
65.4414
  21
3.94837
  31
0
  0
LINE
  8
0
  10
65.4414
  20
3.94837
  30
0
  11
64.4571
  21
4.28192
  31
0
  0
LINE
  8
0
  10
64.4571
  20
4.28192
  30
0
  11
64.39769
  21
4.20293
  31
0
  0
LINE
  8
0
  10
64.39769
  20
4.20293
  30
0
  11
64.27699
  21
4.04567
  31
0
  0
LINE
  8
0
  10
64.27699
  20
4.04567
  30
0
  11
64.02829
  21
3.73399
  31
0
  0
LINE
  8
0
  10
64.02829
  20
3.73399
  30
0
  11
63.7703
  21
3.426
  31
0
  0
LINE
  8
0
  10
63.7703
  20
3.426
  30
0
  11
63.50345
  21
3.12163
  31
0
  0
LINE
  8
0
  10
63.50345
  20
3.12163
  30
0
  11
63.43539
  21
3.0461
  31
0
  0
LINE
  8
0
  10
63.43539
  20
3.0461
  30
0
  11
62.49189
  21
3.39924
  31
0
  0
LINE
  8
0
  10
62.49189
  20
3.39924
  30
0
  11
62.49015
  21
3.50089
  31
0
  0
LINE
  8
0
  10
62.49015
  20
3.50089
  30
0
  11
62.48872
  21
3.90568
  31
0
  0
LINE
  8
0
  10
62.48872
  20
3.90568
  30
0
  11
62.49636
  21
4.30737
  31
0
  0
LINE
  8
0
  10
62.49636
  20
4.30737
  30
0
  11
62.51342
  21
4.70575
  31
0
  0
LINE
  8
0
  10
62.51342
  20
4.70575
  30
0
  11
62.52564
  21
4.90361
  31
0
  0
LINE
  8
0
  10
62.52564
  20
4.90361
  30
0
  11
62.53269
  21
5.0022
  31
0
  0
LINE
  8
0
  10
62.53269
  20
5.0022
  30
0
  11
61.57127
  21
5.39689
  31
0
  0
LINE
  8
0
  10
61.57127
  20
5.39689
  30
0
  11
61.50702
  21
5.32179
  31
0
  0
LINE
  8
0
  10
61.50702
  20
5.32179
  30
0
  11
61.37668
  21
5.17242
  31
0
  0
LINE
  8
0
  10
61.37668
  20
5.17242
  30
0
  11
61.10891
  21
4.87697
  31
0
  0
LINE
  8
0
  10
61.10891
  20
4.87697
  30
0
  11
60.83209
  21
4.58579
  31
0
  0
LINE
  8
0
  10
60.83209
  20
4.58579
  30
0
  11
60.54665
  21
4.29877
  31
0
  0
LINE
  8
0
  10
60.54665
  20
4.29877
  30
0
  11
60.47398
  21
4.22766
  31
0
  0
LINE
  8
0
  10
60.47398
  20
4.22766
  30
0
  11
59.55452
  21
4.63935
  31
0
  0
LINE
  8
0
  10
59.55452
  20
4.63935
  30
0
  11
59.55917
  21
4.74091
  31
0
  0
LINE
  8
0
  10
59.55917
  20
4.74091
  30
0
  11
59.58316
  21
5.14499
  31
0
  0
LINE
  8
0
  10
59.58316
  20
5.14499
  30
0
  11
59.616
  21
5.54541
  31
0
  0
LINE
  8
0
  10
59.616
  20
5.54541
  30
0
  11
59.65804
  21
5.94193
  31
0
  0
LINE
  8
0
  10
59.65804
  20
5.94193
  30
0
  11
59.68266
  21
6.13863
  31
0
  0
LINE
  8
0
  10
59.68266
  20
6.13863
  30
0
  11
59.69589
  21
6.23658
  31
0
  0
LINE
  8
0
  10
59.69589
  20
6.23658
  30
0
  11
58.76115
  21
6.69087
  31
0
  0
LINE
  8
0
  10
58.76115
  20
6.69087
  30
0
  11
58.69231
  21
6.61995
  31
0
  0
LINE
  8
0
  10
58.69231
  20
6.61995
  30
0
  11
58.55285
  21
6.47906
  31
0
  0
LINE
  8
0
  10
58.55285
  20
6.47906
  30
0
  11
58.26705
  21
6.201
  31
0
  0
LINE
  8
0
  10
58.26705
  20
6.201
  30
0
  11
57.97249
  21
5.92778
  31
0
  0
LINE
  8
0
  10
57.97249
  20
5.92778
  30
0
  11
57.6696
  21
5.65925
  31
0
  0
LINE
  8
0
  10
57.6696
  20
5.65925
  30
0
  11
57.59261
  21
5.59284
  31
0
  0
LINE
  8
0
  10
57.59261
  20
5.59284
  30
0
  11
56.70081
  21
6.06145
  31
0
  0
LINE
  8
0
  10
56.70081
  20
6.06145
  30
0
  11
56.71182
  21
6.16252
  31
0
  0
LINE
  8
0
  10
56.71182
  20
6.16252
  30
0
  11
56.76114
  21
6.56429
  31
0
  0
LINE
  8
0
  10
56.76114
  20
6.56429
  30
0
  11
56.81906
  21
6.96186
  31
0
  0
LINE
  8
0
  10
56.81906
  20
6.96186
  30
0
  11
56.88592
  21
7.35496
  31
0
  0
LINE
  8
0
  10
56.88592
  20
7.35496
  30
0
  11
56.92283
  21
7.54973
  31
0
  0
LINE
  8
0
  10
56.92283
  20
7.54973
  30
0
  11
56.94219
  21
7.64665
  31
0
  0
LINE
  8
0
  10
56.94219
  20
7.64665
  30
0
  11
56.03782
  21
8.15874
  31
0
  0
LINE
  8
0
  10
56.03782
  20
8.15874
  30
0
  11
55.96466
  21
8.09228
  31
0
  0
LINE
  8
0
  10
55.96466
  20
8.09228
  30
0
  11
55.81663
  21
7.96042
  31
0
  0
LINE
  8
0
  10
55.81663
  20
7.96042
  30
0
  11
55.51394
  21
7.70086
  31
0
  0
LINE
  8
0
  10
55.51394
  20
7.70086
  30
0
  11
55.20281
  21
7.44667
  31
0
  0
LINE
  8
0
  10
55.20281
  20
7.44667
  30
0
  11
54.88364
  21
7.1977
  31
0
  0
LINE
  8
0
  10
54.88364
  20
7.1977
  30
0
  11
54.80264
  21
7.13625
  31
0
  0
LINE
  8
0
  10
54.80264
  20
7.13625
  30
0
  11
53.94202
  21
7.65993
  31
0
  0
LINE
  8
0
  10
53.94202
  20
7.65993
  30
0
  11
53.95936
  21
7.76011
  31
0
  0
LINE
  8
0
  10
53.95936
  20
7.76011
  30
0
  11
54.03381
  21
8.15799
  31
0
  0
LINE
  8
0
  10
54.03381
  20
8.15799
  30
0
  11
54.11658
  21
8.55114
  31
0
  0
LINE
  8
0
  10
54.11658
  20
8.55114
  30
0
  11
54.20799
  21
8.93926
  31
0
  0
LINE
  8
0
  10
54.20799
  20
8.93926
  30
0
  11
54.25706
  21
9.13133
  31
0
  0
LINE
  8
0
  10
54.25706
  20
9.13133
  30
0
  11
54.28246
  21
9.22685
  31
0
  0
LINE
  8
0
  10
54.28246
  20
9.22685
  30
0
  11
53.41203
  21
9.79471
  31
0
  0
LINE
  8
0
  10
53.41203
  20
9.79471
  30
0
  11
53.33485
  21
9.73298
  31
0
  0
LINE
  8
0
  10
53.33485
  20
9.73298
  30
0
  11
53.17883
  21
9.61068
  31
0
  0
LINE
  8
0
  10
53.17883
  20
9.61068
  30
0
  11
52.86043
  21
9.37063
  31
0
  0
LINE
  8
0
  10
52.86043
  20
9.37063
  30
0
  11
52.53396
  21
9.13648
  31
0
  0
LINE
  8
0
  10
52.53396
  20
9.13648
  30
0
  11
52.19979
  21
8.90804
  31
0
  0
LINE
  8
0
  10
52.19979
  20
8.90804
  30
0
  11
52.11509
  21
8.8518
  31
0
  0
LINE
  8
0
  10
52.11509
  20
8.8518
  30
0
  11
51.28905
  21
9.42848
  31
0
  0
LINE
  8
0
  10
51.28905
  20
9.42848
  30
0
  11
51.31265
  21
9.52738
  31
0
  0
LINE
  8
0
  10
51.31265
  20
9.52738
  30
0
  11
51.41193
  21
9.9198
  31
0
  0
LINE
  8
0
  10
51.41193
  20
9.9198
  30
0
  11
51.51922
  21
10.30697
  31
0
  0
LINE
  8
0
  10
51.51922
  20
10.30697
  30
0
  11
51.63482
  21
10.68859
  31
0
  0
LINE
  8
0
  10
51.63482
  20
10.68859
  30
0
  11
51.69586
  21
10.8772
  31
0
  0
LINE
  8
0
  10
51.69586
  20
10.8772
  30
0
  11
51.72721
  21
10.97094
  31
0
  0
LINE
  8
0
  10
51.72721
  20
10.97094
  30
0
  11
50.89415
  21
11.59233
  31
0
  0
LINE
  8
0
  10
50.89415
  20
11.59233
  30
0
  11
50.81324
  21
11.53556
  31
0
  0
LINE
  8
0
  10
50.81324
  20
11.53556
  30
0
  11
50.64985
  21
11.4233
  31
0
  0
LINE
  8
0
  10
50.64985
  20
11.4233
  30
0
  11
50.31701
  21
11.20373
  31
0
  0
LINE
  8
0
  10
50.31701
  20
11.20373
  30
0
  11
49.97648
  21
10.99053
  31
0
  0
LINE
  8
0
  10
49.97648
  20
10.99053
  30
0
  11
49.62863
  21
10.78352
  31
0
  0
LINE
  8
0
  10
49.62863
  20
10.78352
  30
0
  11
49.54056
  21
10.73271
  31
0
  0
LINE
  8
0
  10
49.54056
  20
10.73271
  30
0
  11
48.75236
  21
11.36013
  31
0
  0
LINE
  8
0
  10
48.75236
  20
11.36013
  30
0
  11
48.78212
  21
11.45734
  31
0
  0
LINE
  8
0
  10
48.78212
  20
11.45734
  30
0
  11
48.90585
  21
11.84276
  31
0
  0
LINE
  8
0
  10
48.90585
  20
11.84276
  30
0
  11
49.03724
  21
12.22243
  31
0
  0
LINE
  8
0
  10
49.03724
  20
12.22243
  30
0
  11
49.17657
  21
12.59604
  31
0
  0
LINE
  8
0
  10
49.17657
  20
12.59604
  30
0
  11
49.24933
  21
12.78044
  31
0
  0
LINE
  8
0
  10
49.24933
  20
12.78044
  30
0
  11
49.28651
  21
12.87202
  31
0
  0
LINE
  8
0
  10
49.28651
  20
12.87202
  30
0
  11
48.49411
  21
13.5445
  31
0
  0
LINE
  8
0
  10
48.49411
  20
13.5445
  30
0
  11
48.4098
  21
13.49292
  31
0
  0
LINE
  8
0
  10
48.4098
  20
13.49292
  30
0
  11
48.23968
  21
13.39114
  31
0
  0
LINE
  8
0
  10
48.23968
  20
13.39114
  30
0
  11
47.89371
  21
13.1929
  31
0
  0
LINE
  8
0
  10
47.89371
  20
13.1929
  30
0
  11
47.54046
  21
13.00151
  31
0
  0
LINE
  8
0
  10
47.54046
  20
13.00151
  30
0
  11
47.1803
  21
12.81675
  31
0
  0
LINE
  8
0
  10
47.1803
  20
12.81675
  30
0
  11
47.08922
  21
12.77157
  31
0
  0
LINE
  8
0
  10
47.08922
  20
12.77157
  30
0
  11
46.34197
  21
13.44724
  31
0
  0
LINE
  8
0
  10
46.34197
  20
13.44724
  30
0
  11
46.37777
  21
13.5424
  31
0
  0
LINE
  8
0
  10
46.37777
  20
13.5424
  30
0
  11
46.52546
  21
13.91928
  31
0
  0
LINE
  8
0
  10
46.52546
  20
13.91928
  30
0
  11
46.68043
  21
14.28996
  31
0
  0
LINE
  8
0
  10
46.68043
  20
14.28996
  30
0
  11
46.84295
  21
14.65407
  31
0
  0
LINE
  8
0
  10
46.84295
  20
14.65407
  30
0
  11
46.92714
  21
14.83355
  31
0
  0
LINE
  8
0
  10
46.92714
  20
14.83355
  30
0
  11
46.96999
  21
14.92261
  31
0
  0
LINE
  8
0
  10
46.96999
  20
14.92261
  30
0
  11
46.22139
  21
15.64352
  31
0
  0
LINE
  8
0
  10
46.22139
  20
15.64352
  30
0
  11
46.134
  21
15.59734
  31
0
  0
LINE
  8
0
  10
46.134
  20
15.59734
  30
0
  11
45.95783
  21
15.50644
  31
0
  0
LINE
  8
0
  10
45.95783
  20
15.50644
  30
0
  11
45.60009
  21
15.33031
  31
0
  0
LINE
  8
0
  10
45.60009
  20
15.33031
  30
0
  11
45.23552
  21
15.16148
  31
0
  0
LINE
  8
0
  10
45.23552
  20
15.16148
  30
0
  11
44.86447
  21
14.9997
  31
0
  0
LINE
  8
0
  10
44.86447
  20
14.9997
  30
0
  11
44.77073
  21
14.96033
  31
0
  0
LINE
  8
0
  10
44.77073
  20
14.96033
  30
0
  11
44.06738
  21
15.68158
  31
0
  0
LINE
  8
0
  10
44.06738
  20
15.68158
  30
0
  11
44.10909
  21
15.7743
  31
0
  0
LINE
  8
0
  10
44.10909
  20
15.7743
  30
0
  11
44.28015
  21
16.14117
  31
0
  0
LINE
  8
0
  10
44.28015
  20
16.14117
  30
0
  11
44.45809
  21
16.50139
  31
0
  0
LINE
  8
0
  10
44.45809
  20
16.50139
  30
0
  11
44.64315
  21
16.85458
  31
0
  0
LINE
  8
0
  10
44.64315
  20
16.85458
  30
0
  11
44.73845
  21
17.02841
  31
0
  0
LINE
  8
0
  10
44.73845
  20
17.02841
  30
0
  11
44.7868
  21
17.11461
  31
0
  0
LINE
  8
0
  10
44.7868
  20
17.11461
  30
0
  11
44.08494
  21
17.8811
  31
0
  0
LINE
  8
0
  10
44.08494
  20
17.8811
  30
0
  11
43.99483
  21
17.8405
  31
0
  0
LINE
  8
0
  10
43.99483
  20
17.8405
  30
0
  11
43.8133
  21
17.76084
  31
0
  0
LINE
  8
0
  10
43.8133
  20
17.76084
  30
0
  11
43.44521
  21
17.60752
  31
0
  0
LINE
  8
0
  10
43.44521
  20
17.60752
  30
0
  11
43.07076
  21
17.46192
  31
0
  0
LINE
  8
0
  10
43.07076
  20
17.46192
  30
0
  11
42.69028
  21
17.32375
  31
0
  0
LINE
  8
0
  10
42.69028
  20
17.32375
  30
0
  11
42.59425
  21
17.29035
  31
0
  0
LINE
  8
0
  10
42.59425
  20
17.29035
  30
0
  11
41.93758
  21
18.05434
  31
0
  0
LINE
  8
0
  10
41.93758
  20
18.05434
  30
0
  11
41.98503
  21
18.14426
  31
0
  0
LINE
  8
0
  10
41.98503
  20
18.14426
  30
0
  11
42.17878
  21
18.49967
  31
0
  0
LINE
  8
0
  10
42.17878
  20
18.49967
  30
0
  11
42.37899
  21
18.84799
  31
0
  0
LINE
  8
0
  10
42.37899
  20
18.84799
  30
0
  11
42.58586
  21
19.18887
  31
0
  0
LINE
  8
0
  10
42.58586
  20
19.18887
  30
0
  11
42.69189
  21
19.35638
  31
0
  0
LINE
  8
0
  10
42.69189
  20
19.35638
  30
0
  11
42.74556
  21
19.43937
  31
0
  0
LINE
  8
0
  10
42.74556
  20
19.43937
  30
0
  11
42.09322
  21
20.24841
  31
0
  0
LINE
  8
0
  10
42.09322
  20
20.24841
  30
0
  11
42.00073
  21
20.21355
  31
0
  0
LINE
  8
0
  10
42.00073
  20
20.21355
  30
0
  11
41.81455
  21
20.14545
  31
0
  0
LINE
  8
0
  10
41.81455
  20
20.14545
  30
0
  11
41.43756
  21
20.01555
  31
0
  0
LINE
  8
0
  10
41.43756
  20
20.01555
  30
0
  11
41.05471
  21
19.89374
  31
0
  0
LINE
  8
0
  10
41.05471
  20
19.89374
  30
0
  11
40.66631
  21
19.77974
  31
0
  0
LINE
  8
0
  10
40.66631
  20
19.77974
  30
0
  11
40.56837
  21
19.75243
  31
0
  0
LINE
  8
0
  10
40.56837
  20
19.75243
  30
0
  11
39.96097
  21
20.55615
  31
0
  0
LINE
  8
0
  10
39.96097
  20
20.55615
  30
0
  11
40.01397
  21
20.64291
  31
0
  0
LINE
  8
0
  10
40.01397
  20
20.64291
  30
0
  11
40.22966
  21
20.98545
  31
0
  0
LINE
  8
0
  10
40.22966
  20
20.98545
  30
0
  11
40.45134
  21
21.32052
  31
0
  0
LINE
  8
0
  10
40.45134
  20
21.32052
  30
0
  11
40.67921
  21
21.64773
  31
0
  0
LINE
  8
0
  10
40.67921
  20
21.64773
  30
0
  11
40.79554
  21
21.80825
  31
0
  0
LINE
  8
0
  10
40.79554
  20
21.80825
  30
0
  11
40.85432
  21
21.88771
  31
0
  0
LINE
  8
0
  10
40.85432
  20
21.88771
  30
0
  11
40.25406
  21
22.73612
  31
0
  0
LINE
  8
0
  10
40.25406
  20
22.73612
  30
0
  11
40.15957
  21
22.70713
  31
0
  0
LINE
  8
0
  10
40.15957
  20
22.70713
  30
0
  11
39.96948
  21
22.65086
  31
0
  0
LINE
  8
0
  10
39.96948
  20
22.65086
  30
0
  11
39.58508
  21
22.54488
  31
0
  0
LINE
  8
0
  10
39.58508
  20
22.54488
  30
0
  11
39.19534
  21
22.44735
  31
0
  0
LINE
  8
0
  10
39.19534
  20
22.44735
  30
0
  11
38.80054
  21
22.35797
  31
0
  0
LINE
  8
0
  10
38.80054
  20
22.35797
  30
0
  11
38.70108
  21
22.33686
  31
0
  0
LINE
  8
0
  10
38.70108
  20
22.33686
  30
0
  11
38.14534
  21
23.17713
  31
0
  0
LINE
  8
0
  10
38.14534
  20
23.17713
  30
0
  11
38.20369
  21
23.26039
  31
0
  0
LINE
  8
0
  10
38.20369
  20
23.26039
  30
0
  11
38.44046
  21
23.58871
  31
0
  0
LINE
  8
0
  10
38.44046
  20
23.58871
  30
0
  11
38.68274
  21
23.9092
  31
0
  0
LINE
  8
0
  10
38.68274
  20
23.9092
  30
0
  11
38.93071
  21
24.22146
  31
0
  0
LINE
  8
0
  10
38.93071
  20
24.22146
  30
0
  11
39.05689
  21
24.37436
  31
0
  0
LINE
  8
0
  10
39.05689
  20
24.37436
  30
0
  11
39.12055
  21
24.44997
  31
0
  0
LINE
  8
0
  10
39.12055
  20
24.44997
  30
0
  11
38.57474
  21
25.3344
  31
0
  0
LINE
  8
0
  10
38.57474
  20
25.3344
  30
0
  11
38.47862
  21
25.3114
  31
0
  0
LINE
  8
0
  10
38.47862
  20
25.3114
  30
0
  11
38.28537
  21
25.26717
  31
0
  0
LINE
  8
0
  10
38.28537
  20
25.26717
  30
0
  11
37.89508
  21
25.18554
  31
0
  0
LINE
  8
0
  10
37.89508
  20
25.18554
  30
0
  11
37.49997
  21
25.11268
  31
0
  0
LINE
  8
0
  10
37.49997
  20
25.11268
  30
0
  11
37.10034
  21
25.04826
  31
0
  0
LINE
  8
0
  10
37.10034
  20
25.04826
  30
0
  11
36.99976
  21
25.03344
  31
0
  0
LINE
  8
0
  10
36.99976
  20
25.03344
  30
0
  11
36.49788
  21
25.90695
  31
0
  0
LINE
  8
0
  10
36.49788
  20
25.90695
  30
0
  11
36.56133
  21
25.98638
  31
0
  0
LINE
  8
0
  10
36.56133
  20
25.98638
  30
0
  11
36.81825
  21
26.29918
  31
0
  0
LINE
  8
0
  10
36.81825
  20
26.29918
  30
0
  11
37.08018
  21
26.60383
  31
0
  0
LINE
  8
0
  10
37.08018
  20
26.60383
  30
0
  11
37.34727
  21
26.8999
  31
0
  0
LINE
  8
0
  10
37.34727
  20
26.8999
  30
0
  11
37.4828
  21
27.04458
  31
0
  0
LINE
  8
0
  10
37.4828
  20
27.04458
  30
0
  11
37.55108
  21
27.11604
  31
0
  0
LINE
  8
0
  10
37.55108
  20
27.11604
  30
0
  11
37.06188
  21
28.03299
  31
0
  0
LINE
  8
0
  10
37.06188
  20
28.03299
  30
0
  11
36.9645
  21
28.01608
  31
0
  0
LINE
  8
0
  10
36.9645
  20
28.01608
  30
0
  11
36.76886
  21
27.98407
  31
0
  0
LINE
  8
0
  10
36.76886
  20
27.98407
  30
0
  11
36.37421
  21
27.92711
  31
0
  0
LINE
  8
0
  10
36.37421
  20
27.92711
  30
0
  11
35.97531
  21
27.8792
  31
0
  0
LINE
  8
0
  10
35.97531
  20
27.8792
  30
0
  11
35.57243
  21
27.84
  31
0
  0
LINE
  8
0
  10
35.57243
  20
27.84
  30
0
  11
35.47111
  21
27.83152
  31
0
  0
LINE
  8
0
  10
35.47111
  20
27.83152
  30
0
  11
35.02507
  21
28.73482
  31
0
  0
LINE
  8
0
  10
35.02507
  20
28.73482
  30
0
  11
35.09339
  21
28.81011
  31
0
  0
LINE
  8
0
  10
35.09339
  20
28.81011
  30
0
  11
35.36944
  21
29.10617
  31
0
  0
LINE
  8
0
  10
35.36944
  20
29.10617
  30
0
  11
35.64998
  21
29.39376
  31
0
  0
LINE
  8
0
  10
35.64998
  20
29.39376
  30
0
  11
35.93513
  21
29.67248
  31
0
  0
LINE
  8
0
  10
35.93513
  20
29.67248
  30
0
  11
36.07948
  21
29.80836
  31
0
  0
LINE
  8
0
  10
36.07948
  20
29.80836
  30
0
  11
36.15211
  21
29.8754
  31
0
  0
LINE
  8
0
  10
36.15211
  20
29.8754
  30
0
  11
35.72146
  21
30.82126
  31
0
  0
LINE
  8
0
  10
35.72146
  20
30.82126
  30
0
  11
35.62321
  21
30.81049
  31
0
  0
LINE
  8
0
  10
35.62321
  20
30.81049
  30
0
  11
35.42594
  21
30.79083
  31
0
  0
LINE
  8
0
  10
35.42594
  20
30.79083
  30
0
  11
35.02849
  21
30.75876
  31
0
  0
LINE
  8
0
  10
35.02849
  20
30.75876
  30
0
  11
34.62737
  21
30.73599
  31
0
  0
LINE
  8
0
  10
34.62737
  20
30.73599
  30
0
  11
34.22282
  21
30.72216
  31
0
  0
LINE
  8
0
  10
34.22282
  20
30.72216
  30
0
  11
34.12117
  21
30.72007
  31
0
  0
LINE
  8
0
  10
34.12117
  20
30.72007
  30
0
  11
33.73273
  21
31.64959
  31
0
  0
LINE
  8
0
  10
33.73273
  20
31.64959
  30
0
  11
33.80564
  21
31.72045
  31
0
  0
LINE
  8
0
  10
33.80564
  20
31.72045
  30
0
  11
34.09974
  21
31.99858
  31
0
  0
LINE
  8
0
  10
34.09974
  20
31.99858
  30
0
  11
34.39778
  21
32.268
  31
0
  0
LINE
  8
0
  10
34.39778
  20
32.268
  30
0
  11
34.69987
  21
32.52826
  31
0
  0
LINE
  8
0
  10
34.69987
  20
32.52826
  30
0
  11
34.85247
  21
32.65481
  31
0
  0
LINE
  8
0
  10
34.85247
  20
32.65481
  30
0
  11
34.92916
  21
32.71715
  31
0
  0
LINE
  8
0
  10
34.92916
  20
32.71715
  30
0
  11
34.55875
  21
33.68818
  31
0
  0
LINE
  8
0
  10
34.55875
  20
33.68818
  30
0
  11
34.46002
  21
33.68361
  31
0
  0
LINE
  8
0
  10
34.46002
  20
33.68361
  30
0
  11
34.26191
  21
33.67637
  31
0
  0
LINE
  8
0
  10
34.26191
  20
33.67637
  30
0
  11
33.86323
  21
33.66932
  31
0
  0
LINE
  8
0
  10
33.86323
  20
33.66932
  30
0
  11
33.46147
  21
33.67179
  31
0
  0
LINE
  8
0
  10
33.46147
  20
33.67179
  30
0
  11
33.05685
  21
33.68339
  31
0
  0
LINE
  8
0
  10
33.05685
  20
33.68339
  30
0
  11
32.95527
  21
33.68768
  31
0
  0
LINE
  8
0
  10
32.95527
  20
33.68768
  30
0
  11
32.62596
  21
34.63976
  31
0
  0
LINE
  8
0
  10
32.62596
  20
34.63976
  30
0
  11
32.70318
  21
34.70589
  31
0
  0
LINE
  8
0
  10
32.70318
  20
34.70589
  30
0
  11
33.01416
  21
34.96502
  31
0
  0
LINE
  8
0
  10
33.01416
  20
34.96502
  30
0
  11
33.32853
  21
35.21518
  31
0
  0
LINE
  8
0
  10
33.32853
  20
35.21518
  30
0
  11
33.64637
  21
35.45597
  31
0
  0
LINE
  8
0
  10
33.64637
  20
35.45597
  30
0
  11
33.80661
  21
35.57268
  31
0
  0
LINE
  8
0
  10
33.80661
  20
35.57268
  30
0
  11
33.88706
  21
35.63009
  31
0
  0
LINE
  8
0
  10
33.88706
  20
35.63009
  30
0
  11
33.57835
  21
36.62246
  31
0
  0
LINE
  8
0
  10
33.57835
  20
36.62246
  30
0
  11
33.47953
  21
36.62409
  31
0
  0
LINE
  8
0
  10
33.47953
  20
36.62409
  30
0
  11
33.28136
  21
36.62931
  31
0
  0
LINE
  8
0
  10
33.28136
  20
36.62931
  30
0
  11
32.88302
  21
36.64731
  31
0
  0
LINE
  8
0
  10
32.88302
  20
36.64731
  30
0
  11
32.48221
  21
36.67499
  31
0
  0
LINE
  8
0
  10
32.48221
  20
36.67499
  30
0
  11
32.07912
  21
36.71198
  31
0
  0
LINE
  8
0
  10
32.07912
  20
36.71198
  30
0
  11
31.97801
  21
36.72264
  31
0
  0
LINE
  8
0
  10
31.97801
  20
36.72264
  30
0
  11
31.70912
  21
37.69352
  31
0
  0
LINE
  8
0
  10
31.70912
  20
37.69352
  30
0
  11
31.79034
  21
37.75468
  31
0
  0
LINE
  8
0
  10
31.79034
  20
37.75468
  30
0
  11
32.11698
  21
37.99376
  31
0
  0
LINE
  8
0
  10
32.11698
  20
37.99376
  30
0
  11
32.44645
  21
38.22369
  31
0
  0
LINE
  8
0
  10
32.44645
  20
38.22369
  30
0
  11
32.77877
  21
38.44405
  31
0
  0
LINE
  8
0
  10
32.77877
  20
38.44405
  30
0
  11
32.94602
  21
38.55047
  31
0
  0
LINE
  8
0
  10
32.94602
  20
38.55047
  30
0
  11
33.02993
  21
38.60271
  31
0
  0
LINE
  8
0
  10
33.02993
  20
38.60271
  30
0
  11
32.78414
  21
39.61251
  31
0
  0
LINE
  8
0
  10
32.78414
  20
39.61251
  30
0
  11
32.68561
  21
39.62034
  31
0
  0
LINE
  8
0
  10
32.68561
  20
39.62034
  30
0
  11
32.48816
  21
39.63799
  31
0
  0
LINE
  8
0
  10
32.48816
  20
39.63799
  30
0
  11
32.09174
  21
39.68097
  31
0
  0
LINE
  8
0
  10
32.09174
  20
39.68097
  30
0
  11
31.69346
  21
39.73377
  31
0
  0
LINE
  8
0
  10
31.69346
  20
39.73377
  30
0
  11
31.29348
  21
39.79599
  31
0
  0
LINE
  8
0
  10
31.29348
  20
39.79599
  30
0
  11
31.19324
  21
39.81298
  31
0
  0
LINE
  8
0
  10
31.19324
  20
39.81298
  30
0
  11
30.98585
  21
40.79882
  31
0
  0
LINE
  8
0
  10
30.98585
  20
40.79882
  30
0
  11
31.07075
  21
40.85476
  31
0
  0
LINE
  8
0
  10
31.07075
  20
40.85476
  30
0
  11
31.41175
  21
41.07286
  31
0
  0
LINE
  8
0
  10
31.41175
  20
41.07286
  30
0
  11
31.755
  21
41.28165
  31
0
  0
LINE
  8
0
  10
31.755
  20
41.28165
  30
0
  11
32.10051
  21
41.48071
  31
0
  0
LINE
  8
0
  10
32.10051
  20
41.48071
  30
0
  11
32.27412
  21
41.57642
  31
0
  0
LINE
  8
0
  10
32.27412
  20
41.57642
  30
0
  11
32.36113
  21
41.62328
  31
0
  0
LINE
  8
0
  10
32.36113
  20
41.62328
  30
0
  11
32.17924
  21
42.64652
  31
0
  0
LINE
  8
0
  10
32.17924
  20
42.64652
  30
0
  11
32.0814
  21
42.66053
  31
0
  0
LINE
  8
0
  10
32.0814
  20
42.66053
  30
0
  11
31.88544
  21
42.69055
  31
0
  0
LINE
  8
0
  10
31.88544
  20
42.69055
  30
0
  11
31.4925
  21
42.75833
  31
0
  0
LINE
  8
0
  10
31.4925
  20
42.75833
  30
0
  11
31.09832
  21
42.83603
  31
0
  0
LINE
  8
0
  10
31.09832
  20
42.83603
  30
0
  11
30.70304
  21
42.92324
  31
0
  0
LINE
  8
0
  10
30.70304
  20
42.92324
  30
0
  11
30.60406
  21
42.94649
  31
0
  0
LINE
  8
0
  10
30.60406
  20
42.94649
  30
0
  11
30.45898
  21
43.94341
  31
0
  0
LINE
  8
0
  10
30.45898
  20
43.94341
  30
0
  11
30.54723
  21
43.99391
  31
0
  0
LINE
  8
0
  10
30.54723
  20
43.99391
  30
0
  11
30.90126
  21
44.19017
  31
0
  0
LINE
  8
0
  10
30.90126
  20
44.19017
  30
0
  11
31.25694
  21
44.377
  31
0
  0
LINE
  8
0
  10
31.25694
  20
44.377
  30
0
  11
31.61426
  21
44.55396
  31
0
  0
LINE
  8
0
  10
31.61426
  20
44.55396
  30
0
  11
31.79353
  21
44.63858
  31
0
  0
LINE
  8
0
  10
31.79353
  20
44.63858
  30
0
  11
31.88332
  21
44.67989
  31
0
  0
LINE
  8
0
  10
31.88332
  20
44.67989
  30
0
  11
31.76604
  21
45.71254
  31
0
  0
LINE
  8
0
  10
31.76604
  20
45.71254
  30
0
  11
31.66927
  21
45.73266
  31
0
  0
LINE
  8
0
  10
31.66927
  20
45.73266
  30
0
  11
31.47558
  21
45.77492
  31
0
  0
LINE
  8
0
  10
31.47558
  20
45.77492
  30
0
  11
31.08768
  21
45.86724
  31
0
  0
LINE
  8
0
  10
31.08768
  20
45.86724
  30
0
  11
30.69915
  21
45.96954
  31
0
  0
LINE
  8
0
  10
30.69915
  20
45.96954
  30
0
  11
30.31013
  21
46.0814
  31
0
  0
LINE
  8
0
  10
30.31013
  20
46.0814
  30
0
  11
30.21281
  21
46.11082
  31
0
  0
LINE
  8
0
  10
30.21281
  20
46.11082
  30
0
  11
30.13061
  21
47.11488
  31
0
  0
LINE
  8
0
  10
30.13061
  20
47.11488
  30
0
  11
30.22185
  21
47.15974
  31
0
  0
LINE
  8
0
  10
30.22185
  20
47.15974
  30
0
  11
30.5875
  21
47.33338
  31
0
  0
LINE
  8
0
  10
30.5875
  20
47.33338
  30
0
  11
30.95422
  21
47.49751
  31
0
  0
LINE
  8
0
  10
30.95422
  20
47.49751
  30
0
  11
31.32194
  21
47.65168
  31
0
  0
LINE
  8
0
  10
31.32194
  20
47.65168
  30
0
  11
31.50618
  21
47.72488
  31
0
  0
LINE
  8
0
  10
31.50618
  20
47.72488
  30
0
  11
31.59838
  21
47.76047
  31
0
  0
LINE
  8
0
  10
31.59838
  20
47.76047
  30
0
  11
31.54617
  21
48.79844
  31
0
  0
LINE
  8
0
  10
81.25367
  20
50.75367
  30
0
  11
81.25367
  21
50.75367
  31
0
  0
LINE
  8
0
  10
81.25367
  20
50.75367
  30
0
  11
81.23663
  21
50.88308
  31
0
  0
LINE
  8
0
  10
81.23663
  20
50.88308
  30
0
  11
81.18668
  21
51.00367
  31
0
  0
LINE
  8
0
  10
81.18668
  20
51.00367
  30
0
  11
81.10722
  21
51.10722
  31
0
  0
LINE
  8
0
  10
81.10722
  20
51.10722
  30
0
  11
81.00367
  21
51.18668
  31
0
  0
LINE
  8
0
  10
81.00367
  20
51.18668
  30
0
  11
80.88308
  21
51.23663
  31
0
  0
LINE
  8
0
  10
80.88308
  20
51.23663
  30
0
  11
80.75367
  21
51.25367
  31
0
  0
LINE
  8
0
  10
80.75367
  20
51.25367
  30
0
  11
80.62426
  21
51.23663
  31
0
  0
LINE
  8
0
  10
80.62426
  20
51.23663
  30
0
  11
80.50367
  21
51.18668
  31
0
  0
LINE
  8
0
  10
80.50367
  20
51.18668
  30
0
  11
80.40011
  21
51.10722
  31
0
  0
LINE
  8
0
  10
80.40011
  20
51.10722
  30
0
  11
80.32066
  21
51.00367
  31
0
  0
LINE
  8
0
  10
80.32066
  20
51.00367
  30
0
  11
80.27071
  21
50.88308
  31
0
  0
LINE
  8
0
  10
80.27071
  20
50.88308
  30
0
  11
80.25367
  21
50.75367
  31
0
  0
LINE
  8
0
  10
80.25367
  20
50.75367
  30
0
  11
80.27071
  21
50.62426
  31
0
  0
LINE
  8
0
  10
80.27071
  20
50.62426
  30
0
  11
80.32066
  21
50.50367
  31
0
  0
LINE
  8
0
  10
80.32066
  20
50.50367
  30
0
  11
80.40011
  21
50.40011
  31
0
  0
LINE
  8
0
  10
80.40011
  20
50.40011
  30
0
  11
80.50367
  21
50.32066
  31
0
  0
LINE
  8
0
  10
80.50367
  20
50.32066
  30
0
  11
80.62426
  21
50.27071
  31
0
  0
LINE
  8
0
  10
80.62426
  20
50.27071
  30
0
  11
80.75367
  21
50.25367
  31
0
  0
LINE
  8
0
  10
80.75367
  20
50.25367
  30
0
  11
80.88308
  21
50.27071
  31
0
  0
LINE
  8
0
  10
80.88308
  20
50.27071
  30
0
  11
81.00367
  21
50.32066
  31
0
  0
LINE
  8
0
  10
81.00367
  20
50.32066
  30
0
  11
81.10722
  21
50.40011
  31
0
  0
LINE
  8
0
  10
81.10722
  20
50.40011
  30
0
  11
81.18668
  21
50.50367
  31
0
  0
LINE
  8
0
  10
81.18668
  20
50.50367
  30
0
  11
81.23663
  21
50.62426
  31
0
  0
LINE
  8
0
  10
81.23663
  20
50.62426
  30
0
  11
81.25367
  21
50.75367
  31
0
  0
LINE
  8
0
  10
81.25367
  20
50.75367
  30
0
  11
81.25367
  21
50.75367
  31
0
  0
LINE
  8
0
  10
31.51608
  20
49.82545
  30
0
  11
30.00902
  21
49.79704
  31
0
  0
LINE
  8
0
  10
31.55496
  20
52.91894
  30
0
  11
30.04908
  21
52.98521
  31
0
  0
LINE
  8
0
  10
31.788
  20
56.00388
  30
0
  11
30.28926
  21
56.16458
  31
0
  0
LINE
  8
0
  10
32.21429
  20
59.0681
  30
0
  11
30.72859
  21
59.32258
  31
0
  0
LINE
  8
0
  10
32.83214
  20
62.0995
  30
0
  11
31.36535
  21
62.44678
  31
0
  0
LINE
  8
0
  10
33.63911
  20
65.08613
  30
0
  11
32.19702
  21
65.52482
  31
0
  0
LINE
  8
0
  10
34.63202
  20
68.0162
  30
0
  11
33.22033
  21
68.54457
  31
0
  0
LINE
  8
0
  10
35.80696
  20
70.87814
  30
0
  11
34.43122
  21
71.49411
  31
0
  0
LINE
  8
0
  10
37.15927
  20
73.66065
  30
0
  11
35.82493
  21
74.36179
  31
0
  0
LINE
  8
0
  10
38.68364
  20
76.35277
  30
0
  11
37.39595
  21
77.1363
  31
0
  0
LINE
  8
0
  10
40.37403
  20
78.94385
  30
0
  11
39.13809
  21
79.8067
  31
0
  0
LINE
  8
0
  10
42.22379
  20
81.42368
  30
0
  11
41.04446
  21
82.36243
  31
0
  0
LINE
  8
0
  10
44.22561
  20
83.78247
  30
0
  11
43.10755
  21
84.79342
  31
0
  0
LINE
  8
0
  10
46.37158
  20
86.01091
  30
0
  11
45.31921
  21
87.09007
  31
0
  0
LINE
  8
0
  10
48.65325
  20
88.10021
  30
0
  11
47.67072
  21
89.24332
  31
0
  0
LINE
  8
0
  10
51.0616
  20
90.04212
  30
0
  11
50.15278
  21
91.24466
  31
0
  0
LINE
  8
0
  10
53.58713
  20
91.82897
  30
0
  11
52.75562
  21
93.08621
  31
0
  0
LINE
  8
0
  10
56.21988
  20
93.45372
  30
0
  11
55.46895
  21
94.76069
  31
0
  0
LINE
  8
0
  10
58.94945
  20
94.90995
  30
0
  11
58.28206
  21
96.26149
  31
0
  0
LINE
  8
0
  10
61.76507
  20
96.19192
  30
0
  11
61.18387
  21
97.58269
  31
0
  0
LINE
  8
0
  10
64.65563
  20
97.29456
  30
0
  11
64.1629
  21
98.71909
  31
0
  0
LINE
  8
0
  10
67.60972
  20
98.21352
  30
0
  11
67.20741
  21
99.66618
  31
0
  0
LINE
  8
0
  10
70.61569
  20
98.94519
  30
0
  11
70.30539
  21
100.42024
  31
0
  0
LINE
  8
0
  10
73.66167
  20
99.48666
  30
0
  11
73.44459
  21
100.97829
  31
0
  0
LINE
  8
0
  10
76.73563
  20
99.83581
  30
0
  11
76.61265
  21
101.33812
  31
0
  0
LINE
  8
0
  10
79.82545
  20
99.99125
  30
0
  11
79.79704
  21
101.49832
  31
0
  0
LINE
  8
0
  10
82.91894
  20
99.95238
  30
0
  11
82.98521
  21
101.45825
  31
0
  0
LINE
  8
0
  10
86.00388
  20
99.71933
  30
0
  11
86.16458
  21
101.21808
  31
0
  0
LINE
  8
0
  10
89.0681
  20
99.29305
  30
0
  11
89.32258
  21
100.77875
  31
0
  0
LINE
  8
0
  10
92.0995
  20
98.6752
  30
0
  11
92.44678
  21
100.14199
  31
0
  0
LINE
  8
0
  10
95.08613
  20
97.86823
  30
0
  11
95.52482
  21
99.31031
  31
0
  0
LINE
  8
0
  10
98.0162
  20
96.87531
  30
0
  11
98.54457
  21
98.28701
  31
0
  0
LINE
  8
0
  10
100.87814
  20
95.70038
  30
0
  11
101.49411
  21
97.07611
  31
0
  0
LINE
  8
0
  10
103.66065
  20
94.34806
  30
0
  11
104.36179
  21
95.6824
  31
0
  0
LINE
  8
0
  10
106.35277
  20
92.8237
  30
0
  11
107.1363
  21
94.11138
  31
0
  0
LINE
  8
0
  10
108.94385
  20
91.1333
  30
0
  11
109.8067
  21
92.36925
  31
0
  0
LINE
  8
0
  10
111.42368
  20
89.28355
  30
0
  11
112.36243
  21
90.46287
  31
0
  0
LINE
  8
0
  10
113.78247
  20
87.28173
  30
0
  11
114.79342
  21
88.39978
  31
0
  0
LINE
  8
0
  10
116.01091
  20
85.13575
  30
0
  11
117.09007
  21
86.18812
  31
0
  0
LINE
  8
0
  10
118.10021
  20
82.85409
  30
0
  11
119.24332
  21
83.83662
  31
0
  0
LINE
  8
0
  10
120.04212
  20
80.44574
  30
0
  11
121.24466
  21
81.35455
  31
0
  0
LINE
  8
0
  10
121.82897
  20
77.9202
  30
0
  11
123.08621
  21
78.75172
  31
0
  0
LINE
  8
0
  10
123.45372
  20
75.28746
  30
0
  11
124.76069
  21
76.03839
  31
0
  0
LINE
  8
0
  10
124.90995
  20
72.55789
  30
0
  11
126.26149
  21
73.22527
  31
0
  0
LINE
  8
0
  10
126.19192
  20
69.74227
  30
0
  11
127.58269
  21
70.32347
  31
0
  0
LINE
  8
0
  10
127.29456
  20
66.8517
  30
0
  11
128.71909
  21
67.34443
  31
0
  0
LINE
  8
0
  10
128.21352
  20
63.89761
  30
0
  11
129.66618
  21
64.29992
  31
0
  0
LINE
  8
0
  10
128.94519
  20
60.89165
  30
0
  11
130.42024
  21
61.20195
  31
0
  0
LINE
  8
0
  10
129.48666
  20
57.84567
  30
0
  11
130.97829
  21
58.06274
  31
0
  0
LINE
  8
0
  10
129.83581
  20
54.77171
  30
0
  11
131.33812
  21
54.89469
  31
0
  0
LINE
  8
0
  10
129.99125
  20
51.68188
  30
0
  11
131.49832
  21
51.7103
  31
0
  0
LINE
  8
0
  10
129.95238
  20
48.5884
  30
0
  11
131.45825
  21
48.52212
  31
0
  0
LINE
  8
0
  10
129.71933
  20
45.50346
  30
0
  11
131.21808
  21
45.34276
  31
0
  0
LINE
  8
0
  10
129.29305
  20
42.43924
  30
0
  11
130.77875
  21
42.18475
  31
0
  0
LINE
  8
0
  10
128.6752
  20
39.40783
  30
0
  11
130.14199
  21
39.06056
  31
0
  0
LINE
  8
0
  10
127.86823
  20
36.4212
  30
0
  11
129.31031
  21
35.98252
  31
0
  0
LINE
  8
0
  10
126.87531
  20
33.49114
  30
0
  11
128.28701
  21
32.96277
  31
0
  0
LINE
  8
0
  10
125.70038
  20
30.6292
  30
0
  11
127.07611
  21
30.01323
  31
0
  0
LINE
  8
0
  10
124.34806
  20
27.84668
  30
0
  11
125.6824
  21
27.14554
  31
0
  0
LINE
  8
0
  10
122.8237
  20
25.15457
  30
0
  11
124.11138
  21
24.37103
  31
0
  0
LINE
  8
0
  10
121.1333
  20
22.56349
  30
0
  11
122.36925
  21
21.70064
  31
0
  0
LINE
  8
0
  10
119.28355
  20
20.08365
  30
0
  11
120.46287
  21
19.1449
  31
0
  0
LINE
  8
0
  10
117.28173
  20
17.72486
  30
0
  11
118.39978
  21
16.71391
  31
0
  0
LINE
  8
0
  10
115.13575
  20
15.49642
  30
0
  11
116.18812
  21
14.41727
  31
0
  0
LINE
  8
0
  10
112.85409
  20
13.40713
  30
0
  11
113.83662
  21
12.26402
  31
0
  0
LINE
  8
0
  10
110.44574
  20
11.46522
  30
0
  11
111.35455
  21
10.26267
  31
0
  0
LINE
  8
0
  10
107.9202
  20
9.67836
  30
0
  11
108.75172
  21
8.42113
  31
0
  0
LINE
  8
0
  10
105.28746
  20
8.05362
  30
0
  11
106.03839
  21
6.74665
  31
0
  0
LINE
  8
0
  10
102.55789
  20
6.59739
  30
0
  11
103.22527
  21
5.24585
  31
0
  0
LINE
  8
0
  10
99.74227
  20
5.31542
  30
0
  11
100.32347
  21
3.92464
  31
0
  0
LINE
  8
0
  10
96.8517
  20
4.21278
  30
0
  11
97.34443
  21
2.78825
  31
0
  0
LINE
  8
0
  10
93.89761
  20
3.29381
  30
0
  11
94.29992
  21
1.84116
  31
0
  0
LINE
  8
0
  10
90.89165
  20
2.56215
  30
0
  11
91.20195
  21
1.0871
  31
0
  0
LINE
  8
0
  10
87.84567
  20
2.02067
  30
0
  11
88.06274
  21
0.52905
  31
0
  0
LINE
  8
0
  10
84.77171
  20
1.67153
  30
0
  11
84.89469
  21
0.16922
  31
0
  0
LINE
  8
0
  10
81.68188
  20
1.51608
  30
0
  11
81.7103
  21
0.00902
  31
0
  0
LINE
  8
0
  10
78.5884
  20
1.55496
  30
0
  11
78.52212
  21
0.04908
  31
0
  0
LINE
  8
0
  10
75.50346
  20
1.788
  30
0
  11
75.34276
  21
0.28926
  31
0
  0
LINE
  8
0
  10
72.43924
  20
2.21429
  30
0
  11
72.18475
  21
0.72859
  31
0
  0
LINE
  8
0
  10
69.40783
  20
2.83214
  30
0
  11
69.06056
  21
1.36535
  31
0
  0
LINE
  8
0
  10
66.4212
  20
3.63911
  30
0
  11
65.98252
  21
2.19702
  31
0
  0
LINE
  8
0
  10
63.49114
  20
4.63202
  30
0
  11
62.96277
  21
3.22033
  31
0
  0
LINE
  8
0
  10
60.6292
  20
5.80696
  30
0
  11
60.01323
  21
4.43122
  31
0
  0
LINE
  8
0
  10
57.84668
  20
7.15927
  30
0
  11
57.14554
  21
5.82493
  31
0
  0
LINE
  8
0
  10
55.15457
  20
8.68364
  30
0
  11
54.37103
  21
7.39595
  31
0
  0
LINE
  8
0
  10
52.56349
  20
10.37403
  30
0
  11
51.70064
  21
9.13809
  31
0
  0
LINE
  8
0
  10
50.08365
  20
12.22379
  30
0
  11
49.1449
  21
11.04446
  31
0
  0
LINE
  8
0
  10
47.72486
  20
14.22561
  30
0
  11
46.71391
  21
13.10755
  31
0
  0
LINE
  8
0
  10
45.49642
  20
16.37158
  30
0
  11
44.41727
  21
15.31921
  31
0
  0
LINE
  8
0
  10
43.40713
  20
18.65325
  30
0
  11
42.26402
  21
17.67072
  31
0
  0
LINE
  8
0
  10
41.46522
  20
21.0616
  30
0
  11
40.26267
  21
20.15278
  31
0
  0
LINE
  8
0
  10
39.67836
  20
23.58713
  30
0
  11
38.42113
  21
22.75562
  31
0
  0
LINE
  8
0
  10
38.05362
  20
26.21988
  30
0
  11
36.74665
  21
25.46895
  31
0
  0
LINE
  8
0
  10
36.59739
  20
28.94945
  30
0
  11
35.24585
  21
28.28206
  31
0
  0
LINE
  8
0
  10
35.31542
  20
31.76507
  30
0
  11
33.92464
  21
31.18387
  31
0
  0
LINE
  8
0
  10
34.21278
  20
34.65563
  30
0
  11
32.78825
  21
34.1629
  31
0
  0
LINE
  8
0
  10
33.29381
  20
37.60972
  30
0
  11
31.84116
  21
37.20741
  31
0
  0
LINE
  8
0
  10
32.56215
  20
40.61569
  30
0
  11
31.0871
  21
40.30539
  31
0
  0
LINE
  8
0
  10
32.02067
  20
43.66167
  30
0
  11
30.52905
  21
43.44459
  31
0
  0
LINE
  8
0
  10
31.67153
  20
46.73563
  30
0
  11
30.16922
  21
46.61265
  31
0
  0
LINE
  8
0
  10
130.75367
  20
50.75367
  30
0
  11
130.75367
  21
50.75367
  31
0
  0
LINE
  8
0
  10
130.75367
  20
50.75367
  30
0
  11
130.655
  21
53.89319
  31
0
  0
LINE
  8
0
  10
130.655
  20
53.89319
  30
0
  11
130.3594
  21
57.02033
  31
0
  0
LINE
  8
0
  10
130.3594
  20
57.02033
  30
0
  11
129.86803
  21
60.12273
  31
0
  0
LINE
  8
0
  10
129.86803
  20
60.12273
  30
0
  11
129.18283
  21
63.18816
  31
0
  0
LINE
  8
0
  10
129.18283
  20
63.18816
  30
0
  11
128.30649
  21
66.20452
  31
0
  0
LINE
  8
0
  10
128.30649
  20
66.20452
  30
0
  11
127.24249
  21
69.1599
  31
0
  0
LINE
  8
0
  10
127.24249
  20
69.1599
  30
0
  11
125.99502
  21
72.04263
  31
0
  0
LINE
  8
0
  10
125.99502
  20
72.04263
  30
0
  11
124.569
  21
74.84135
  31
0
  0
LINE
  8
0
  10
124.569
  20
74.84135
  30
0
  11
122.97006
  21
77.54501
  31
0
  0
LINE
  8
0
  10
122.97006
  20
77.54501
  30
0
  11
121.20452
  21
80.14293
  31
0
  0
LINE
  8
0
  10
121.20452
  20
80.14293
  30
0
  11
119.27933
  21
82.62487
  31
0
  0
LINE
  8
0
  10
119.27933
  20
82.62487
  30
0
  11
117.2021
  21
84.98102
  31
0
  0
LINE
  8
0
  10
117.2021
  20
84.98102
  30
0
  11
114.98102
  21
87.2021
  31
0
  0
LINE
  8
0
  10
114.98102
  20
87.2021
  30
0
  11
112.62487
  21
89.27933
  31
0
  0
LINE
  8
0
  10
112.62487
  20
89.27933
  30
0
  11
110.14293
  21
91.20452
  31
0
  0
LINE
  8
0
  10
110.14293
  20
91.20452
  30
0
  11
107.54501
  21
92.97006
  31
0
  0
LINE
  8
0
  10
107.54501
  20
92.97006
  30
0
  11
104.84135
  21
94.569
  31
0
  0
LINE
  8
0
  10
104.84135
  20
94.569
  30
0
  11
102.04263
  21
95.99502
  31
0
  0
LINE
  8
0
  10
102.04263
  20
95.99502
  30
0
  11
99.1599
  21
97.24249
  31
0
  0
LINE
  8
0
  10
99.1599
  20
97.24249
  30
0
  11
96.20452
  21
98.30649
  31
0
  0
LINE
  8
0
  10
96.20452
  20
98.30649
  30
0
  11
93.18816
  21
99.18283
  31
0
  0
LINE
  8
0
  10
93.18816
  20
99.18283
  30
0
  11
90.12273
  21
99.86803
  31
0
  0
LINE
  8
0
  10
90.12273
  20
99.86803
  30
0
  11
87.02033
  21
100.3594
  31
0
  0
LINE
  8
0
  10
87.02033
  20
100.3594
  30
0
  11
83.89319
  21
100.655
  31
0
  0
LINE
  8
0
  10
83.89319
  20
100.655
  30
0
  11
80.75367
  21
100.75367
  31
0
  0
LINE
  8
0
  10
80.75367
  20
100.75367
  30
0
  11
77.61414
  21
100.655
  31
0
  0
LINE
  8
0
  10
77.61414
  20
100.655
  30
0
  11
74.48701
  21
100.3594
  31
0
  0
LINE
  8
0
  10
74.48701
  20
100.3594
  30
0
  11
71.3846
  21
99.86803
  31
0
  0
LINE
  8
0
  10
71.3846
  20
99.86803
  30
0
  11
68.31917
  21
99.18283
  31
0
  0
LINE
  8
0
  10
68.31917
  20
99.18283
  30
0
  11
65.30282
  21
98.30649
  31
0
  0
LINE
  8
0
  10
65.30282
  20
98.30649
  30
0
  11
62.34744
  21
97.24249
  31
0
  0
LINE
  8
0
  10
62.34744
  20
97.24249
  30
0
  11
59.4647
  21
95.99502
  31
0
  0
LINE
  8
0
  10
59.4647
  20
95.99502
  30
0
  11
56.66598
  21
94.569
  31
0
  0
LINE
  8
0
  10
56.66598
  20
94.569
  30
0
  11
53.96233
  21
92.97006
  31
0
  0
LINE
  8
0
  10
53.96233
  20
92.97006
  30
0
  11
51.36441
  21
91.20452
  31
0
  0
LINE
  8
0
  10
51.36441
  20
91.20452
  30
0
  11
48.88247
  21
89.27933
  31
0
  0
LINE
  8
0
  10
48.88247
  20
89.27933
  30
0
  11
46.52631
  21
87.2021
  31
0
  0
LINE
  8
0
  10
46.52631
  20
87.2021
  30
0
  11
44.30524
  21
84.98102
  31
0
  0
LINE
  8
0
  10
44.30524
  20
84.98102
  30
0
  11
42.22801
  21
82.62487
  31
0
  0
LINE
  8
0
  10
42.22801
  20
82.62487
  30
0
  11
40.30282
  21
80.14293
  31
0
  0
LINE
  8
0
  10
40.30282
  20
80.14293
  30
0
  11
38.53727
  21
77.54501
  31
0
  0
LINE
  8
0
  10
38.53727
  20
77.54501
  30
0
  11
36.93833
  21
74.84135
  31
0
  0
LINE
  8
0
  10
36.93833
  20
74.84135
  30
0
  11
35.51232
  21
72.04263
  31
0
  0
LINE
  8
0
  10
35.51232
  20
72.04263
  30
0
  11
34.26484
  21
69.1599
  31
0
  0
LINE
  8
0
  10
34.26484
  20
69.1599
  30
0
  11
33.20084
  21
66.20452
  31
0
  0
LINE
  8
0
  10
33.20084
  20
66.20452
  30
0
  11
32.32451
  21
63.18816
  31
0
  0
LINE
  8
0
  10
32.32451
  20
63.18816
  30
0
  11
31.63931
  21
60.12273
  31
0
  0
LINE
  8
0
  10
31.63931
  20
60.12273
  30
0
  11
31.14793
  21
57.02033
  31
0
  0
LINE
  8
0
  10
31.14793
  20
57.02033
  30
0
  11
30.85233
  21
53.89319
  31
0
  0
LINE
  8
0
  10
30.85233
  20
53.89319
  30
0
  11
30.75367
  21
50.75367
  31
0
  0
LINE
  8
0
  10
30.75367
  20
50.75367
  30
0
  11
30.85233
  21
47.61414
  31
0
  0
LINE
  8
0
  10
30.85233
  20
47.61414
  30
0
  11
31.14793
  21
44.48701
  31
0
  0
LINE
  8
0
  10
31.14793
  20
44.48701
  30
0
  11
31.63931
  21
41.3846
  31
0
  0
LINE
  8
0
  10
31.63931
  20
41.3846
  30
0
  11
32.32451
  21
38.31917
  31
0
  0
LINE
  8
0
  10
32.32451
  20
38.31917
  30
0
  11
33.20084
  21
35.30282
  31
0
  0
LINE
  8
0
  10
33.20084
  20
35.30282
  30
0
  11
34.26484
  21
32.34744
  31
0
  0
LINE
  8
0
  10
34.26484
  20
32.34744
  30
0
  11
35.51232
  21
29.4647
  31
0
  0
LINE
  8
0
  10
35.51232
  20
29.4647
  30
0
  11
36.93833
  21
26.66598
  31
0
  0
LINE
  8
0
  10
36.93833
  20
26.66598
  30
0
  11
38.53727
  21
23.96233
  31
0
  0
LINE
  8
0
  10
38.53727
  20
23.96233
  30
0
  11
40.30282
  21
21.36441
  31
0
  0
LINE
  8
0
  10
40.30282
  20
21.36441
  30
0
  11
42.22801
  21
18.88247
  31
0
  0
LINE
  8
0
  10
42.22801
  20
18.88247
  30
0
  11
44.30524
  21
16.52631
  31
0
  0
LINE
  8
0
  10
44.30524
  20
16.52631
  30
0
  11
46.52631
  21
14.30524
  31
0
  0
LINE
  8
0
  10
46.52631
  20
14.30524
  30
0
  11
48.88247
  21
12.22801
  31
0
  0
LINE
  8
0
  10
48.88247
  20
12.22801
  30
0
  11
51.36441
  21
10.30282
  31
0
  0
LINE
  8
0
  10
51.36441
  20
10.30282
  30
0
  11
53.96233
  21
8.53727
  31
0
  0
LINE
  8
0
  10
53.96233
  20
8.53727
  30
0
  11
56.66598
  21
6.93833
  31
0
  0
LINE
  8
0
  10
56.66598
  20
6.93833
  30
0
  11
59.4647
  21
5.51232
  31
0
  0
LINE
  8
0
  10
59.4647
  20
5.51232
  30
0
  11
62.34744
  21
4.26484
  31
0
  0
LINE
  8
0
  10
62.34744
  20
4.26484
  30
0
  11
65.30282
  21
3.20084
  31
0
  0
LINE
  8
0
  10
65.30282
  20
3.20084
  30
0
  11
68.31917
  21
2.32451
  31
0
  0
LINE
  8
0
  10
68.31917
  20
2.32451
  30
0
  11
71.3846
  21
1.63931
  31
0
  0
LINE
  8
0
  10
71.3846
  20
1.63931
  30
0
  11
74.48701
  21
1.14793
  31
0
  0
LINE
  8
0
  10
74.48701
  20
1.14793
  30
0
  11
77.61414
  21
0.85233
  31
0
  0
LINE
  8
0
  10
77.61414
  20
0.85233
  30
0
  11
80.75367
  21
0.75367
  31
0
  0
LINE
  8
0
  10
80.75367
  20
0.75367
  30
0
  11
83.89319
  21
0.85233
  31
0
  0
LINE
  8
0
  10
83.89319
  20
0.85233
  30
0
  11
87.02033
  21
1.14793
  31
0
  0
LINE
  8
0
  10
87.02033
  20
1.14793
  30
0
  11
90.12273
  21
1.63931
  31
0
  0
LINE
  8
0
  10
90.12273
  20
1.63931
  30
0
  11
93.18816
  21
2.32451
  31
0
  0
LINE
  8
0
  10
93.18816
  20
2.32451
  30
0
  11
96.20452
  21
3.20084
  31
0
  0
LINE
  8
0
  10
96.20452
  20
3.20084
  30
0
  11
99.1599
  21
4.26484
  31
0
  0
LINE
  8
0
  10
99.1599
  20
4.26484
  30
0
  11
102.04263
  21
5.51232
  31
0
  0
LINE
  8
0
  10
102.04263
  20
5.51232
  30
0
  11
104.84135
  21
6.93833
  31
0
  0
LINE
  8
0
  10
104.84135
  20
6.93833
  30
0
  11
107.54501
  21
8.53727
  31
0
  0
LINE
  8
0
  10
107.54501
  20
8.53727
  30
0
  11
110.14293
  21
10.30282
  31
0
  0
LINE
  8
0
  10
110.14293
  20
10.30282
  30
0
  11
112.62487
  21
12.22801
  31
0
  0
LINE
  8
0
  10
112.62487
  20
12.22801
  30
0
  11
114.98102
  21
14.30524
  31
0
  0
LINE
  8
0
  10
114.98102
  20
14.30524
  30
0
  11
117.2021
  21
16.52631
  31
0
  0
LINE
  8
0
  10
117.2021
  20
16.52631
  30
0
  11
119.27933
  21
18.88247
  31
0
  0
LINE
  8
0
  10
119.27933
  20
18.88247
  30
0
  11
121.20452
  21
21.36441
  31
0
  0
LINE
  8
0
  10
121.20452
  20
21.36441
  30
0
  11
122.97006
  21
23.96233
  31
0
  0
LINE
  8
0
  10
122.97006
  20
23.96233
  30
0
  11
124.569
  21
26.66598
  31
0
  0
LINE
  8
0
  10
124.569
  20
26.66598
  30
0
  11
125.99502
  21
29.4647
  31
0
  0
LINE
  8
0
  10
125.99502
  20
29.4647
  30
0
  11
127.24249
  21
32.34744
  31
0
  0
LINE
  8
0
  10
127.24249
  20
32.34744
  30
0
  11
128.30649
  21
35.30282
  31
0
  0
LINE
  8
0
  10
128.30649
  20
35.30282
  30
0
  11
129.18283
  21
38.31917
  31
0
  0
LINE
  8
0
  10
129.18283
  20
38.31917
  30
0
  11
129.86803
  21
41.3846
  31
0
  0
LINE
  8
0
  10
129.86803
  20
41.3846
  30
0
  11
130.3594
  21
44.48701
  31
0
  0
LINE
  8
0
  10
130.3594
  20
44.48701
  30
0
  11
130.655
  21
47.61414
  31
0
  0
LINE
  8
0
  10
130.655
  20
47.61414
  30
0
  11
130.75367
  21
50.75367
  31
0
  0
LINE
  8
0
  10
130.75367
  20
50.75367
  30
0
  11
130.75367
  21
50.75367
  31
0
  0
LINE
  8
0
  10
63.83578
  20
50.75367
  30
0
  11
97.67156
  21
50.75367
  31
0
  0
LINE
  8
0
  10
80.75367
  20
33.83578
  30
0
  11
80.75367
  21
67.67156
  31
0
  0
ENDSEC
  0
EOF
