ISO-10303-21;
HEADER;
/* Generated by software containing ST-Developer
 * from STEP Tools, Inc. (www.steptools.com) 
 */

FILE_DESCRIPTION(
/* description */ ('Alibre Inc.'),
/* implementation_level */ '2;1');

FILE_NAME(
/* name */ 'export-472B04C0-49F5-4AC7-B6DD-CCE5692DE87E',
/* time_stamp */ '2018-12-26T18:08:57+01:00',
/* author */ (''),
/* organization */ (''),
/* preprocessor_version */ 'ST-DEVELOPER v17',
/* originating_system */ 'Alibre',
/* authorisation */ '');

FILE_SCHEMA (('CONFIG_CONTROL_DESIGN'));
ENDSEC;

DATA;
#10=MECHANICAL_CONTEXT('detailed design',#18,'mechanical');
#11=PRODUCT_RELATED_PRODUCT_CATEGORY('Detail','',(#98));
#12=CC_DESIGN_SECURITY_CLASSIFICATION(#14,(#97));
#13=SECURITY_CLASSIFICATION_LEVEL('unclassified');
#14=SECURITY_CLASSIFICATION('Name','Sicherheit f\X\FCr Version',#13);
#15=SHAPE_DEFINITION_REPRESENTATION(#16,#706);
#16=PRODUCT_DEFINITION_SHAPE('','DefinitionDesc',#96);
#17=APPLICATION_PROTOCOL_DEFINITION('AP definition status',
'config_control_design',1994,#18);
#18=APPLICATION_CONTEXT(
'control the configuration of three dimensional design');
#19=DESIGN_CONTEXT('detailed design',#18,'design');
#20=PERSON_AND_ORGANIZATION_ROLE('creator');
#21=PERSON_AND_ORGANIZATION_ROLE('classification_officer');
#22=PERSON_AND_ORGANIZATION_ROLE('creator');
#23=PERSON_AND_ORGANIZATION_ROLE('design_supplier');
#24=PERSON_AND_ORGANIZATION_ROLE('design_owner');
#25=CC_DESIGN_PERSON_AND_ORGANIZATION_ASSIGNMENT(#57,#20,(#96));
#26=CC_DESIGN_PERSON_AND_ORGANIZATION_ASSIGNMENT(#60,#21,(#14));
#27=CC_DESIGN_PERSON_AND_ORGANIZATION_ASSIGNMENT(#61,#22,(#97));
#28=CC_DESIGN_PERSON_AND_ORGANIZATION_ASSIGNMENT(#62,#23,(#97));
#29=CC_DESIGN_PERSON_AND_ORGANIZATION_ASSIGNMENT(#63,#24,(#98));
#30=DATE_TIME_ROLE('creation_date');
#31=DATE_TIME_ROLE('classification_date');
#32=CC_DESIGN_DATE_AND_TIME_ASSIGNMENT(#86,#30,(#96));
#33=CC_DESIGN_DATE_AND_TIME_ASSIGNMENT(#89,#31,(#14));
#34=CC_DESIGN_APPROVAL(#93,(#96));
#35=CC_DESIGN_APPROVAL(#94,(#97));
#36=CC_DESIGN_APPROVAL(#95,(#14));
#37=APPROVAL_PERSON_ORGANIZATION(#56,#93,#64);
#38=APPROVAL_PERSON_ORGANIZATION(#58,#94,#65);
#39=APPROVAL_PERSON_ORGANIZATION(#59,#95,#66);
#40=ORGANIZATION('DEFINITION_APPROVEDBY_ORG_ID',
'DEFINITION_APPROVEDBY_ORG_NAME','DEFINITION_APPROVEDBY_ORG_DESCR');
#41=ORGANIZATION('DEF_CREATOR_ORG_ID','DEF_CREATOR_ORG_NAME',
'DEF_CREATOR_ORG_DESCR');
#42=ORGANIZATION('APPROVEDBY_ORG_ID','APPROVEDBY_ORG_NAME',
'APPROVEDBY_ORG_DESCR');
#43=ORGANIZATION('SECURITY_APPROVEDBY_ORG_ID',
'SECURITY_APPROVEDBY_ORG_NAME','SECURITY_APPROVEDBY_ORG_DESCR');
#44=ORGANIZATION('ABTEILUNGSLEITER_ORG_ID','ABTEILUNSLEITER_ORG_NAME',
'CLASSOFFICER_ORG_BEZEICHNUNG');
#45=ORGANIZATION('CREATOR_ORG_ID','CREATOR_ORG_NAME',
'CREATOR_ORG_DESCR');
#46=ORGANIZATION('SUPPLIER_ORG_ID','SUPPLIER_ORG_NAME',
'SUPPLIER_ORG_DESCR');
#47=ORGANIZATION('OWNER_ORG_ID','OWNER_ORG_NAME','OWNER_ORG_DESCR');
#48=PERSON('DEFINITION_approverID','DEFINITION_APPROVEDBY_LASTNAME',
'DEFINITION_APPROVEDBY_FIRSTNAME',$,$,$);
#49=PERSON('DEF_createrID','DEF_CREATOR_LASTNAME',
'DEF_CREATOR_FIRSTNAME',$,$,$);
#50=PERSON('approverID','APPROVEDBY_LASTNAME','APPROVEDBY_FIRSTNAME',$,
$,$);
#51=PERSON('SECURITY_approverID','SECURITY_LASTNAME',
'SECURITY_APPROVEDBY_FIRSTNAME',$,$,$);
#52=PERSON('ID Klassifikation','CLASSOFFICER_NACHNAME',
'CLASSOFFICER_VORNAME',$,$,$);
#53=PERSON('ErstellerID','CREATOR_LASTNAME','CREATOR_FIRSTNAME',$,$,$);
#54=PERSON('supplierID','SUPPLIER_LASTNAME','SUPPLIER_FIRSTNAME',$,$,$);
#55=PERSON('ownerID','OWNER_LASTNAME','OWNER_FIRSTNAME',$,$,$);
#56=PERSON_AND_ORGANIZATION(#48,#40);
#57=PERSON_AND_ORGANIZATION(#49,#41);
#58=PERSON_AND_ORGANIZATION(#50,#42);
#59=PERSON_AND_ORGANIZATION(#51,#43);
#60=PERSON_AND_ORGANIZATION(#52,#44);
#61=PERSON_AND_ORGANIZATION(#53,#45);
#62=PERSON_AND_ORGANIZATION(#54,#46);
#63=PERSON_AND_ORGANIZATION(#55,#47);
#64=APPROVAL_ROLE('definition_approval');
#65=APPROVAL_ROLE('version_approval');
#66=APPROVAL_ROLE('security_approval');
#67=APPROVAL_DATE_TIME(#85,#93);
#68=APPROVAL_DATE_TIME(#87,#94);
#69=APPROVAL_DATE_TIME(#88,#95);
#70=COORDINATED_UNIVERSAL_TIME_OFFSET(1,0,.AHEAD.);
#71=COORDINATED_UNIVERSAL_TIME_OFFSET(1,0,.AHEAD.);
#72=COORDINATED_UNIVERSAL_TIME_OFFSET(1,0,.AHEAD.);
#73=COORDINATED_UNIVERSAL_TIME_OFFSET(1,0,.AHEAD.);
#74=COORDINATED_UNIVERSAL_TIME_OFFSET(1,0,.AHEAD.);
#75=LOCAL_TIME(22,34,5.,#70);
#76=LOCAL_TIME(22,34,5.,#71);
#77=LOCAL_TIME(22,34,5.,#72);
#78=LOCAL_TIME(22,34,5.,#73);
#79=LOCAL_TIME(22,34,5.,#74);
#80=CALENDAR_DATE(2018,11,12);
#81=CALENDAR_DATE(2018,11,12);
#82=CALENDAR_DATE(2018,11,12);
#83=CALENDAR_DATE(2018,11,12);
#84=CALENDAR_DATE(2018,11,12);
#85=DATE_AND_TIME(#80,#75);
#86=DATE_AND_TIME(#81,#76);
#87=DATE_AND_TIME(#82,#77);
#88=DATE_AND_TIME(#83,#78);
#89=DATE_AND_TIME(#84,#79);
#90=APPROVAL_STATUS('not_yet_approved');
#91=APPROVAL_STATUS('not_yet_approved');
#92=APPROVAL_STATUS('not_yet_approved');
#93=APPROVAL(#90,'Genehmigung der Ausf\X\FChrung');
#94=APPROVAL(#91,'Genehmigung der Version');
#95=APPROVAL(#92,'Sicherheits Genehmigung');
#96=PRODUCT_DEFINITION('DefinitionID','DefinitionDesc',#97,#19);
#97=PRODUCT_DEFINITION_FORMATION_WITH_SPECIFIED_SOURCE(
'PRODUCT_VERSION_ID','PRODUCT_VERSION_DESCR',#98,.NOT_KNOWN.);
#98=PRODUCT('ID_1','Ventil neu - Anschlu\X\DFplatte','',(#10));
#99=(
LENGTH_UNIT()
NAMED_UNIT(*)
SI_UNIT(.CENTI.,.METRE.)
);
#100=(
NAMED_UNIT(*)
PLANE_ANGLE_UNIT()
SI_UNIT($,.RADIAN.)
);
#101=(
NAMED_UNIT(*)
SI_UNIT($,.STERADIAN.)
SOLID_ANGLE_UNIT()
);
#102=UNCERTAINTY_MEASURE_WITH_UNIT(LENGTH_MEASURE(1.E-6),#99,
'DISTANCE_ACCURACY_VALUE',
'Maximum model space distance between geometric entities at asserted c
onnectivities');
#103=(
GEOMETRIC_REPRESENTATION_CONTEXT(3)
GLOBAL_UNCERTAINTY_ASSIGNED_CONTEXT((#102))
GLOBAL_UNIT_ASSIGNED_CONTEXT((#101,#100,#99))
REPRESENTATION_CONTEXT('ID1','3D')
);
#104=CYLINDRICAL_SURFACE('',#469,0.7);
#105=CYLINDRICAL_SURFACE('',#471,0.7);
#106=CYLINDRICAL_SURFACE('',#473,0.7);
#107=CYLINDRICAL_SURFACE('',#475,0.7);
#108=CYLINDRICAL_SURFACE('',#478,0.7);
#109=CYLINDRICAL_SURFACE('',#480,0.7);
#110=CYLINDRICAL_SURFACE('',#482,0.7);
#111=CYLINDRICAL_SURFACE('',#484,0.7);
#112=CYLINDRICAL_SURFACE('',#489,4.99102866669623);
#113=CYLINDRICAL_SURFACE('',#491,0.75);
#114=CYLINDRICAL_SURFACE('',#493,0.750000000000001);
#115=CYLINDRICAL_SURFACE('',#495,0.749999999999998);
#116=CYLINDRICAL_SURFACE('',#497,0.749999999999998);
#117=CYLINDRICAL_SURFACE('',#499,0.75);
#118=CYLINDRICAL_SURFACE('',#501,0.749999999999998);
#119=CYLINDRICAL_SURFACE('',#503,0.75);
#120=CYLINDRICAL_SURFACE('',#505,0.75);
#121=VERTEX_POINT('',#615);
#122=VERTEX_POINT('',#617);
#123=VERTEX_POINT('',#619);
#124=VERTEX_POINT('',#621);
#125=VERTEX_POINT('',#623);
#126=VERTEX_POINT('',#625);
#127=VERTEX_POINT('',#627);
#128=VERTEX_POINT('',#629);
#129=VERTEX_POINT('',#631);
#130=VERTEX_POINT('',#633);
#131=VERTEX_POINT('',#635);
#132=VERTEX_POINT('',#637);
#133=VERTEX_POINT('',#639);
#134=VERTEX_POINT('',#641);
#135=VERTEX_POINT('',#644);
#136=VERTEX_POINT('',#647);
#137=VERTEX_POINT('',#650);
#138=VERTEX_POINT('',#653);
#139=VERTEX_POINT('',#655);
#140=VERTEX_POINT('',#658);
#141=VERTEX_POINT('',#661);
#142=VERTEX_POINT('',#664);
#143=VERTEX_POINT('',#667);
#144=VERTEX_POINT('',#670);
#145=VERTEX_POINT('',#672);
#146=VERTEX_POINT('',#675);
#147=VERTEX_POINT('',#678);
#148=VERTEX_POINT('',#681);
#149=VERTEX_POINT('',#684);
#150=VERTEX_POINT('',#687);
#151=VERTEX_POINT('',#690);
#152=VERTEX_POINT('',#693);
#153=VERTEX_POINT('',#696);
#154=VERTEX_POINT('',#699);
#155=CIRCLE('',#455,0.75);
#156=CIRCLE('',#456,0.7);
#157=CIRCLE('',#457,0.7);
#158=CIRCLE('',#458,0.75);
#159=CIRCLE('',#459,0.749999999999998);
#160=CIRCLE('',#460,0.7);
#161=CIRCLE('',#461,0.7);
#162=CIRCLE('',#462,0.75);
#163=CIRCLE('',#463,0.749999999999998);
#164=CIRCLE('',#464,0.7);
#165=CIRCLE('',#465,0.7);
#166=CIRCLE('',#466,0.749999999999998);
#167=CIRCLE('',#467,0.7);
#168=CIRCLE('',#468,0.75);
#169=CIRCLE('',#470,0.7);
#170=CIRCLE('',#472,0.7);
#171=CIRCLE('',#474,0.7);
#172=CIRCLE('',#476,0.7);
#173=CIRCLE('',#477,0.7);
#174=CIRCLE('',#479,0.7);
#175=CIRCLE('',#481,0.7);
#176=CIRCLE('',#483,0.7);
#177=CIRCLE('',#485,0.7);
#178=CIRCLE('',#487,4.99102866669623);
#179=CIRCLE('',#488,0.750000000000001);
#180=CIRCLE('',#490,4.99102866669623);
#181=CIRCLE('',#492,0.75);
#182=CIRCLE('',#494,0.750000000000001);
#183=CIRCLE('',#496,0.749999999999998);
#184=CIRCLE('',#498,0.749999999999998);
#185=CIRCLE('',#500,0.75);
#186=CIRCLE('',#502,0.749999999999998);
#187=CIRCLE('',#504,0.75);
#188=CIRCLE('',#506,0.75);
#189=EDGE_CURVE('',#121,#121,#155,.T.);
#190=EDGE_CURVE('',#122,#122,#156,.T.);
#191=EDGE_CURVE('',#123,#123,#157,.T.);
#192=EDGE_CURVE('',#124,#124,#158,.T.);
#193=EDGE_CURVE('',#125,#125,#159,.T.);
#194=EDGE_CURVE('',#126,#126,#160,.T.);
#195=EDGE_CURVE('',#127,#127,#161,.T.);
#196=EDGE_CURVE('',#128,#128,#162,.T.);
#197=EDGE_CURVE('',#129,#129,#163,.T.);
#198=EDGE_CURVE('',#130,#130,#164,.T.);
#199=EDGE_CURVE('',#131,#131,#165,.T.);
#200=EDGE_CURVE('',#132,#132,#166,.T.);
#201=EDGE_CURVE('',#133,#133,#167,.T.);
#202=EDGE_CURVE('',#134,#134,#168,.T.);
#203=EDGE_CURVE('',#135,#135,#169,.T.);
#204=EDGE_CURVE('',#136,#136,#170,.T.);
#205=EDGE_CURVE('',#137,#137,#171,.T.);
#206=EDGE_CURVE('',#138,#138,#172,.T.);
#207=EDGE_CURVE('',#139,#139,#173,.T.);
#208=EDGE_CURVE('',#140,#140,#174,.T.);
#209=EDGE_CURVE('',#141,#141,#175,.T.);
#210=EDGE_CURVE('',#142,#142,#176,.T.);
#211=EDGE_CURVE('',#143,#143,#177,.T.);
#212=EDGE_CURVE('',#144,#144,#178,.T.);
#213=EDGE_CURVE('',#145,#145,#179,.T.);
#214=EDGE_CURVE('',#146,#146,#180,.T.);
#215=EDGE_CURVE('',#147,#147,#181,.T.);
#216=EDGE_CURVE('',#148,#148,#182,.T.);
#217=EDGE_CURVE('',#149,#149,#183,.T.);
#218=EDGE_CURVE('',#150,#150,#184,.T.);
#219=EDGE_CURVE('',#151,#151,#185,.T.);
#220=EDGE_CURVE('',#152,#152,#186,.T.);
#221=EDGE_CURVE('',#153,#153,#187,.T.);
#222=EDGE_CURVE('',#154,#154,#188,.T.);
#223=ORIENTED_EDGE('',*,*,#189,.T.);
#224=ORIENTED_EDGE('',*,*,#190,.F.);
#225=ORIENTED_EDGE('',*,*,#191,.F.);
#226=ORIENTED_EDGE('',*,*,#192,.T.);
#227=ORIENTED_EDGE('',*,*,#193,.T.);
#228=ORIENTED_EDGE('',*,*,#194,.F.);
#229=ORIENTED_EDGE('',*,*,#195,.F.);
#230=ORIENTED_EDGE('',*,*,#196,.T.);
#231=ORIENTED_EDGE('',*,*,#197,.T.);
#232=ORIENTED_EDGE('',*,*,#198,.F.);
#233=ORIENTED_EDGE('',*,*,#199,.F.);
#234=ORIENTED_EDGE('',*,*,#200,.T.);
#235=ORIENTED_EDGE('',*,*,#201,.F.);
#236=ORIENTED_EDGE('',*,*,#202,.T.);
#237=ORIENTED_EDGE('',*,*,#203,.T.);
#238=ORIENTED_EDGE('',*,*,#201,.T.);
#239=ORIENTED_EDGE('',*,*,#204,.T.);
#240=ORIENTED_EDGE('',*,*,#191,.T.);
#241=ORIENTED_EDGE('',*,*,#205,.T.);
#242=ORIENTED_EDGE('',*,*,#194,.T.);
#243=ORIENTED_EDGE('',*,*,#206,.T.);
#244=ORIENTED_EDGE('',*,*,#207,.T.);
#245=ORIENTED_EDGE('',*,*,#208,.T.);
#246=ORIENTED_EDGE('',*,*,#199,.T.);
#247=ORIENTED_EDGE('',*,*,#209,.T.);
#248=ORIENTED_EDGE('',*,*,#198,.T.);
#249=ORIENTED_EDGE('',*,*,#210,.T.);
#250=ORIENTED_EDGE('',*,*,#195,.T.);
#251=ORIENTED_EDGE('',*,*,#211,.T.);
#252=ORIENTED_EDGE('',*,*,#190,.T.);
#253=ORIENTED_EDGE('',*,*,#211,.F.);
#254=ORIENTED_EDGE('',*,*,#210,.F.);
#255=ORIENTED_EDGE('',*,*,#209,.F.);
#256=ORIENTED_EDGE('',*,*,#208,.F.);
#257=ORIENTED_EDGE('',*,*,#206,.F.);
#258=ORIENTED_EDGE('',*,*,#205,.F.);
#259=ORIENTED_EDGE('',*,*,#204,.F.);
#260=ORIENTED_EDGE('',*,*,#203,.F.);
#261=ORIENTED_EDGE('',*,*,#212,.F.);
#262=ORIENTED_EDGE('',*,*,#213,.T.);
#263=ORIENTED_EDGE('',*,*,#207,.F.);
#264=ORIENTED_EDGE('',*,*,#212,.T.);
#265=ORIENTED_EDGE('',*,*,#214,.T.);
#266=ORIENTED_EDGE('',*,*,#215,.T.);
#267=ORIENTED_EDGE('',*,*,#202,.F.);
#268=ORIENTED_EDGE('',*,*,#216,.T.);
#269=ORIENTED_EDGE('',*,*,#213,.F.);
#270=ORIENTED_EDGE('',*,*,#217,.T.);
#271=ORIENTED_EDGE('',*,*,#200,.F.);
#272=ORIENTED_EDGE('',*,*,#218,.T.);
#273=ORIENTED_EDGE('',*,*,#197,.F.);
#274=ORIENTED_EDGE('',*,*,#219,.T.);
#275=ORIENTED_EDGE('',*,*,#196,.F.);
#276=ORIENTED_EDGE('',*,*,#220,.T.);
#277=ORIENTED_EDGE('',*,*,#193,.F.);
#278=ORIENTED_EDGE('',*,*,#221,.T.);
#279=ORIENTED_EDGE('',*,*,#192,.F.);
#280=ORIENTED_EDGE('',*,*,#222,.T.);
#281=ORIENTED_EDGE('',*,*,#189,.F.);
#282=ORIENTED_EDGE('',*,*,#222,.F.);
#283=ORIENTED_EDGE('',*,*,#221,.F.);
#284=ORIENTED_EDGE('',*,*,#220,.F.);
#285=ORIENTED_EDGE('',*,*,#219,.F.);
#286=ORIENTED_EDGE('',*,*,#218,.F.);
#287=ORIENTED_EDGE('',*,*,#217,.F.);
#288=ORIENTED_EDGE('',*,*,#216,.F.);
#289=ORIENTED_EDGE('',*,*,#215,.F.);
#290=ORIENTED_EDGE('',*,*,#214,.F.);
#291=EDGE_LOOP('',(#223));
#292=EDGE_LOOP('',(#224));
#293=EDGE_LOOP('',(#225));
#294=EDGE_LOOP('',(#226));
#295=EDGE_LOOP('',(#227));
#296=EDGE_LOOP('',(#228));
#297=EDGE_LOOP('',(#229));
#298=EDGE_LOOP('',(#230));
#299=EDGE_LOOP('',(#231));
#300=EDGE_LOOP('',(#232));
#301=EDGE_LOOP('',(#233));
#302=EDGE_LOOP('',(#234));
#303=EDGE_LOOP('',(#235));
#304=EDGE_LOOP('',(#236));
#305=EDGE_LOOP('',(#237));
#306=EDGE_LOOP('',(#238));
#307=EDGE_LOOP('',(#239));
#308=EDGE_LOOP('',(#240));
#309=EDGE_LOOP('',(#241));
#310=EDGE_LOOP('',(#242));
#311=EDGE_LOOP('',(#243));
#312=EDGE_LOOP('',(#244));
#313=EDGE_LOOP('',(#245));
#314=EDGE_LOOP('',(#246));
#315=EDGE_LOOP('',(#247));
#316=EDGE_LOOP('',(#248));
#317=EDGE_LOOP('',(#249));
#318=EDGE_LOOP('',(#250));
#319=EDGE_LOOP('',(#251));
#320=EDGE_LOOP('',(#252));
#321=EDGE_LOOP('',(#253));
#322=EDGE_LOOP('',(#254));
#323=EDGE_LOOP('',(#255));
#324=EDGE_LOOP('',(#256));
#325=EDGE_LOOP('',(#257));
#326=EDGE_LOOP('',(#258));
#327=EDGE_LOOP('',(#259));
#328=EDGE_LOOP('',(#260));
#329=EDGE_LOOP('',(#261));
#330=EDGE_LOOP('',(#262));
#331=EDGE_LOOP('',(#263));
#332=EDGE_LOOP('',(#264));
#333=EDGE_LOOP('',(#265));
#334=EDGE_LOOP('',(#266));
#335=EDGE_LOOP('',(#267));
#336=EDGE_LOOP('',(#268));
#337=EDGE_LOOP('',(#269));
#338=EDGE_LOOP('',(#270));
#339=EDGE_LOOP('',(#271));
#340=EDGE_LOOP('',(#272));
#341=EDGE_LOOP('',(#273));
#342=EDGE_LOOP('',(#274));
#343=EDGE_LOOP('',(#275));
#344=EDGE_LOOP('',(#276));
#345=EDGE_LOOP('',(#277));
#346=EDGE_LOOP('',(#278));
#347=EDGE_LOOP('',(#279));
#348=EDGE_LOOP('',(#280));
#349=EDGE_LOOP('',(#281));
#350=EDGE_LOOP('',(#282));
#351=EDGE_LOOP('',(#283));
#352=EDGE_LOOP('',(#284));
#353=EDGE_LOOP('',(#285));
#354=EDGE_LOOP('',(#286));
#355=EDGE_LOOP('',(#287));
#356=EDGE_LOOP('',(#288));
#357=EDGE_LOOP('',(#289));
#358=EDGE_LOOP('',(#290));
#359=FACE_BOUND('',#291,.T.);
#360=FACE_BOUND('',#292,.T.);
#361=FACE_BOUND('',#293,.T.);
#362=FACE_BOUND('',#294,.T.);
#363=FACE_BOUND('',#295,.T.);
#364=FACE_BOUND('',#296,.T.);
#365=FACE_BOUND('',#297,.T.);
#366=FACE_BOUND('',#298,.T.);
#367=FACE_BOUND('',#299,.T.);
#368=FACE_BOUND('',#300,.T.);
#369=FACE_BOUND('',#301,.T.);
#370=FACE_BOUND('',#302,.T.);
#371=FACE_BOUND('',#303,.T.);
#372=FACE_BOUND('',#304,.T.);
#373=FACE_BOUND('',#305,.T.);
#374=FACE_BOUND('',#306,.T.);
#375=FACE_BOUND('',#307,.T.);
#376=FACE_BOUND('',#308,.T.);
#377=FACE_BOUND('',#309,.T.);
#378=FACE_BOUND('',#310,.T.);
#379=FACE_BOUND('',#311,.T.);
#380=FACE_BOUND('',#312,.T.);
#381=FACE_BOUND('',#313,.T.);
#382=FACE_BOUND('',#314,.T.);
#383=FACE_BOUND('',#315,.T.);
#384=FACE_BOUND('',#316,.T.);
#385=FACE_BOUND('',#317,.T.);
#386=FACE_BOUND('',#318,.T.);
#387=FACE_BOUND('',#319,.T.);
#388=FACE_BOUND('',#320,.T.);
#389=FACE_BOUND('',#321,.T.);
#390=FACE_BOUND('',#322,.T.);
#391=FACE_BOUND('',#323,.T.);
#392=FACE_BOUND('',#324,.T.);
#393=FACE_BOUND('',#325,.T.);
#394=FACE_BOUND('',#326,.T.);
#395=FACE_BOUND('',#327,.T.);
#396=FACE_BOUND('',#328,.T.);
#397=FACE_BOUND('',#329,.T.);
#398=FACE_BOUND('',#330,.T.);
#399=FACE_BOUND('',#331,.T.);
#400=FACE_BOUND('',#332,.T.);
#401=FACE_BOUND('',#333,.T.);
#402=FACE_BOUND('',#334,.T.);
#403=FACE_BOUND('',#335,.T.);
#404=FACE_BOUND('',#336,.T.);
#405=FACE_BOUND('',#337,.T.);
#406=FACE_BOUND('',#338,.T.);
#407=FACE_BOUND('',#339,.T.);
#408=FACE_BOUND('',#340,.T.);
#409=FACE_BOUND('',#341,.T.);
#410=FACE_BOUND('',#342,.T.);
#411=FACE_BOUND('',#343,.T.);
#412=FACE_BOUND('',#344,.T.);
#413=FACE_BOUND('',#345,.T.);
#414=FACE_BOUND('',#346,.T.);
#415=FACE_BOUND('',#347,.T.);
#416=FACE_BOUND('',#348,.T.);
#417=FACE_BOUND('',#349,.T.);
#418=FACE_BOUND('',#350,.T.);
#419=FACE_BOUND('',#351,.T.);
#420=FACE_BOUND('',#352,.T.);
#421=FACE_BOUND('',#353,.T.);
#422=FACE_BOUND('',#354,.T.);
#423=FACE_BOUND('',#355,.T.);
#424=FACE_BOUND('',#356,.T.);
#425=FACE_BOUND('',#357,.T.);
#426=FACE_BOUND('',#358,.T.);
#427=ADVANCED_FACE('',(#359,#360),#701,.T.);
#428=ADVANCED_FACE('',(#361,#362),#701,.T.);
#429=ADVANCED_FACE('',(#363,#364),#701,.T.);
#430=ADVANCED_FACE('',(#365,#366),#701,.T.);
#431=ADVANCED_FACE('',(#367,#368),#701,.T.);
#432=ADVANCED_FACE('',(#369,#370),#701,.T.);
#433=ADVANCED_FACE('',(#371,#372),#701,.T.);
#434=ADVANCED_FACE('',(#373,#374),#104,.F.);
#435=ADVANCED_FACE('',(#375,#376),#105,.F.);
#436=ADVANCED_FACE('',(#377,#378),#106,.F.);
#437=ADVANCED_FACE('',(#379,#380),#107,.F.);
#438=ADVANCED_FACE('',(#381,#382),#108,.F.);
#439=ADVANCED_FACE('',(#383,#384),#109,.F.);
#440=ADVANCED_FACE('',(#385,#386),#110,.F.);
#441=ADVANCED_FACE('',(#387,#388),#111,.F.);
#442=ADVANCED_FACE('',(#389,#390,#391,#392,#393,#394,#395,#396,#397),#702,
 .F.);
#443=ADVANCED_FACE('',(#398,#399),#701,.T.);
#444=ADVANCED_FACE('',(#400,#401),#112,.T.);
#445=ADVANCED_FACE('',(#402,#403),#113,.F.);
#446=ADVANCED_FACE('',(#404,#405),#114,.F.);
#447=ADVANCED_FACE('',(#406,#407),#115,.F.);
#448=ADVANCED_FACE('',(#408,#409),#116,.F.);
#449=ADVANCED_FACE('',(#410,#411),#117,.F.);
#450=ADVANCED_FACE('',(#412,#413),#118,.F.);
#451=ADVANCED_FACE('',(#414,#415),#119,.F.);
#452=ADVANCED_FACE('',(#416,#417),#120,.F.);
#453=ADVANCED_FACE('',(#418,#419,#420,#421,#422,#423,#424,#425,#426),#703,
 .T.);
#454=AXIS2_PLACEMENT_3D('',#613,#508,$);
#455=AXIS2_PLACEMENT_3D('',#614,#509,#510);
#456=AXIS2_PLACEMENT_3D('',#616,#511,#512);
#457=AXIS2_PLACEMENT_3D('',#618,#513,#514);
#458=AXIS2_PLACEMENT_3D('',#620,#515,#516);
#459=AXIS2_PLACEMENT_3D('',#622,#517,#518);
#460=AXIS2_PLACEMENT_3D('',#624,#519,#520);
#461=AXIS2_PLACEMENT_3D('',#626,#521,#522);
#462=AXIS2_PLACEMENT_3D('',#628,#523,#524);
#463=AXIS2_PLACEMENT_3D('',#630,#525,#526);
#464=AXIS2_PLACEMENT_3D('',#632,#527,#528);
#465=AXIS2_PLACEMENT_3D('',#634,#529,#530);
#466=AXIS2_PLACEMENT_3D('',#636,#531,#532);
#467=AXIS2_PLACEMENT_3D('',#638,#533,#534);
#468=AXIS2_PLACEMENT_3D('',#640,#535,#536);
#469=AXIS2_PLACEMENT_3D('',#642,#537,#538);
#470=AXIS2_PLACEMENT_3D('',#643,#539,#540);
#471=AXIS2_PLACEMENT_3D('',#645,#541,#542);
#472=AXIS2_PLACEMENT_3D('',#646,#543,#544);
#473=AXIS2_PLACEMENT_3D('',#648,#545,#546);
#474=AXIS2_PLACEMENT_3D('',#649,#547,#548);
#475=AXIS2_PLACEMENT_3D('',#651,#549,#550);
#476=AXIS2_PLACEMENT_3D('',#652,#551,#552);
#477=AXIS2_PLACEMENT_3D('',#654,#553,#554);
#478=AXIS2_PLACEMENT_3D('',#656,#555,#556);
#479=AXIS2_PLACEMENT_3D('',#657,#557,#558);
#480=AXIS2_PLACEMENT_3D('',#659,#559,#560);
#481=AXIS2_PLACEMENT_3D('',#660,#561,#562);
#482=AXIS2_PLACEMENT_3D('',#662,#563,#564);
#483=AXIS2_PLACEMENT_3D('',#663,#565,#566);
#484=AXIS2_PLACEMENT_3D('',#665,#567,#568);
#485=AXIS2_PLACEMENT_3D('',#666,#569,#570);
#486=AXIS2_PLACEMENT_3D('',#668,#571,$);
#487=AXIS2_PLACEMENT_3D('',#669,#572,#573);
#488=AXIS2_PLACEMENT_3D('',#671,#574,#575);
#489=AXIS2_PLACEMENT_3D('',#673,#576,#577);
#490=AXIS2_PLACEMENT_3D('',#674,#578,#579);
#491=AXIS2_PLACEMENT_3D('',#676,#580,#581);
#492=AXIS2_PLACEMENT_3D('',#677,#582,#583);
#493=AXIS2_PLACEMENT_3D('',#679,#584,#585);
#494=AXIS2_PLACEMENT_3D('',#680,#586,#587);
#495=AXIS2_PLACEMENT_3D('',#682,#588,#589);
#496=AXIS2_PLACEMENT_3D('',#683,#590,#591);
#497=AXIS2_PLACEMENT_3D('',#685,#592,#593);
#498=AXIS2_PLACEMENT_3D('',#686,#594,#595);
#499=AXIS2_PLACEMENT_3D('',#688,#596,#597);
#500=AXIS2_PLACEMENT_3D('',#689,#598,#599);
#501=AXIS2_PLACEMENT_3D('',#691,#600,#601);
#502=AXIS2_PLACEMENT_3D('',#692,#602,#603);
#503=AXIS2_PLACEMENT_3D('',#694,#604,#605);
#504=AXIS2_PLACEMENT_3D('',#695,#606,#607);
#505=AXIS2_PLACEMENT_3D('',#697,#608,#609);
#506=AXIS2_PLACEMENT_3D('',#698,#610,#611);
#507=AXIS2_PLACEMENT_3D('',#700,#612,$);
#508=DIRECTION('',(0.,0.,1.));
#509=DIRECTION('',(0.,0.,1.));
#510=DIRECTION('',(0.75,0.,0.));
#511=DIRECTION('',(0.,0.,1.));
#512=DIRECTION('',(0.7,0.,0.));
#513=DIRECTION('',(0.,0.,1.));
#514=DIRECTION('',(0.7,0.,0.));
#515=DIRECTION('',(0.,0.,1.));
#516=DIRECTION('',(0.75,0.,0.));
#517=DIRECTION('',(0.,0.,1.));
#518=DIRECTION('',(0.749999999999998,0.,0.));
#519=DIRECTION('',(0.,0.,1.));
#520=DIRECTION('',(0.7,0.,0.));
#521=DIRECTION('',(0.,0.,1.));
#522=DIRECTION('',(0.7,0.,0.));
#523=DIRECTION('',(0.,0.,1.));
#524=DIRECTION('',(0.75,0.,0.));
#525=DIRECTION('',(0.,0.,1.));
#526=DIRECTION('',(0.749999999999998,0.,0.));
#527=DIRECTION('',(0.,0.,1.));
#528=DIRECTION('',(0.7,0.,0.));
#529=DIRECTION('',(0.,0.,1.));
#530=DIRECTION('',(0.7,0.,0.));
#531=DIRECTION('',(0.,0.,1.));
#532=DIRECTION('',(0.749999999999998,0.,0.));
#533=DIRECTION('',(0.,0.,1.));
#534=DIRECTION('',(0.7,0.,0.));
#535=DIRECTION('',(0.,0.,1.));
#536=DIRECTION('',(0.75,0.,0.));
#537=DIRECTION('',(0.,0.,-1.));
#538=DIRECTION('',(0.7,0.,0.));
#539=DIRECTION('',(0.,0.,-1.));
#540=DIRECTION('',(0.7,0.,0.));
#541=DIRECTION('',(0.,0.,-1.));
#542=DIRECTION('',(0.7,0.,0.));
#543=DIRECTION('',(0.,0.,-1.));
#544=DIRECTION('',(0.7,0.,0.));
#545=DIRECTION('',(0.,0.,-1.));
#546=DIRECTION('',(0.7,0.,0.));
#547=DIRECTION('',(0.,0.,-1.));
#548=DIRECTION('',(0.7,0.,0.));
#549=DIRECTION('',(0.,0.,-1.));
#550=DIRECTION('',(0.7,0.,0.));
#551=DIRECTION('',(0.,0.,-1.));
#552=DIRECTION('',(0.7,0.,0.));
#553=DIRECTION('',(0.,0.,1.));
#554=DIRECTION('',(0.7,0.,0.));
#555=DIRECTION('',(0.,0.,-1.));
#556=DIRECTION('',(0.7,0.,0.));
#557=DIRECTION('',(0.,0.,-1.));
#558=DIRECTION('',(0.7,0.,0.));
#559=DIRECTION('',(0.,0.,-1.));
#560=DIRECTION('',(0.7,0.,0.));
#561=DIRECTION('',(0.,0.,-1.));
#562=DIRECTION('',(0.7,0.,0.));
#563=DIRECTION('',(0.,0.,-1.));
#564=DIRECTION('',(0.7,0.,0.));
#565=DIRECTION('',(0.,0.,-1.));
#566=DIRECTION('',(0.7,0.,0.));
#567=DIRECTION('',(0.,0.,-1.));
#568=DIRECTION('',(0.7,0.,0.));
#569=DIRECTION('',(0.,0.,-1.));
#570=DIRECTION('',(0.7,0.,0.));
#571=DIRECTION('',(0.,0.,1.));
#572=DIRECTION('',(0.,0.,1.));
#573=DIRECTION('',(4.99102866669623,0.,0.));
#574=DIRECTION('',(0.,0.,1.));
#575=DIRECTION('',(0.750000000000001,0.,0.));
#576=DIRECTION('',(0.,0.,1.));
#577=DIRECTION('',(4.99102866669623,0.,0.));
#578=DIRECTION('',(0.,0.,-1.));
#579=DIRECTION('',(4.99102866669623,0.,0.));
#580=DIRECTION('',(0.,0.,1.));
#581=DIRECTION('',(0.75,0.,0.));
#582=DIRECTION('',(0.,0.,1.));
#583=DIRECTION('',(0.75,0.,0.));
#584=DIRECTION('',(0.,0.,1.));
#585=DIRECTION('',(0.750000000000001,0.,0.));
#586=DIRECTION('',(0.,0.,1.));
#587=DIRECTION('',(0.750000000000001,0.,0.));
#588=DIRECTION('',(0.,0.,1.));
#589=DIRECTION('',(0.749999999999998,0.,0.));
#590=DIRECTION('',(0.,0.,1.));
#591=DIRECTION('',(0.749999999999998,0.,0.));
#592=DIRECTION('',(0.,0.,1.));
#593=DIRECTION('',(0.749999999999998,0.,0.));
#594=DIRECTION('',(0.,0.,1.));
#595=DIRECTION('',(0.749999999999998,0.,0.));
#596=DIRECTION('',(0.,0.,1.));
#597=DIRECTION('',(0.75,0.,0.));
#598=DIRECTION('',(0.,0.,1.));
#599=DIRECTION('',(0.75,0.,0.));
#600=DIRECTION('',(0.,0.,1.));
#601=DIRECTION('',(0.749999999999998,0.,0.));
#602=DIRECTION('',(0.,0.,1.));
#603=DIRECTION('',(0.749999999999998,0.,0.));
#604=DIRECTION('',(0.,0.,1.));
#605=DIRECTION('',(0.75,0.,0.));
#606=DIRECTION('',(0.,0.,1.));
#607=DIRECTION('',(0.75,0.,0.));
#608=DIRECTION('',(0.,0.,1.));
#609=DIRECTION('',(0.75,0.,0.));
#610=DIRECTION('',(0.,0.,1.));
#611=DIRECTION('',(0.75,0.,0.));
#612=DIRECTION('',(0.,0.,1.));
#613=CARTESIAN_POINT('',(0.,0.,0.));
#614=CARTESIAN_POINT('',(0.729912938967988,-1.26424629539449,0.));
#615=CARTESIAN_POINT('',(1.47991293896799,-1.26424629539449,0.));
#616=CARTESIAN_POINT('',(0.729912938967988,-1.26424629539449,0.));
#617=CARTESIAN_POINT('',(1.42991293896799,-1.26424629539449,0.));
#618=CARTESIAN_POINT('',(1.87051433334811,3.23982586164476,0.));
#619=CARTESIAN_POINT('',(2.57051433334811,3.23982586164476,0.));
#620=CARTESIAN_POINT('',(1.87051433334811,3.23982586164476,0.));
#621=CARTESIAN_POINT('',(2.62051433334811,3.23982586164476,0.));
#622=CARTESIAN_POINT('',(3.74102866669623,3.30129289891086E-15,0.));
#623=CARTESIAN_POINT('',(4.49102866669623,3.30129289891086E-15,0.));
#624=CARTESIAN_POINT('',(3.74102866669623,3.30129289891086E-15,0.));
#625=CARTESIAN_POINT('',(4.44102866669623,3.30129289891086E-15,0.));
#626=CARTESIAN_POINT('',(-1.87051433334811,3.23982586164476,0.));
#627=CARTESIAN_POINT('',(-1.17051433334811,3.23982586164476,0.));
#628=CARTESIAN_POINT('',(-1.87051433334811,3.23982586164476,0.));
#629=CARTESIAN_POINT('',(-1.12051433334811,3.23982586164476,0.));
#630=CARTESIAN_POINT('',(-3.74102866669623,3.49543134764871E-15,0.));
#631=CARTESIAN_POINT('',(-2.99102866669623,3.49543134764871E-15,0.));
#632=CARTESIAN_POINT('',(-3.74102866669623,3.49543134764871E-15,0.));
#633=CARTESIAN_POINT('',(-3.04102866669623,3.49543134764871E-15,0.));
#634=CARTESIAN_POINT('',(-1.87051433334812,-3.23982586164476,0.));
#635=CARTESIAN_POINT('',(-1.17051433334812,-3.23982586164476,0.));
#636=CARTESIAN_POINT('',(-1.87051433334812,-3.23982586164476,0.));
#637=CARTESIAN_POINT('',(-1.12051433334812,-3.23982586164476,0.));
#638=CARTESIAN_POINT('',(-0.729912938968002,1.2642462953945,0.));
#639=CARTESIAN_POINT('',(-0.0299129389680021,1.2642462953945,0.));
#640=CARTESIAN_POINT('',(-0.729912938968002,1.2642462953945,0.));
#641=CARTESIAN_POINT('',(0.020087061031998,1.2642462953945,0.));
#642=CARTESIAN_POINT('',(-0.729912938968002,1.2642462953945,0.));
#643=CARTESIAN_POINT('',(-0.729912938968002,1.2642462953945,-0.2));
#644=CARTESIAN_POINT('',(-0.0299129389680021,1.2642462953945,-0.2));
#645=CARTESIAN_POINT('',(1.87051433334811,3.23982586164476,0.));
#646=CARTESIAN_POINT('',(1.87051433334811,3.23982586164476,-0.2));
#647=CARTESIAN_POINT('',(2.57051433334811,3.23982586164476,-0.2));
#648=CARTESIAN_POINT('',(3.74102866669623,3.30129289891086E-15,0.));
#649=CARTESIAN_POINT('',(3.74102866669623,3.30129289891086E-15,-0.2));
#650=CARTESIAN_POINT('',(4.44102866669623,3.30129289891086E-15,-0.2));
#651=CARTESIAN_POINT('',(1.8705143333481,-3.23982586164477,0.));
#652=CARTESIAN_POINT('',(1.8705143333481,-3.23982586164477,-0.2));
#653=CARTESIAN_POINT('',(2.5705143333481,-3.23982586164477,-0.2));
#654=CARTESIAN_POINT('',(1.8705143333481,-3.23982586164477,0.));
#655=CARTESIAN_POINT('',(2.5705143333481,-3.23982586164477,0.));
#656=CARTESIAN_POINT('',(-1.87051433334812,-3.23982586164476,0.));
#657=CARTESIAN_POINT('',(-1.87051433334812,-3.23982586164476,-0.2));
#658=CARTESIAN_POINT('',(-1.17051433334812,-3.23982586164476,-0.2));
#659=CARTESIAN_POINT('',(-3.74102866669623,3.49543134764871E-15,0.));
#660=CARTESIAN_POINT('',(-3.74102866669623,3.49543134764871E-15,-0.2));
#661=CARTESIAN_POINT('',(-3.04102866669623,3.49543134764871E-15,-0.2));
#662=CARTESIAN_POINT('',(-1.87051433334811,3.23982586164476,0.));
#663=CARTESIAN_POINT('',(-1.87051433334811,3.23982586164476,-0.2));
#664=CARTESIAN_POINT('',(-1.17051433334811,3.23982586164476,-0.2));
#665=CARTESIAN_POINT('',(0.729912938967988,-1.26424629539449,0.));
#666=CARTESIAN_POINT('',(0.729912938967988,-1.26424629539449,-0.2));
#667=CARTESIAN_POINT('',(1.42991293896799,-1.26424629539449,-0.2));
#668=CARTESIAN_POINT('',(0.,0.,-0.2));
#669=CARTESIAN_POINT('',(0.,0.,-0.2));
#670=CARTESIAN_POINT('',(4.99102866669623,0.,-0.2));
#671=CARTESIAN_POINT('',(1.8705143333481,-3.23982586164477,0.));
#672=CARTESIAN_POINT('',(2.6205143333481,-3.23982586164477,0.));
#673=CARTESIAN_POINT('',(0.,0.,0.));
#674=CARTESIAN_POINT('',(0.,0.,0.8));
#675=CARTESIAN_POINT('',(4.99102866669623,0.,0.8));
#676=CARTESIAN_POINT('',(-0.729912938968002,1.2642462953945,0.));
#677=CARTESIAN_POINT('',(-0.729912938968002,1.2642462953945,0.8));
#678=CARTESIAN_POINT('',(0.020087061031998,1.2642462953945,0.8));
#679=CARTESIAN_POINT('',(1.8705143333481,-3.23982586164477,0.));
#680=CARTESIAN_POINT('',(1.8705143333481,-3.23982586164477,0.8));
#681=CARTESIAN_POINT('',(2.6205143333481,-3.23982586164477,0.8));
#682=CARTESIAN_POINT('',(-1.87051433334812,-3.23982586164476,0.));
#683=CARTESIAN_POINT('',(-1.87051433334812,-3.23982586164476,0.8));
#684=CARTESIAN_POINT('',(-1.12051433334812,-3.23982586164476,0.8));
#685=CARTESIAN_POINT('',(-3.74102866669623,3.49543134764871E-15,0.));
#686=CARTESIAN_POINT('',(-3.74102866669623,3.49543134764871E-15,0.8));
#687=CARTESIAN_POINT('',(-2.99102866669623,3.49543134764871E-15,0.8));
#688=CARTESIAN_POINT('',(-1.87051433334811,3.23982586164476,0.));
#689=CARTESIAN_POINT('',(-1.87051433334811,3.23982586164476,0.8));
#690=CARTESIAN_POINT('',(-1.12051433334811,3.23982586164476,0.8));
#691=CARTESIAN_POINT('',(3.74102866669623,3.30129289891086E-15,0.));
#692=CARTESIAN_POINT('',(3.74102866669623,3.30129289891086E-15,0.8));
#693=CARTESIAN_POINT('',(4.49102866669623,3.30129289891086E-15,0.8));
#694=CARTESIAN_POINT('',(1.87051433334811,3.23982586164476,0.));
#695=CARTESIAN_POINT('',(1.87051433334811,3.23982586164476,0.8));
#696=CARTESIAN_POINT('',(2.62051433334811,3.23982586164476,0.8));
#697=CARTESIAN_POINT('',(0.729912938967988,-1.26424629539449,0.));
#698=CARTESIAN_POINT('',(0.729912938967988,-1.26424629539449,0.8));
#699=CARTESIAN_POINT('',(1.47991293896799,-1.26424629539449,0.8));
#700=CARTESIAN_POINT('',(0.,0.,0.8));
#701=PLANE('',#454);
#702=PLANE('',#486);
#703=PLANE('',#507);
#704=CLOSED_SHELL('',(#427,#428,#429,#430,#431,#432,#433,#434,#435,#436,
#437,#438,#439,#440,#441,#442,#443,#444,#445,#446,#447,#448,#449,#450,#451,
#452,#453));
#705=MANIFOLD_SOLID_BREP('',#704);
#706=ADVANCED_BREP_SHAPE_REPRESENTATION('',(#705),#103);
ENDSEC;
END-ISO-10303-21;
