  0
SECTION
  2
HEADER
  9
$ACADVER
  1
AC1009
  9
$DWGCODEPAGE
  3
ansi_1252
  9
$INSBASE
 10
0.0
 20
0.0
 30
0.0
  9
$EXTMIN
 10
0.0
 20
0.0
 30
0.0
  9
$EXTMAX
 10
625.6026943216435
 20
200.0
 30
57.41420069149549
  9
$LIMMIN
 10
0.0
 20
0.0
  9
$LIMMAX
 10
420.0
 20
297.0
  9
$ORTHOMODE
 70
     0
  9
$REGENMODE
 70
     1
  9
$FILLMODE
 70
     1
  9
$QTEXTMODE
 70
     0
  9
$MIRRTEXT
 70
     1
  9
$DRAGMODE
 70
     2
  9
$LTSCALE
 40
1.0
  9
$OSMODE
 70
    37
  9
$ATTMODE
 70
     1
  9
$TEXTSIZE
 40
2.5
  9
$TRACEWID
 40
1.0
  9
$TEXTSTYLE
  7
STANDARD
  9
$CLAYER
  8
0
  9
$CELTYPE
  6
BYLAYER
  9
$CECOLOR
 62
   256
  9
$DIMSCALE
 40
1.0
  9
$DIMASZ
 40
2.5
  9
$DIMEXO
 40
0.625
  9
$DIMDLI
 40
3.75
  9
$DIMRND
 40
0.0
  9
$DIMDLE
 40
0.0
  9
$DIMEXE
 40
1.25
  9
$DIMTP
 40
0.0
  9
$DIMTM
 40
0.0
  9
$DIMTXT
 40
2.5
  9
$DIMCEN
 40
2.5
  9
$DIMTSZ
 40
0.0
  9
$DIMTOL
 70
     0
  9
$DIMLIM
 70
     0
  9
$DIMTIH
 70
     0
  9
$DIMTOH
 70
     0
  9
$DIMSE1
 70
     0
  9
$DIMSE2
 70
     0
  9
$DIMTAD
 70
     1
  9
$DIMZIN
 70
     8
  9
$DIMBLK
  1

  9
$DIMASO
 70
     1
  9
$DIMSHO
 70
     1
  9
$DIMPOST
  1

  9
$DIMAPOST
  1

  9
$DIMALT
 70
     0
  9
$DIMALTD
 70
     3
  9
$DIMALTF
 40
0.03937007874016
  9
$DIMLFAC
 40
1.0
  9
$DIMTOFL
 70
     1
  9
$DIMTVP
 40
0.0
  9
$DIMTIX
 70
     0
  9
$DIMSOXD
 70
     0
  9
$DIMSAH
 70
     0
  9
$DIMBLK1
  1

  9
$DIMBLK2
  1

  9
$DIMSTYLE
  2
ISO-25
  9
$DIMCLRD
 70
     0
  9
$DIMCLRE
 70
     0
  9
$DIMCLRT
 70
     0
  9
$DIMTFAC
 40
1.0
  9
$DIMGAP
 40
0.625
  9
$LUNITS
 70
     2
  9
$LUPREC
 70
     4
  9
$SKETCHINC
 40
1.0
  9
$FILLETRAD
 40
10.0
  9
$AUNITS
 70
     0
  9
$AUPREC
 70
     0
  9
$MENU
  1
.
  9
$ELEVATION
 40
0.0
  9
$PELEVATION
 40
0.0
  9
$THICKNESS
 40
0.0
  9
$LIMCHECK
 70
     0
  9
$CHAMFERA
 40
0.0
  9
$CHAMFERB
 40
0.0
  9
$SKPOLY
 70
     0
  9
$TDCREATE
 40
2305814.695127315
  9
$TDUPDATE
 40
2458526.653465498
  9
$TDINDWG
 40
0.0000000116
  9
$TDUSRTIMER
 40
0.0000000116
  9
$USRTIMER
 70
     1
  9
$ANGBASE
 50
0.0
  9
$ANGDIR
 70
     0
  9
$PDMODE
 70
     0
  9
$PDSIZE
 40
0.0
  9
$PLINEWID
 40
0.0
  9
$COORDS
 70
     1
  9
$SPLFRAME
 70
     0
  9
$SPLINETYPE
 70
     6
  9
$SPLINESEGS
 70
     8
  9
$ATTDIA
 70
     0
  9
$ATTREQ
 70
     1
  9
$HANDLING
 70
     1
  9
$HANDSEED
  5
711
  9
$SURFTAB1
 70
     6
  9
$SURFTAB2
 70
     6
  9
$SURFTYPE
 70
     6
  9
$SURFU
 70
     6
  9
$SURFV
 70
     6
  9
$UCSNAME
  2

  9
$UCSORG
 10
0.0
 20
0.0
 30
0.0
  9
$UCSXDIR
 10
1.0
 20
0.0
 30
0.0
  9
$UCSYDIR
 10
0.0
 20
1.0
 30
0.0
  9
$PUCSNAME
  2

  9
$PUCSORG
 10
0.0
 20
0.0
 30
0.0
  9
$PUCSXDIR
 10
1.0
 20
0.0
 30
0.0
  9
$PUCSYDIR
 10
0.0
 20
1.0
 30
0.0
  9
$USERI1
 70
     0
  9
$USERI2
 70
     0
  9
$USERI3
 70
     0
  9
$USERI4
 70
     0
  9
$USERI5
 70
     0
  9
$USERR1
 40
0.0
  9
$USERR2
 40
0.0
  9
$USERR3
 40
0.0
  9
$USERR4
 40
0.0
  9
$USERR5
 40
0.0
  9
$WORLDVIEW
 70
     1
  9
$SHADEDGE
 70
     3
  9
$SHADEDIF
 70
    70
  9
$TILEMODE
 70
     1
  9
$MAXACTVP
 70
    64
  9
$PLIMCHECK
 70
     0
  9
$PEXTMIN
 10
1.000000000000000E+20
 20
1.000000000000000E+20
 30
1.000000000000000E+20
  9
$PEXTMAX
 10
-1.000000000000000E+20
 20
-1.000000000000000E+20
 30
-1.000000000000000E+20
  9
$PLIMMIN
 10
0.0
 20
0.0
  9
$PLIMMAX
 10
420.0
 20
297.0
  9
$UNITMODE
 70
     0
  9
$VISRETAIN
 70
     1
  9
$PLINEGEN
 70
     0
  9
$PSLTSCALE
 70
     1
  0
ENDSEC
  0
SECTION
  2
TABLES
  0
TABLE
  2
VPORT
 70
     1
  0
VPORT
  2
*ACTIVE
 70
     0
 10
0.0
 20
0.0
 11
1.0
 21
1.0
 12
344.1869158878504
 22
148.5
 13
0.0
 23
0.0
 14
10.0
 24
10.0
 15
10.0
 25
10.0
 16
0.0
 26
0.0
 36
1.0
 17
0.0
 27
0.0
 37
0.0
 40
297.0
 41
1.972972972850329
 42
50.0
 43
0.0
 44
0.0
 50
0.0
 51
0.0
 71
     0
 72
   100
 73
     1
 74
     3
 75
     0
 76
     0
 77
     0
 78
     0
  0
ENDTAB
  0
TABLE
  2
LTYPE
 70
    11
  0
LTYPE
  2
CONTINUOUS
 70
     0
  3
Solid line
 72
    65
 73
     0
 40
0.0
  0
LTYPE
  2
BORDER
 70
     0
  3
__ __ . __ __ . __ 
 72
    65
 73
     6
 40
0.875
 49
0.25
 49
-0.125
 49
0.25
 49
-0.125
 49
0.0
 49
-0.125
  0
LTYPE
  2
CENTER
 70
     0
  3
___ _ ___ _ ___ _ _
 72
    65
 73
     4
 40
1.125
 49
0.75
 49
-0.125
 49
0.125
 49
-0.125
  0
LTYPE
  2
DASHDOT
 70
     0
  3
_._._._._._._._._._
 72
    65
 73
     4
 40
0.5
 49
0.25
 49
-0.125
 49
0.0
 49
-0.125
  0
LTYPE
  2
DASHED
 70
     0
  3
_ _ _ _ _ _ _ _ _ _
 72
    65
 73
     2
 40
0.375
 49
0.25
 49
-0.125
  0
LTYPE
  2
DIVIDE
 70
     0
  3
__..__..__..__..__.
 72
    65
 73
     6
 40
0.625
 49
0.25
 49
-0.125
 49
0.0
 49
-0.125
 49
0.0
 49
-0.125
  0
LTYPE
  2
DOT
 70
     0
  3
...................
 72
    65
 73
     2
 40
0.125
 49
0.0
 49
-0.125
  0
LTYPE
  2
HIDDEN
 70
     0
  3
__ __ __ __ __ __ _
 72
    65
 73
     2
 40
0.1875
 49
0.125
 49
-0.0625
  0
LTYPE
  2
PHANTOM
 70
     0
  3
___ _ _ ___ _ _ ___
 72
    65
 73
     6
 40
1.25
 49
0.625
 49
-0.125
 49
0.125
 49
-0.125
 49
0.125
 49
-0.125
  0
LTYPE
  2
CUTTING
 70
     0
  3
________ _ _ ______
 72
    65
 73
     6
 40
1.4675
 49
1.0
 49
-0.0725
 49
0.125
 49
-0.0725
 49
0.125
 49
-0.0725
  0
LTYPE
  2
STITCH
 70
     0
  3
_ _ _ _ _ _ _ _ _ _
 72
    65
 73
     2
 40
0.145
 49
0.0725
 49
-0.0725
  0
ENDTAB
  0
TABLE
  2
LAYER
 70
     2
  0
LAYER
  2
0
 70
     0
 62
     7
  6
CONTINUOUS
  0
LAYER
  2
LAYER1
 70
     0
 62
     7
  6
CONTINUOUS
  0
ENDTAB
  0
TABLE
  2
STYLE
 70
     1
  0
STYLE
  2
STANDARD
 70
     0
 40
0.0
 41
1.0
 50
0.0
 71
     0
 42
2.5
  3
txt
  4

  0
ENDTAB
  0
TABLE
  2
VIEW
 70
     0
  0
ENDTAB
  0
TABLE
  2
UCS
 70
     0
  0
ENDTAB
  0
TABLE
  2
APPID
 70
     2
  0
APPID
  2
ACAD
 70
     0
  0
APPID
  2
ENCORE_SOFTWARE_VIACAD
 70
     0
  0
ENDTAB
  0
TABLE
  2
DIMSTYLE
 70
     1
  0
DIMSTYLE
  2
ISO-25
 70
     0
  3

  4

  5

  6

  7

 40
1.0
 41
2.5
 42
0.625
 43
3.75
 44
1.25
 45
0.0
 46
0.0
 47
0.0
 48
0.0
140
2.5
141
2.5
142
0.0
143
0.03937007874016
144
1.0
145
0.0
146
1.0
147
0.625
 71
     0
 72
     0
 73
     0
 74
     0
 75
     0
 76
     0
 77
     1
 78
     8
170
     0
171
     3
172
     1
173
     0
174
     0
175
     0
176
     0
177
     0
178
     0
  0
ENDTAB
  0
ENDSEC
  0
SECTION
  2
BLOCKS
  0
BLOCK
  8
0
  2
$MODEL_SPACE
 70
     0
 10
0.0
 20
0.0
 30
0.0
  3
$MODEL_SPACE
  1

  0
ENDBLK
  5
21
  8
0
  0
BLOCK
 67
     1
  8
0
  2
$PAPER_SPACE
 70
     0
 10
0.0
 20
0.0
 30
0.0
  3
$PAPER_SPACE
  1

  0
ENDBLK
  5
1D
 67
     1
  8
0
  0
ENDSEC
  0
SECTION
  2
ENTITIES
  0
LINE
  5
76
  8
LAYER1
 62
    18
 10
0.0
 20
0.0
 30
0.0
 11
300.0
 21
0.0
 31
0.0
  0
LINE
  5
77
  8
LAYER1
 62
    18
 10
300.0
 20
0.0
 30
0.0
 11
300.0
 21
200.0
 31
0.0
  0
LINE
  5
78
  8
LAYER1
 62
    18
 10
300.0
 20
200.0
 30
0.0
 11
0.0
 21
200.0
 31
0.0
  0
LINE
  5
79
  8
LAYER1
 62
    18
 10
0.0
 20
200.0
 30
0.0
 11
0.0
 21
0.0
 31
0.0
  0
LINE
  5
7A
  8
LAYER1
 62
    18
 10
325.6026943216436
 20
0.0
 30
0.0
 11
625.6026943216435
 21
0.0
 31
0.0
  0
LINE
  5
7B
  8
LAYER1
 62
    18
 10
625.6026943216435
 20
0.0
 30
0.0
 11
625.6026943216435
 21
200.0
 31
0.0
  0
LINE
  5
7C
  8
LAYER1
 62
    18
 10
625.6026943216435
 20
200.0
 30
0.0
 11
325.6026943216436
 21
200.0
 31
0.0
  0
LINE
  5
7D
  8
LAYER1
 62
    18
 10
325.6026943216436
 20
200.0
 30
0.0
 11
325.6026943216436
 21
0.0
 31
0.0
  0
LINE
  5
7E
  8
LAYER1
 62
    18
 10
12.79861288912924
 20
186.2043491574848
 30
0.0
 11
14.83861288912925
 21
186.2043491574848
 31
0.0
  0
LINE
  5
7F
  8
LAYER1
 62
    18
 10
26.24861288912929
 20
186.2043491574848
 30
0.0
 11
28.28861288912931
 21
186.2043491574848
 31
0.0
  0
LINE
  5
80
  8
LAYER1
 62
    18
 10
39.69861288912921
 20
186.2043491574848
 30
0.0
 11
41.73861288912923
 21
186.2043491574848
 31
0.0
  0
LINE
  5
81
  8
LAYER1
 62
    18
 10
14.83861288912925
 20
186.2043491574848
 30
0.0
 11
14.83861288912925
 21
194.2043491574848
 31
0.0
  0
LINE
  5
82
  8
LAYER1
 62
    18
 10
26.24861288912929
 20
194.2043491574848
 30
0.0
 11
26.24861288912929
 21
186.2043491574848
 31
0.0
  0
LINE
  5
83
  8
LAYER1
 62
    18
 10
14.83861288912925
 20
194.2043491574848
 30
0.0
 11
26.24861288912929
 21
194.2043491574848
 31
0.0
  0
LINE
  5
84
  8
LAYER1
 62
    18
 10
28.28861288912931
 20
186.2043491574848
 30
0.0
 11
28.28861288912931
 21
194.2043491574848
 31
0.0
  0
LINE
  5
85
  8
LAYER1
 62
    18
 10
28.28861288912931
 20
194.2043491574848
 30
0.0
 11
39.69861288912921
 21
194.2043491574848
 31
0.0
  0
LINE
  5
86
  8
LAYER1
 62
    18
 10
39.69861288912921
 20
194.2043491574848
 30
0.0
 11
39.69861288912921
 21
186.2043491574848
 31
0.0
  0
LINE
  5
87
  8
LAYER1
 62
    18
 10
53.14861288912927
 20
186.2043491574848
 30
0.0
 11
55.18861288912928
 21
186.2043491574848
 31
0.0
  0
LINE
  5
88
  8
LAYER1
 62
    18
 10
66.59861288912919
 20
186.2043491574848
 30
0.0
 11
68.63861288912919
 21
186.2043491574848
 31
0.0
  0
LINE
  5
89
  8
LAYER1
 62
    18
 10
41.73861288912923
 20
186.2043491574848
 30
0.0
 11
41.73861288912923
 21
194.2043491574848
 31
0.0
  0
LINE
  5
8A
  8
LAYER1
 62
    18
 10
53.14861288912927
 20
194.2043491574848
 30
0.0
 11
53.14861288912927
 21
186.2043491574848
 31
0.0
  0
LINE
  5
8B
  8
LAYER1
 62
    18
 10
41.73861288912923
 20
194.2043491574848
 30
0.0
 11
53.14861288912927
 21
194.2043491574848
 31
0.0
  0
LINE
  5
8C
  8
LAYER1
 62
    18
 10
55.18861288912928
 20
186.2043491574848
 30
0.0
 11
55.18861288912928
 21
194.2043491574848
 31
0.0
  0
LINE
  5
8D
  8
LAYER1
 62
    18
 10
55.18861288912928
 20
194.2043491574848
 30
0.0
 11
66.59861288912919
 21
194.2043491574848
 31
0.0
  0
LINE
  5
8E
  8
LAYER1
 62
    18
 10
66.59861288912919
 20
194.2043491574848
 30
0.0
 11
66.59861288912919
 21
186.2043491574848
 31
0.0
  0
LINE
  5
8F
  8
LAYER1
 62
    18
 10
80.04861288912925
 20
186.2043491574848
 30
0.0
 11
82.08861288912925
 21
186.2043491574848
 31
0.0
  0
LINE
  5
90
  8
LAYER1
 62
    18
 10
93.49861288912916
 20
186.2043491574848
 30
0.0
 11
95.53861288912917
 21
186.2043491574848
 31
0.0
  0
LINE
  5
91
  8
LAYER1
 62
    18
 10
68.63861288912919
 20
186.2043491574848
 30
0.0
 11
68.63861288912919
 21
194.2043491574848
 31
0.0
  0
LINE
  5
92
  8
LAYER1
 62
    18
 10
80.04861288912925
 20
194.2043491574848
 30
0.0
 11
80.04861288912925
 21
186.2043491574848
 31
0.0
  0
LINE
  5
93
  8
LAYER1
 62
    18
 10
68.63861288912919
 20
194.2043491574848
 30
0.0
 11
80.04861288912925
 21
194.2043491574848
 31
0.0
  0
LINE
  5
94
  8
LAYER1
 62
    18
 10
82.08861288912925
 20
186.2043491574848
 30
0.0
 11
82.08861288912925
 21
194.2043491574848
 31
0.0
  0
LINE
  5
95
  8
LAYER1
 62
    18
 10
82.08861288912925
 20
194.2043491574848
 30
0.0
 11
93.49861288912916
 21
194.2043491574848
 31
0.0
  0
LINE
  5
96
  8
LAYER1
 62
    18
 10
93.49861288912916
 20
194.2043491574848
 30
0.0
 11
93.49861288912916
 21
186.2043491574848
 31
0.0
  0
LINE
  5
97
  8
LAYER1
 62
    18
 10
106.9486128891292
 20
186.2043491574848
 30
0.0
 11
108.9886128891292
 21
186.2043491574848
 31
0.0
  0
LINE
  5
98
  8
LAYER1
 62
    18
 10
120.3986128891291
 20
186.2043491574848
 30
0.0
 11
122.4386128891291
 21
186.2043491574848
 31
0.0
  0
LINE
  5
99
  8
LAYER1
 62
    18
 10
95.53861288912917
 20
186.2043491574848
 30
0.0
 11
95.53861288912917
 21
194.2043491574848
 31
0.0
  0
LINE
  5
9A
  8
LAYER1
 62
    18
 10
106.9486128891292
 20
194.2043491574848
 30
0.0
 11
106.9486128891292
 21
186.2043491574848
 31
0.0
  0
LINE
  5
9B
  8
LAYER1
 62
    18
 10
95.53861288912917
 20
194.2043491574848
 30
0.0
 11
106.9486128891292
 21
194.2043491574848
 31
0.0
  0
LINE
  5
9C
  8
LAYER1
 62
    18
 10
108.9886128891292
 20
186.2043491574848
 30
0.0
 11
108.9886128891292
 21
194.2043491574848
 31
0.0
  0
LINE
  5
9D
  8
LAYER1
 62
    18
 10
108.9886128891292
 20
194.2043491574848
 30
0.0
 11
120.3986128891291
 21
194.2043491574848
 31
0.0
  0
LINE
  5
9E
  8
LAYER1
 62
    18
 10
120.3986128891291
 20
194.2043491574848
 30
0.0
 11
120.3986128891291
 21
186.2043491574848
 31
0.0
  0
LINE
  5
9F
  8
LAYER1
 62
    18
 10
133.8486128891292
 20
186.2043491574848
 30
0.0
 11
135.8886128891292
 21
186.2043491574848
 31
0.0
  0
LINE
  5
A0
  8
LAYER1
 62
    18
 10
147.2986128891291
 20
186.2043491574848
 30
0.0
 11
149.3386128891291
 21
186.2043491574848
 31
0.0
  0
LINE
  5
A1
  8
LAYER1
 62
    18
 10
122.4386128891291
 20
186.2043491574848
 30
0.0
 11
122.4386128891291
 21
194.2043491574848
 31
0.0
  0
LINE
  5
A2
  8
LAYER1
 62
    18
 10
133.8486128891292
 20
194.2043491574848
 30
0.0
 11
133.8486128891292
 21
186.2043491574848
 31
0.0
  0
LINE
  5
A3
  8
LAYER1
 62
    18
 10
122.4386128891291
 20
194.2043491574848
 30
0.0
 11
133.8486128891292
 21
194.2043491574848
 31
0.0
  0
LINE
  5
A4
  8
LAYER1
 62
    18
 10
135.8886128891292
 20
186.2043491574848
 30
0.0
 11
135.8886128891292
 21
194.2043491574848
 31
0.0
  0
LINE
  5
A5
  8
LAYER1
 62
    18
 10
135.8886128891292
 20
194.2043491574848
 30
0.0
 11
147.2986128891291
 21
194.2043491574848
 31
0.0
  0
LINE
  5
A6
  8
LAYER1
 62
    18
 10
147.2986128891291
 20
194.2043491574848
 30
0.0
 11
147.2986128891291
 21
186.2043491574848
 31
0.0
  0
LINE
  5
A7
  8
LAYER1
 62
    18
 10
160.7486128891292
 20
186.2043491574848
 30
0.0
 11
162.7886128891292
 21
186.2043491574848
 31
0.0
  0
LINE
  5
A8
  8
LAYER1
 62
    18
 10
174.1986128891291
 20
186.2043491574848
 30
0.0
 11
176.2386128891291
 21
186.2043491574848
 31
0.0
  0
LINE
  5
A9
  8
LAYER1
 62
    18
 10
149.3386128891291
 20
186.2043491574848
 30
0.0
 11
149.3386128891291
 21
194.2043491574848
 31
0.0
  0
LINE
  5
AA
  8
LAYER1
 62
    18
 10
160.7486128891292
 20
194.2043491574848
 30
0.0
 11
160.7486128891292
 21
186.2043491574848
 31
0.0
  0
LINE
  5
AB
  8
LAYER1
 62
    18
 10
149.3386128891291
 20
194.2043491574848
 30
0.0
 11
160.7486128891292
 21
194.2043491574848
 31
0.0
  0
LINE
  5
AC
  8
LAYER1
 62
    18
 10
162.7886128891292
 20
186.2043491574848
 30
0.0
 11
162.7886128891292
 21
194.2043491574848
 31
0.0
  0
LINE
  5
AD
  8
LAYER1
 62
    18
 10
162.7886128891292
 20
194.2043491574848
 30
0.0
 11
174.1986128891291
 21
194.2043491574848
 31
0.0
  0
LINE
  5
AE
  8
LAYER1
 62
    18
 10
174.1986128891291
 20
194.2043491574848
 30
0.0
 11
174.1986128891291
 21
186.2043491574848
 31
0.0
  0
LINE
  5
AF
  8
LAYER1
 62
    18
 10
187.6486128891291
 20
186.2043491574848
 30
0.0
 11
189.6886128891292
 21
186.2043491574848
 31
0.0
  0
LINE
  5
B0
  8
LAYER1
 62
    18
 10
201.0986128891291
 20
186.2043491574848
 30
0.0
 11
203.1386128891291
 21
186.2043491574848
 31
0.0
  0
LINE
  5
B1
  8
LAYER1
 62
    18
 10
176.2386128891291
 20
186.2043491574848
 30
0.0
 11
176.2386128891291
 21
194.2043491574848
 31
0.0
  0
LINE
  5
B2
  8
LAYER1
 62
    18
 10
187.6486128891291
 20
194.2043491574848
 30
0.0
 11
187.6486128891291
 21
186.2043491574848
 31
0.0
  0
LINE
  5
B3
  8
LAYER1
 62
    18
 10
176.2386128891291
 20
194.2043491574848
 30
0.0
 11
187.6486128891291
 21
194.2043491574848
 31
0.0
  0
LINE
  5
B4
  8
LAYER1
 62
    18
 10
189.6886128891292
 20
186.2043491574848
 30
0.0
 11
189.6886128891292
 21
194.2043491574848
 31
0.0
  0
LINE
  5
B5
  8
LAYER1
 62
    18
 10
189.6886128891292
 20
194.2043491574848
 30
0.0
 11
201.0986128891291
 21
194.2043491574848
 31
0.0
  0
LINE
  5
B6
  8
LAYER1
 62
    18
 10
201.0986128891291
 20
194.2043491574848
 30
0.0
 11
201.0986128891291
 21
186.2043491574848
 31
0.0
  0
LINE
  5
B7
  8
LAYER1
 62
    18
 10
214.5486128891291
 20
186.2043491574848
 30
0.0
 11
216.5886128891292
 21
186.2043491574848
 31
0.0
  0
LINE
  5
B8
  8
LAYER1
 62
    18
 10
227.998612889129
 20
186.2043491574848
 30
0.0
 11
230.0386128891291
 21
186.2043491574848
 31
0.0
  0
LINE
  5
B9
  8
LAYER1
 62
    18
 10
203.1386128891291
 20
186.2043491574848
 30
0.0
 11
203.1386128891291
 21
194.2043491574848
 31
0.0
  0
LINE
  5
BA
  8
LAYER1
 62
    18
 10
214.5486128891291
 20
194.2043491574848
 30
0.0
 11
214.5486128891291
 21
186.2043491574848
 31
0.0
  0
LINE
  5
BB
  8
LAYER1
 62
    18
 10
203.1386128891291
 20
194.2043491574848
 30
0.0
 11
214.5486128891291
 21
194.2043491574848
 31
0.0
  0
LINE
  5
BC
  8
LAYER1
 62
    18
 10
216.5886128891292
 20
186.2043491574848
 30
0.0
 11
216.5886128891292
 21
194.2043491574848
 31
0.0
  0
LINE
  5
BD
  8
LAYER1
 62
    18
 10
216.5886128891292
 20
194.2043491574848
 30
0.0
 11
227.998612889129
 21
194.2043491574848
 31
0.0
  0
LINE
  5
BE
  8
LAYER1
 62
    18
 10
227.998612889129
 20
194.2043491574848
 30
0.0
 11
227.998612889129
 21
186.2043491574848
 31
0.0
  0
LINE
  5
BF
  8
LAYER1
 62
    18
 10
241.4486128891291
 20
186.2043491574848
 30
0.0
 11
243.4886128891291
 21
186.2043491574848
 31
0.0
  0
LINE
  5
C0
  8
LAYER1
 62
    18
 10
254.8986128891291
 20
186.2043491574848
 30
0.0
 11
256.938612889129
 21
186.2043491574848
 31
0.0
  0
LINE
  5
C1
  8
LAYER1
 62
    18
 10
230.0386128891291
 20
186.2043491574848
 30
0.0
 11
230.0386128891291
 21
194.2043491574848
 31
0.0
  0
LINE
  5
C2
  8
LAYER1
 62
    18
 10
241.4486128891291
 20
194.2043491574848
 30
0.0
 11
241.4486128891291
 21
186.2043491574848
 31
0.0
  0
LINE
  5
C3
  8
LAYER1
 62
    18
 10
230.0386128891291
 20
194.2043491574848
 30
0.0
 11
241.4486128891291
 21
194.2043491574848
 31
0.0
  0
LINE
  5
C4
  8
LAYER1
 62
    18
 10
243.4886128891291
 20
186.2043491574848
 30
0.0
 11
243.4886128891291
 21
194.2043491574848
 31
0.0
  0
LINE
  5
C5
  8
LAYER1
 62
    18
 10
243.4886128891291
 20
194.2043491574848
 30
0.0
 11
254.8986128891291
 21
194.2043491574848
 31
0.0
  0
LINE
  5
C6
  8
LAYER1
 62
    18
 10
254.8986128891291
 20
194.2043491574848
 30
0.0
 11
254.8986128891291
 21
186.2043491574848
 31
0.0
  0
LINE
  5
C7
  8
LAYER1
 62
    18
 10
268.3486128891291
 20
186.2043491574848
 30
0.0
 11
270.3886128891291
 21
186.2043491574848
 31
0.0
  0
LINE
  5
C8
  8
LAYER1
 62
    18
 10
256.938612889129
 20
186.2043491574848
 30
0.0
 11
256.938612889129
 21
194.2043491574848
 31
0.0
  0
LINE
  5
C9
  8
LAYER1
 62
    18
 10
268.3486128891291
 20
194.2043491574848
 30
0.0
 11
268.3486128891291
 21
186.2043491574848
 31
0.0
  0
LINE
  5
CA
  8
LAYER1
 62
    18
 10
256.938612889129
 20
194.2043491574848
 30
0.0
 11
268.3486128891291
 21
194.2043491574848
 31
0.0
  0
LINE
  5
CB
  8
LAYER1
 62
    18
 10
270.3886128891291
 20
186.2043491574848
 30
0.0
 11
270.3886128891291
 21
194.2043491574848
 31
0.0
  0
LINE
  5
CC
  8
LAYER1
 62
    18
 10
270.3886128891291
 20
194.2043491574848
 30
0.0
 11
281.7986128891289
 21
194.2043491574848
 31
0.0
  0
LINE
  5
CD
  8
LAYER1
 62
    18
 10
281.7986128891289
 20
194.2043491574848
 30
0.0
 11
281.7986128891289
 21
186.2043491574848
 31
0.0
  0
LINE
  5
CE
  8
LAYER1
 62
    18
 10
12.79861288912924
 20
178.2043491574848
 30
0.0
 11
12.79861288912924
 21
186.2043491574848
 31
0.0
  0
LINE
  5
CF
  8
LAYER1
 62
    18
 10
281.7986128891289
 20
186.2043491574848
 30
0.0
 11
282.818612889129
 21
186.2043491574848
 31
0.0
  0
LINE
  5
D0
  8
LAYER1
 62
    18
 10
12.79861288912924
 20
178.2043491574848
 30
0.0
 11
282.8186128891289
 21
178.2043491574848
 31
0.0
  0
LINE
  5
D1
  8
LAYER1
 62
    18
 10
282.8186128891289
 20
178.2043491574848
 30
0.0
 11
282.818612889129
 21
186.2043491574848
 31
0.0
  0
LINE
  5
D2
  8
LAYER1
 62
    18
 10
12.79861288912924
 20
166.9093608391283
 30
0.0
 11
14.83861288912921
 21
166.9093608391283
 31
0.0
  0
LINE
  5
D3
  8
LAYER1
 62
    18
 10
26.24861288912925
 20
166.9093608391283
 30
0.0
 11
28.28861288912931
 21
166.9093608391283
 31
0.0
  0
LINE
  5
D4
  8
LAYER1
 62
    18
 10
39.69861288912917
 20
166.9093608391283
 30
0.0
 11
41.73861288912923
 21
166.9093608391283
 31
0.0
  0
LINE
  5
D5
  8
LAYER1
 62
    18
 10
14.83861288912921
 20
166.9093608391283
 30
0.0
 11
14.83861288912921
 21
174.9093608391284
 31
0.0
  0
LINE
  5
D6
  8
LAYER1
 62
    18
 10
26.24861288912925
 20
174.9093608391284
 30
0.0
 11
26.24861288912925
 21
166.9093608391283
 31
0.0
  0
LINE
  5
D7
  8
LAYER1
 62
    18
 10
14.83861288912921
 20
174.9093608391284
 30
0.0
 11
26.24861288912925
 21
174.9093608391284
 31
0.0
  0
LINE
  5
D8
  8
LAYER1
 62
    18
 10
28.28861288912931
 20
166.9093608391283
 30
0.0
 11
28.28861288912931
 21
174.9093608391284
 31
0.0
  0
LINE
  5
D9
  8
LAYER1
 62
    18
 10
28.28861288912931
 20
174.9093608391284
 30
0.0
 11
39.69861288912917
 21
174.9093608391284
 31
0.0
  0
LINE
  5
DA
  8
LAYER1
 62
    18
 10
39.69861288912917
 20
174.9093608391284
 30
0.0
 11
39.69861288912917
 21
166.9093608391283
 31
0.0
  0
LINE
  5
DB
  8
LAYER1
 62
    18
 10
53.14861288912927
 20
166.9093608391283
 30
0.0
 11
55.18861288912923
 21
166.9093608391283
 31
0.0
  0
LINE
  5
DC
  8
LAYER1
 62
    18
 10
66.59861288912919
 20
166.9093608391283
 30
0.0
 11
68.63861288912915
 21
166.9093608391283
 31
0.0
  0
LINE
  5
DD
  8
LAYER1
 62
    18
 10
41.73861288912923
 20
166.9093608391283
 30
0.0
 11
41.73861288912923
 21
174.9093608391284
 31
0.0
  0
LINE
  5
DE
  8
LAYER1
 62
    18
 10
53.14861288912927
 20
174.9093608391284
 30
0.0
 11
53.14861288912927
 21
166.9093608391283
 31
0.0
  0
LINE
  5
DF
  8
LAYER1
 62
    18
 10
41.73861288912923
 20
174.9093608391284
 30
0.0
 11
53.14861288912927
 21
174.9093608391284
 31
0.0
  0
LINE
  5
E0
  8
LAYER1
 62
    18
 10
55.18861288912923
 20
166.9093608391283
 30
0.0
 11
55.18861288912923
 21
174.9093608391284
 31
0.0
  0
LINE
  5
E1
  8
LAYER1
 62
    18
 10
55.18861288912923
 20
174.9093608391284
 30
0.0
 11
66.59861288912919
 21
174.9093608391284
 31
0.0
  0
LINE
  5
E2
  8
LAYER1
 62
    18
 10
66.59861288912919
 20
174.9093608391284
 30
0.0
 11
66.59861288912919
 21
166.9093608391283
 31
0.0
  0
LINE
  5
E3
  8
LAYER1
 62
    18
 10
80.04861288912919
 20
166.9093608391283
 30
0.0
 11
82.08861288912925
 21
166.9093608391283
 31
0.0
  0
LINE
  5
E4
  8
LAYER1
 62
    18
 10
93.4986128891291
 20
166.9093608391283
 30
0.0
 11
95.53861288912917
 21
166.9093608391283
 31
0.0
  0
LINE
  5
E5
  8
LAYER1
 62
    18
 10
68.63861288912915
 20
166.9093608391283
 30
0.0
 11
68.63861288912915
 21
174.9093608391284
 31
0.0
  0
LINE
  5
E6
  8
LAYER1
 62
    18
 10
80.04861288912919
 20
174.9093608391284
 30
0.0
 11
80.04861288912919
 21
166.9093608391283
 31
0.0
  0
LINE
  5
E7
  8
LAYER1
 62
    18
 10
68.63861288912915
 20
174.9093608391284
 30
0.0
 11
80.04861288912919
 21
174.9093608391284
 31
0.0
  0
LINE
  5
E8
  8
LAYER1
 62
    18
 10
82.08861288912925
 20
166.9093608391283
 30
0.0
 11
82.08861288912925
 21
174.9093608391284
 31
0.0
  0
LINE
  5
E9
  8
LAYER1
 62
    18
 10
82.08861288912925
 20
174.9093608391284
 30
0.0
 11
93.4986128891291
 21
174.9093608391284
 31
0.0
  0
LINE
  5
EA
  8
LAYER1
 62
    18
 10
93.4986128891291
 20
174.9093608391284
 30
0.0
 11
93.4986128891291
 21
166.9093608391283
 31
0.0
  0
LINE
  5
EB
  8
LAYER1
 62
    18
 10
106.9486128891292
 20
166.9093608391283
 30
0.0
 11
108.9886128891292
 21
166.9093608391283
 31
0.0
  0
LINE
  5
EC
  8
LAYER1
 62
    18
 10
120.3986128891291
 20
166.9093608391283
 30
0.0
 11
122.4386128891291
 21
166.9093608391283
 31
0.0
  0
LINE
  5
ED
  8
LAYER1
 62
    18
 10
95.53861288912917
 20
166.9093608391283
 30
0.0
 11
95.53861288912917
 21
174.9093608391284
 31
0.0
  0
LINE
  5
EE
  8
LAYER1
 62
    18
 10
106.9486128891292
 20
174.9093608391284
 30
0.0
 11
106.9486128891292
 21
166.9093608391283
 31
0.0
  0
LINE
  5
EF
  8
LAYER1
 62
    18
 10
95.53861288912917
 20
174.9093608391284
 30
0.0
 11
106.9486128891292
 21
174.9093608391284
 31
0.0
  0
LINE
  5
F0
  8
LAYER1
 62
    18
 10
108.9886128891292
 20
166.9093608391283
 30
0.0
 11
108.9886128891292
 21
174.9093608391284
 31
0.0
  0
LINE
  5
F1
  8
LAYER1
 62
    18
 10
108.9886128891292
 20
174.9093608391284
 30
0.0
 11
120.3986128891291
 21
174.9093608391284
 31
0.0
  0
LINE
  5
F2
  8
LAYER1
 62
    18
 10
120.3986128891291
 20
174.9093608391284
 30
0.0
 11
120.3986128891291
 21
166.9093608391283
 31
0.0
  0
LINE
  5
F3
  8
LAYER1
 62
    18
 10
133.8486128891292
 20
166.9093608391283
 30
0.0
 11
135.8886128891292
 21
166.9093608391283
 31
0.0
  0
LINE
  5
F4
  8
LAYER1
 62
    18
 10
147.2986128891291
 20
166.9093608391283
 30
0.0
 11
149.3386128891291
 21
166.9093608391283
 31
0.0
  0
LINE
  5
F5
  8
LAYER1
 62
    18
 10
122.4386128891291
 20
166.9093608391283
 30
0.0
 11
122.4386128891291
 21
174.9093608391284
 31
0.0
  0
LINE
  5
F6
  8
LAYER1
 62
    18
 10
133.8486128891292
 20
174.9093608391284
 30
0.0
 11
133.8486128891292
 21
166.9093608391283
 31
0.0
  0
LINE
  5
F7
  8
LAYER1
 62
    18
 10
122.4386128891291
 20
174.9093608391284
 30
0.0
 11
133.8486128891292
 21
174.9093608391284
 31
0.0
  0
LINE
  5
F8
  8
LAYER1
 62
    18
 10
135.8886128891292
 20
166.9093608391283
 30
0.0
 11
135.8886128891292
 21
174.9093608391284
 31
0.0
  0
LINE
  5
F9
  8
LAYER1
 62
    18
 10
135.8886128891292
 20
174.9093608391284
 30
0.0
 11
147.2986128891291
 21
174.9093608391284
 31
0.0
  0
LINE
  5
FA
  8
LAYER1
 62
    18
 10
147.2986128891291
 20
174.9093608391284
 30
0.0
 11
147.2986128891291
 21
166.9093608391283
 31
0.0
  0
LINE
  5
FB
  8
LAYER1
 62
    18
 10
160.7486128891291
 20
166.9093608391283
 30
0.0
 11
162.7886128891292
 21
166.9093608391283
 31
0.0
  0
LINE
  5
FC
  8
LAYER1
 62
    18
 10
174.1986128891291
 20
166.9093608391283
 30
0.0
 11
176.2386128891291
 21
166.9093608391283
 31
0.0
  0
LINE
  5
FD
  8
LAYER1
 62
    18
 10
149.3386128891291
 20
166.9093608391283
 30
0.0
 11
149.3386128891291
 21
174.9093608391284
 31
0.0
  0
LINE
  5
FE
  8
LAYER1
 62
    18
 10
160.7486128891291
 20
174.9093608391284
 30
0.0
 11
160.7486128891291
 21
166.9093608391283
 31
0.0
  0
LINE
  5
FF
  8
LAYER1
 62
    18
 10
149.3386128891291
 20
174.9093608391284
 30
0.0
 11
160.7486128891291
 21
174.9093608391284
 31
0.0
  0
LINE
  5
100
  8
LAYER1
 62
    18
 10
162.7886128891292
 20
166.9093608391283
 30
0.0
 11
162.7886128891292
 21
174.9093608391284
 31
0.0
  0
LINE
  5
101
  8
LAYER1
 62
    18
 10
162.7886128891292
 20
174.9093608391284
 30
0.0
 11
174.1986128891291
 21
174.9093608391284
 31
0.0
  0
LINE
  5
102
  8
LAYER1
 62
    18
 10
174.1986128891291
 20
174.9093608391284
 30
0.0
 11
174.1986128891291
 21
166.9093608391283
 31
0.0
  0
LINE
  5
103
  8
LAYER1
 62
    18
 10
187.6486128891291
 20
166.9093608391283
 30
0.0
 11
189.6886128891292
 21
166.9093608391283
 31
0.0
  0
LINE
  5
104
  8
LAYER1
 62
    18
 10
201.098612889129
 20
166.9093608391283
 30
0.0
 11
203.1386128891291
 21
166.9093608391283
 31
0.0
  0
LINE
  5
105
  8
LAYER1
 62
    18
 10
176.2386128891291
 20
166.9093608391283
 30
0.0
 11
176.2386128891291
 21
174.9093608391284
 31
0.0
  0
LINE
  5
106
  8
LAYER1
 62
    18
 10
187.6486128891291
 20
174.9093608391284
 30
0.0
 11
187.6486128891291
 21
166.9093608391283
 31
0.0
  0
LINE
  5
107
  8
LAYER1
 62
    18
 10
176.2386128891291
 20
174.9093608391284
 30
0.0
 11
187.6486128891291
 21
174.9093608391284
 31
0.0
  0
LINE
  5
108
  8
LAYER1
 62
    18
 10
189.6886128891292
 20
166.9093608391283
 30
0.0
 11
189.6886128891292
 21
174.9093608391284
 31
0.0
  0
LINE
  5
109
  8
LAYER1
 62
    18
 10
189.6886128891292
 20
174.9093608391284
 30
0.0
 11
201.098612889129
 21
174.9093608391284
 31
0.0
  0
LINE
  5
10A
  8
LAYER1
 62
    18
 10
201.098612889129
 20
174.9093608391284
 30
0.0
 11
201.098612889129
 21
166.9093608391283
 31
0.0
  0
LINE
  5
10B
  8
LAYER1
 62
    18
 10
214.5486128891291
 20
166.9093608391283
 30
0.0
 11
216.5886128891291
 21
166.9093608391283
 31
0.0
  0
LINE
  5
10C
  8
LAYER1
 62
    18
 10
227.998612889129
 20
166.9093608391283
 30
0.0
 11
230.038612889129
 21
166.9093608391283
 31
0.0
  0
LINE
  5
10D
  8
LAYER1
 62
    18
 10
203.1386128891291
 20
166.9093608391283
 30
0.0
 11
203.1386128891291
 21
174.9093608391284
 31
0.0
  0
LINE
  5
10E
  8
LAYER1
 62
    18
 10
214.5486128891291
 20
174.9093608391284
 30
0.0
 11
214.5486128891291
 21
166.9093608391283
 31
0.0
  0
LINE
  5
10F
  8
LAYER1
 62
    18
 10
203.1386128891291
 20
174.9093608391284
 30
0.0
 11
214.5486128891291
 21
174.9093608391284
 31
0.0
  0
LINE
  5
110
  8
LAYER1
 62
    18
 10
216.5886128891291
 20
166.9093608391283
 30
0.0
 11
216.5886128891291
 21
174.9093608391284
 31
0.0
  0
LINE
  5
111
  8
LAYER1
 62
    18
 10
216.5886128891291
 20
174.9093608391284
 30
0.0
 11
227.998612889129
 21
174.9093608391284
 31
0.0
  0
LINE
  5
112
  8
LAYER1
 62
    18
 10
227.998612889129
 20
174.9093608391284
 30
0.0
 11
227.998612889129
 21
166.9093608391283
 31
0.0
  0
LINE
  5
113
  8
LAYER1
 62
    18
 10
241.4486128891291
 20
166.9093608391283
 30
0.0
 11
243.4886128891291
 21
166.9093608391283
 31
0.0
  0
LINE
  5
114
  8
LAYER1
 62
    18
 10
254.898612889129
 20
166.9093608391283
 30
0.0
 11
256.938612889129
 21
166.9093608391283
 31
0.0
  0
LINE
  5
115
  8
LAYER1
 62
    18
 10
230.038612889129
 20
166.9093608391283
 30
0.0
 11
230.038612889129
 21
174.9093608391284
 31
0.0
  0
LINE
  5
116
  8
LAYER1
 62
    18
 10
241.4486128891291
 20
174.9093608391284
 30
0.0
 11
241.4486128891291
 21
166.9093608391283
 31
0.0
  0
LINE
  5
117
  8
LAYER1
 62
    18
 10
230.038612889129
 20
174.9093608391284
 30
0.0
 11
241.4486128891291
 21
174.9093608391284
 31
0.0
  0
LINE
  5
118
  8
LAYER1
 62
    18
 10
243.4886128891291
 20
166.9093608391283
 30
0.0
 11
243.4886128891291
 21
174.9093608391284
 31
0.0
  0
LINE
  5
119
  8
LAYER1
 62
    18
 10
243.4886128891291
 20
174.9093608391284
 30
0.0
 11
254.898612889129
 21
174.9093608391284
 31
0.0
  0
LINE
  5
11A
  8
LAYER1
 62
    18
 10
254.898612889129
 20
174.9093608391284
 30
0.0
 11
254.898612889129
 21
166.9093608391283
 31
0.0
  0
LINE
  5
11B
  8
LAYER1
 62
    18
 10
268.3486128891291
 20
166.9093608391283
 30
0.0
 11
270.3886128891291
 21
166.9093608391283
 31
0.0
  0
LINE
  5
11C
  8
LAYER1
 62
    18
 10
256.938612889129
 20
166.9093608391283
 30
0.0
 11
256.938612889129
 21
174.9093608391284
 31
0.0
  0
LINE
  5
11D
  8
LAYER1
 62
    18
 10
268.3486128891291
 20
174.9093608391284
 30
0.0
 11
268.3486128891291
 21
166.9093608391283
 31
0.0
  0
LINE
  5
11E
  8
LAYER1
 62
    18
 10
256.938612889129
 20
174.9093608391284
 30
0.0
 11
268.3486128891291
 21
174.9093608391284
 31
0.0
  0
LINE
  5
11F
  8
LAYER1
 62
    18
 10
270.3886128891291
 20
166.9093608391283
 30
0.0
 11
270.3886128891291
 21
174.9093608391284
 31
0.0
  0
LINE
  5
120
  8
LAYER1
 62
    18
 10
270.3886128891291
 20
174.9093608391284
 30
0.0
 11
281.7986128891289
 21
174.9093608391284
 31
0.0
  0
LINE
  5
121
  8
LAYER1
 62
    18
 10
281.7986128891289
 20
174.9093608391284
 30
0.0
 11
281.7986128891289
 21
166.9093608391283
 31
0.0
  0
LINE
  5
122
  8
LAYER1
 62
    18
 10
12.79861288912924
 20
158.9093608391283
 30
0.0
 11
12.79861288912924
 21
166.9093608391283
 31
0.0
  0
LINE
  5
123
  8
LAYER1
 62
    18
 10
281.7986128891289
 20
166.9093608391283
 30
0.0
 11
282.8186128891289
 21
166.9093608391283
 31
0.0
  0
LINE
  5
124
  8
LAYER1
 62
    18
 10
12.79861288912924
 20
158.9093608391283
 30
0.0
 11
282.8186128891289
 21
158.9093608391283
 31
0.0
  0
LINE
  5
125
  8
LAYER1
 62
    18
 10
282.8186128891289
 20
158.9093608391283
 30
0.0
 11
282.8186128891289
 21
166.9093608391283
 31
0.0
  0
LINE
  5
126
  8
LAYER1
 62
    18
 10
12.79861288912924
 20
148.0842447495516
 30
0.0
 11
14.83861288912921
 21
148.0842447495516
 31
0.0
  0
LINE
  5
127
  8
LAYER1
 62
    18
 10
26.24861288912925
 20
148.0842447495516
 30
0.0
 11
28.28861288912931
 21
148.0842447495516
 31
0.0
  0
LINE
  5
128
  8
LAYER1
 62
    18
 10
39.69861288912917
 20
148.0842447495516
 30
0.0
 11
41.73861288912923
 21
148.0842447495516
 31
0.0
  0
LINE
  5
129
  8
LAYER1
 62
    18
 10
14.83861288912921
 20
148.0842447495516
 30
0.0
 11
14.83861288912921
 21
156.0842447495517
 31
0.0
  0
LINE
  5
12A
  8
LAYER1
 62
    18
 10
26.24861288912925
 20
156.0842447495517
 30
0.0
 11
26.24861288912925
 21
148.0842447495516
 31
0.0
  0
LINE
  5
12B
  8
LAYER1
 62
    18
 10
14.83861288912921
 20
156.0842447495517
 30
0.0
 11
26.24861288912925
 21
156.0842447495517
 31
0.0
  0
LINE
  5
12C
  8
LAYER1
 62
    18
 10
28.28861288912931
 20
148.0842447495516
 30
0.0
 11
28.28861288912931
 21
156.0842447495517
 31
0.0
  0
LINE
  5
12D
  8
LAYER1
 62
    18
 10
28.28861288912931
 20
156.0842447495517
 30
0.0
 11
39.69861288912917
 21
156.0842447495517
 31
0.0
  0
LINE
  5
12E
  8
LAYER1
 62
    18
 10
39.69861288912917
 20
156.0842447495517
 30
0.0
 11
39.69861288912917
 21
148.0842447495516
 31
0.0
  0
LINE
  5
12F
  8
LAYER1
 62
    18
 10
53.14861288912927
 20
148.0842447495516
 30
0.0
 11
55.18861288912923
 21
148.0842447495516
 31
0.0
  0
LINE
  5
130
  8
LAYER1
 62
    18
 10
66.59861288912919
 20
148.0842447495516
 30
0.0
 11
68.63861288912915
 21
148.0842447495516
 31
0.0
  0
LINE
  5
131
  8
LAYER1
 62
    18
 10
41.73861288912923
 20
148.0842447495516
 30
0.0
 11
41.73861288912923
 21
156.0842447495517
 31
0.0
  0
LINE
  5
132
  8
LAYER1
 62
    18
 10
53.14861288912927
 20
156.0842447495517
 30
0.0
 11
53.14861288912927
 21
148.0842447495516
 31
0.0
  0
LINE
  5
133
  8
LAYER1
 62
    18
 10
41.73861288912923
 20
156.0842447495517
 30
0.0
 11
53.14861288912927
 21
156.0842447495517
 31
0.0
  0
LINE
  5
134
  8
LAYER1
 62
    18
 10
55.18861288912923
 20
148.0842447495516
 30
0.0
 11
55.18861288912923
 21
156.0842447495517
 31
0.0
  0
LINE
  5
135
  8
LAYER1
 62
    18
 10
55.18861288912923
 20
156.0842447495517
 30
0.0
 11
66.59861288912919
 21
156.0842447495517
 31
0.0
  0
LINE
  5
136
  8
LAYER1
 62
    18
 10
66.59861288912919
 20
156.0842447495517
 30
0.0
 11
66.59861288912919
 21
148.0842447495516
 31
0.0
  0
LINE
  5
137
  8
LAYER1
 62
    18
 10
80.04861288912919
 20
148.0842447495516
 30
0.0
 11
82.08861288912925
 21
148.0842447495516
 31
0.0
  0
LINE
  5
138
  8
LAYER1
 62
    18
 10
93.4986128891291
 20
148.0842447495516
 30
0.0
 11
95.53861288912917
 21
148.0842447495516
 31
0.0
  0
LINE
  5
139
  8
LAYER1
 62
    18
 10
68.63861288912915
 20
148.0842447495516
 30
0.0
 11
68.63861288912915
 21
156.0842447495517
 31
0.0
  0
LINE
  5
13A
  8
LAYER1
 62
    18
 10
80.04861288912919
 20
156.0842447495517
 30
0.0
 11
80.04861288912919
 21
148.0842447495516
 31
0.0
  0
LINE
  5
13B
  8
LAYER1
 62
    18
 10
68.63861288912915
 20
156.0842447495517
 30
0.0
 11
80.04861288912919
 21
156.0842447495517
 31
0.0
  0
LINE
  5
13C
  8
LAYER1
 62
    18
 10
82.08861288912925
 20
148.0842447495516
 30
0.0
 11
82.08861288912925
 21
156.0842447495517
 31
0.0
  0
LINE
  5
13D
  8
LAYER1
 62
    18
 10
82.08861288912925
 20
156.0842447495517
 30
0.0
 11
93.4986128891291
 21
156.0842447495517
 31
0.0
  0
LINE
  5
13E
  8
LAYER1
 62
    18
 10
93.4986128891291
 20
156.0842447495517
 30
0.0
 11
93.4986128891291
 21
148.0842447495516
 31
0.0
  0
LINE
  5
13F
  8
LAYER1
 62
    18
 10
106.9486128891293
 20
148.0842447495516
 30
0.0
 11
108.9886128891292
 21
148.0842447495516
 31
0.0
  0
LINE
  5
140
  8
LAYER1
 62
    18
 10
120.3986128891292
 20
148.0842447495516
 30
0.0
 11
122.4386128891291
 21
148.0842447495516
 31
0.0
  0
LINE
  5
141
  8
LAYER1
 62
    18
 10
95.53861288912917
 20
148.0842447495516
 30
0.0
 11
95.53861288912917
 21
156.0842447495517
 31
0.0
  0
LINE
  5
142
  8
LAYER1
 62
    18
 10
106.9486128891293
 20
156.0842447495517
 30
0.0
 11
106.9486128891293
 21
148.0842447495516
 31
0.0
  0
LINE
  5
143
  8
LAYER1
 62
    18
 10
95.53861288912917
 20
156.0842447495517
 30
0.0
 11
106.9486128891293
 21
156.0842447495517
 31
0.0
  0
LINE
  5
144
  8
LAYER1
 62
    18
 10
108.9886128891292
 20
148.0842447495516
 30
0.0
 11
108.9886128891292
 21
156.0842447495517
 31
0.0
  0
LINE
  5
145
  8
LAYER1
 62
    18
 10
108.9886128891292
 20
156.0842447495517
 30
0.0
 11
120.3986128891292
 21
156.0842447495517
 31
0.0
  0
LINE
  5
146
  8
LAYER1
 62
    18
 10
120.3986128891292
 20
156.0842447495517
 30
0.0
 11
120.3986128891292
 21
148.0842447495516
 31
0.0
  0
LINE
  5
147
  8
LAYER1
 62
    18
 10
133.8486128891292
 20
148.0842447495516
 30
0.0
 11
135.8886128891292
 21
148.0842447495516
 31
0.0
  0
LINE
  5
148
  8
LAYER1
 62
    18
 10
147.2986128891291
 20
148.0842447495516
 30
0.0
 11
149.3386128891291
 21
148.0842447495516
 31
0.0
  0
LINE
  5
149
  8
LAYER1
 62
    18
 10
122.4386128891291
 20
148.0842447495516
 30
0.0
 11
122.4386128891291
 21
156.0842447495517
 31
0.0
  0
LINE
  5
14A
  8
LAYER1
 62
    18
 10
133.8486128891292
 20
156.0842447495517
 30
0.0
 11
133.8486128891292
 21
148.0842447495516
 31
0.0
  0
LINE
  5
14B
  8
LAYER1
 62
    18
 10
122.4386128891291
 20
156.0842447495517
 30
0.0
 11
133.8486128891292
 21
156.0842447495517
 31
0.0
  0
LINE
  5
14C
  8
LAYER1
 62
    18
 10
135.8886128891292
 20
148.0842447495516
 30
0.0
 11
135.8886128891292
 21
156.0842447495517
 31
0.0
  0
LINE
  5
14D
  8
LAYER1
 62
    18
 10
135.8886128891292
 20
156.0842447495517
 30
0.0
 11
147.2986128891291
 21
156.0842447495517
 31
0.0
  0
LINE
  5
14E
  8
LAYER1
 62
    18
 10
147.2986128891291
 20
156.0842447495517
 30
0.0
 11
147.2986128891291
 21
148.0842447495516
 31
0.0
  0
LINE
  5
14F
  8
LAYER1
 62
    18
 10
160.7486128891292
 20
148.0842447495516
 30
0.0
 11
162.7886128891292
 21
148.0842447495516
 31
0.0
  0
LINE
  5
150
  8
LAYER1
 62
    18
 10
174.1986128891291
 20
148.0842447495516
 30
0.0
 11
176.2386128891291
 21
148.0842447495516
 31
0.0
  0
LINE
  5
151
  8
LAYER1
 62
    18
 10
149.3386128891291
 20
148.0842447495516
 30
0.0
 11
149.3386128891291
 21
156.0842447495517
 31
0.0
  0
LINE
  5
152
  8
LAYER1
 62
    18
 10
160.7486128891292
 20
156.0842447495517
 30
0.0
 11
160.7486128891292
 21
148.0842447495516
 31
0.0
  0
LINE
  5
153
  8
LAYER1
 62
    18
 10
149.3386128891291
 20
156.0842447495517
 30
0.0
 11
160.7486128891292
 21
156.0842447495517
 31
0.0
  0
LINE
  5
154
  8
LAYER1
 62
    18
 10
162.7886128891292
 20
148.0842447495516
 30
0.0
 11
162.7886128891292
 21
156.0842447495517
 31
0.0
  0
LINE
  5
155
  8
LAYER1
 62
    18
 10
162.7886128891292
 20
156.0842447495517
 30
0.0
 11
174.1986128891291
 21
156.0842447495517
 31
0.0
  0
LINE
  5
156
  8
LAYER1
 62
    18
 10
174.1986128891291
 20
156.0842447495517
 30
0.0
 11
174.1986128891291
 21
148.0842447495516
 31
0.0
  0
LINE
  5
157
  8
LAYER1
 62
    18
 10
187.6486128891291
 20
148.0842447495516
 30
0.0
 11
189.6886128891292
 21
148.0842447495516
 31
0.0
  0
LINE
  5
158
  8
LAYER1
 62
    18
 10
201.098612889129
 20
148.0842447495516
 30
0.0
 11
203.1386128891291
 21
148.0842447495516
 31
0.0
  0
LINE
  5
159
  8
LAYER1
 62
    18
 10
176.2386128891291
 20
148.0842447495516
 30
0.0
 11
176.2386128891291
 21
156.0842447495517
 31
0.0
  0
LINE
  5
15A
  8
LAYER1
 62
    18
 10
187.6486128891291
 20
156.0842447495517
 30
0.0
 11
187.6486128891291
 21
148.0842447495516
 31
0.0
  0
LINE
  5
15B
  8
LAYER1
 62
    18
 10
176.2386128891291
 20
156.0842447495517
 30
0.0
 11
187.6486128891291
 21
156.0842447495517
 31
0.0
  0
LINE
  5
15C
  8
LAYER1
 62
    18
 10
189.6886128891292
 20
148.0842447495516
 30
0.0
 11
189.6886128891292
 21
156.0842447495517
 31
0.0
  0
LINE
  5
15D
  8
LAYER1
 62
    18
 10
189.6886128891292
 20
156.0842447495517
 30
0.0
 11
201.098612889129
 21
156.0842447495517
 31
0.0
  0
LINE
  5
15E
  8
LAYER1
 62
    18
 10
201.098612889129
 20
156.0842447495517
 30
0.0
 11
201.098612889129
 21
148.0842447495516
 31
0.0
  0
LINE
  5
15F
  8
LAYER1
 62
    18
 10
214.5486128891291
 20
148.0842447495516
 30
0.0
 11
216.5886128891291
 21
148.0842447495516
 31
0.0
  0
LINE
  5
160
  8
LAYER1
 62
    18
 10
227.998612889129
 20
148.0842447495516
 30
0.0
 11
230.038612889129
 21
148.0842447495516
 31
0.0
  0
LINE
  5
161
  8
LAYER1
 62
    18
 10
203.1386128891291
 20
148.0842447495516
 30
0.0
 11
203.1386128891291
 21
156.0842447495517
 31
0.0
  0
LINE
  5
162
  8
LAYER1
 62
    18
 10
214.5486128891291
 20
156.0842447495517
 30
0.0
 11
214.5486128891291
 21
148.0842447495516
 31
0.0
  0
LINE
  5
163
  8
LAYER1
 62
    18
 10
203.1386128891291
 20
156.0842447495517
 30
0.0
 11
214.5486128891291
 21
156.0842447495517
 31
0.0
  0
LINE
  5
164
  8
LAYER1
 62
    18
 10
216.5886128891291
 20
148.0842447495516
 30
0.0
 11
216.5886128891291
 21
156.0842447495517
 31
0.0
  0
LINE
  5
165
  8
LAYER1
 62
    18
 10
216.5886128891291
 20
156.0842447495517
 30
0.0
 11
227.998612889129
 21
156.0842447495517
 31
0.0
  0
LINE
  5
166
  8
LAYER1
 62
    18
 10
227.998612889129
 20
156.0842447495517
 30
0.0
 11
227.998612889129
 21
148.0842447495516
 31
0.0
  0
LINE
  5
167
  8
LAYER1
 62
    18
 10
241.4486128891291
 20
148.0842447495516
 30
0.0
 11
243.4886128891291
 21
148.0842447495516
 31
0.0
  0
LINE
  5
168
  8
LAYER1
 62
    18
 10
254.898612889129
 20
148.0842447495516
 30
0.0
 11
256.938612889129
 21
148.0842447495516
 31
0.0
  0
LINE
  5
169
  8
LAYER1
 62
    18
 10
230.038612889129
 20
148.0842447495516
 30
0.0
 11
230.038612889129
 21
156.0842447495517
 31
0.0
  0
LINE
  5
16A
  8
LAYER1
 62
    18
 10
241.4486128891291
 20
156.0842447495517
 30
0.0
 11
241.4486128891291
 21
148.0842447495516
 31
0.0
  0
LINE
  5
16B
  8
LAYER1
 62
    18
 10
230.038612889129
 20
156.0842447495517
 30
0.0
 11
241.4486128891291
 21
156.0842447495517
 31
0.0
  0
LINE
  5
16C
  8
LAYER1
 62
    18
 10
243.4886128891291
 20
148.0842447495516
 30
0.0
 11
243.4886128891291
 21
156.0842447495517
 31
0.0
  0
LINE
  5
16D
  8
LAYER1
 62
    18
 10
243.4886128891291
 20
156.0842447495517
 30
0.0
 11
254.898612889129
 21
156.0842447495517
 31
0.0
  0
LINE
  5
16E
  8
LAYER1
 62
    18
 10
254.898612889129
 20
156.0842447495517
 30
0.0
 11
254.898612889129
 21
148.0842447495516
 31
0.0
  0
LINE
  5
16F
  8
LAYER1
 62
    18
 10
268.3486128891291
 20
148.0842447495516
 30
0.0
 11
270.3886128891291
 21
148.0842447495516
 31
0.0
  0
LINE
  5
170
  8
LAYER1
 62
    18
 10
256.938612889129
 20
148.0842447495516
 30
0.0
 11
256.938612889129
 21
156.0842447495517
 31
0.0
  0
LINE
  5
171
  8
LAYER1
 62
    18
 10
268.3486128891291
 20
156.0842447495517
 30
0.0
 11
268.3486128891291
 21
148.0842447495516
 31
0.0
  0
LINE
  5
172
  8
LAYER1
 62
    18
 10
256.938612889129
 20
156.0842447495517
 30
0.0
 11
268.3486128891291
 21
156.0842447495517
 31
0.0
  0
LINE
  5
173
  8
LAYER1
 62
    18
 10
270.3886128891291
 20
148.0842447495516
 30
0.0
 11
270.3886128891291
 21
156.0842447495517
 31
0.0
  0
LINE
  5
174
  8
LAYER1
 62
    18
 10
270.3886128891291
 20
156.0842447495517
 30
0.0
 11
281.7986128891289
 21
156.0842447495517
 31
0.0
  0
LINE
  5
175
  8
LAYER1
 62
    18
 10
281.7986128891289
 20
156.0842447495517
 30
0.0
 11
281.7986128891289
 21
148.0842447495516
 31
0.0
  0
LINE
  5
176
  8
LAYER1
 62
    18
 10
12.79861288912924
 20
140.0842447495517
 30
0.0
 11
12.79861288912924
 21
148.0842447495516
 31
0.0
  0
LINE
  5
177
  8
LAYER1
 62
    18
 10
281.7986128891289
 20
148.0842447495516
 30
0.0
 11
282.8186128891289
 21
148.0842447495516
 31
0.0
  0
LINE
  5
178
  8
LAYER1
 62
    18
 10
12.79861288912924
 20
140.0842447495517
 30
0.0
 11
282.8186128891289
 21
140.0842447495517
 31
0.0
  0
LINE
  5
179
  8
LAYER1
 62
    18
 10
282.8186128891289
 20
140.0842447495517
 30
0.0
 11
282.8186128891289
 21
148.0842447495516
 31
0.0
  0
LINE
  5
17A
  8
LAYER1
 62
    18
 10
12.79861288912924
 20
128.7892564311952
 30
0.0
 11
14.83861288912921
 21
128.7892564311952
 31
0.0
  0
LINE
  5
17B
  8
LAYER1
 62
    18
 10
26.24861288912925
 20
128.7892564311952
 30
0.0
 11
28.28861288912931
 21
128.7892564311952
 31
0.0
  0
LINE
  5
17C
  8
LAYER1
 62
    18
 10
39.69861288912917
 20
128.7892564311952
 30
0.0
 11
41.73861288912923
 21
128.7892564311952
 31
0.0
  0
LINE
  5
17D
  8
LAYER1
 62
    18
 10
14.83861288912921
 20
128.7892564311952
 30
0.0
 11
14.83861288912921
 21
136.7892564311952
 31
0.0
  0
LINE
  5
17E
  8
LAYER1
 62
    18
 10
26.24861288912925
 20
136.7892564311952
 30
0.0
 11
26.24861288912925
 21
128.7892564311952
 31
0.0
  0
LINE
  5
17F
  8
LAYER1
 62
    18
 10
14.83861288912921
 20
136.7892564311952
 30
0.0
 11
26.24861288912925
 21
136.7892564311952
 31
0.0
  0
LINE
  5
180
  8
LAYER1
 62
    18
 10
28.28861288912931
 20
128.7892564311952
 30
0.0
 11
28.28861288912931
 21
136.7892564311952
 31
0.0
  0
LINE
  5
181
  8
LAYER1
 62
    18
 10
28.28861288912931
 20
136.7892564311952
 30
0.0
 11
39.69861288912917
 21
136.7892564311952
 31
0.0
  0
LINE
  5
182
  8
LAYER1
 62
    18
 10
39.69861288912917
 20
136.7892564311952
 30
0.0
 11
39.69861288912917
 21
128.7892564311952
 31
0.0
  0
LINE
  5
183
  8
LAYER1
 62
    18
 10
53.14861288912927
 20
128.7892564311952
 30
0.0
 11
55.18861288912923
 21
128.7892564311952
 31
0.0
  0
LINE
  5
184
  8
LAYER1
 62
    18
 10
66.59861288912919
 20
128.7892564311952
 30
0.0
 11
68.63861288912915
 21
128.7892564311952
 31
0.0
  0
LINE
  5
185
  8
LAYER1
 62
    18
 10
41.73861288912923
 20
128.7892564311952
 30
0.0
 11
41.73861288912923
 21
136.7892564311952
 31
0.0
  0
LINE
  5
186
  8
LAYER1
 62
    18
 10
53.14861288912927
 20
136.7892564311952
 30
0.0
 11
53.14861288912927
 21
128.7892564311952
 31
0.0
  0
LINE
  5
187
  8
LAYER1
 62
    18
 10
41.73861288912923
 20
136.7892564311952
 30
0.0
 11
53.14861288912927
 21
136.7892564311952
 31
0.0
  0
LINE
  5
188
  8
LAYER1
 62
    18
 10
55.18861288912923
 20
128.7892564311952
 30
0.0
 11
55.18861288912923
 21
136.7892564311952
 31
0.0
  0
LINE
  5
189
  8
LAYER1
 62
    18
 10
55.18861288912923
 20
136.7892564311952
 30
0.0
 11
66.59861288912919
 21
136.7892564311952
 31
0.0
  0
LINE
  5
18A
  8
LAYER1
 62
    18
 10
66.59861288912919
 20
136.7892564311952
 30
0.0
 11
66.59861288912919
 21
128.7892564311952
 31
0.0
  0
LINE
  5
18B
  8
LAYER1
 62
    18
 10
80.04861288912919
 20
128.7892564311952
 30
0.0
 11
82.08861288912925
 21
128.7892564311952
 31
0.0
  0
LINE
  5
18C
  8
LAYER1
 62
    18
 10
93.4986128891291
 20
128.7892564311952
 30
0.0
 11
95.53861288912917
 21
128.7892564311952
 31
0.0
  0
LINE
  5
18D
  8
LAYER1
 62
    18
 10
68.63861288912915
 20
128.7892564311952
 30
0.0
 11
68.63861288912915
 21
136.7892564311952
 31
0.0
  0
LINE
  5
18E
  8
LAYER1
 62
    18
 10
80.04861288912919
 20
136.7892564311952
 30
0.0
 11
80.04861288912919
 21
128.7892564311952
 31
0.0
  0
LINE
  5
18F
  8
LAYER1
 62
    18
 10
68.63861288912915
 20
136.7892564311952
 30
0.0
 11
80.04861288912919
 21
136.7892564311952
 31
0.0
  0
LINE
  5
190
  8
LAYER1
 62
    18
 10
82.08861288912925
 20
128.7892564311952
 30
0.0
 11
82.08861288912925
 21
136.7892564311952
 31
0.0
  0
LINE
  5
191
  8
LAYER1
 62
    18
 10
82.08861288912925
 20
136.7892564311952
 30
0.0
 11
93.4986128891291
 21
136.7892564311952
 31
0.0
  0
LINE
  5
192
  8
LAYER1
 62
    18
 10
93.4986128891291
 20
136.7892564311952
 30
0.0
 11
93.4986128891291
 21
128.7892564311952
 31
0.0
  0
LINE
  5
193
  8
LAYER1
 62
    18
 10
106.9486128891293
 20
128.7892564311952
 30
0.0
 11
108.9886128891292
 21
128.7892564311952
 31
0.0
  0
LINE
  5
194
  8
LAYER1
 62
    18
 10
120.3986128891291
 20
128.7892564311952
 30
0.0
 11
122.4386128891291
 21
128.7892564311952
 31
0.0
  0
LINE
  5
195
  8
LAYER1
 62
    18
 10
95.53861288912917
 20
128.7892564311952
 30
0.0
 11
95.53861288912917
 21
136.7892564311952
 31
0.0
  0
LINE
  5
196
  8
LAYER1
 62
    18
 10
106.9486128891293
 20
136.7892564311952
 30
0.0
 11
106.9486128891293
 21
128.7892564311952
 31
0.0
  0
LINE
  5
197
  8
LAYER1
 62
    18
 10
95.53861288912917
 20
136.7892564311952
 30
0.0
 11
106.9486128891293
 21
136.7892564311952
 31
0.0
  0
LINE
  5
198
  8
LAYER1
 62
    18
 10
108.9886128891292
 20
128.7892564311952
 30
0.0
 11
108.9886128891292
 21
136.7892564311952
 31
0.0
  0
LINE
  5
199
  8
LAYER1
 62
    18
 10
108.9886128891292
 20
136.7892564311952
 30
0.0
 11
120.3986128891291
 21
136.7892564311952
 31
0.0
  0
LINE
  5
19A
  8
LAYER1
 62
    18
 10
120.3986128891291
 20
136.7892564311952
 30
0.0
 11
120.3986128891291
 21
128.7892564311952
 31
0.0
  0
LINE
  5
19B
  8
LAYER1
 62
    18
 10
133.8486128891292
 20
128.7892564311952
 30
0.0
 11
135.8886128891291
 21
128.7892564311952
 31
0.0
  0
LINE
  5
19C
  8
LAYER1
 62
    18
 10
147.2986128891291
 20
128.7892564311952
 30
0.0
 11
149.3386128891291
 21
128.7892564311952
 31
0.0
  0
LINE
  5
19D
  8
LAYER1
 62
    18
 10
122.4386128891291
 20
128.7892564311952
 30
0.0
 11
122.4386128891291
 21
136.7892564311952
 31
0.0
  0
LINE
  5
19E
  8
LAYER1
 62
    18
 10
133.8486128891292
 20
136.7892564311952
 30
0.0
 11
133.8486128891292
 21
128.7892564311952
 31
0.0
  0
LINE
  5
19F
  8
LAYER1
 62
    18
 10
122.4386128891291
 20
136.7892564311952
 30
0.0
 11
133.8486128891292
 21
136.7892564311952
 31
0.0
  0
LINE
  5
1A0
  8
LAYER1
 62
    18
 10
135.8886128891291
 20
128.7892564311952
 30
0.0
 11
135.8886128891291
 21
136.7892564311952
 31
0.0
  0
LINE
  5
1A1
  8
LAYER1
 62
    18
 10
135.8886128891291
 20
136.7892564311952
 30
0.0
 11
147.2986128891291
 21
136.7892564311952
 31
0.0
  0
LINE
  5
1A2
  8
LAYER1
 62
    18
 10
147.2986128891291
 20
136.7892564311952
 30
0.0
 11
147.2986128891291
 21
128.7892564311952
 31
0.0
  0
LINE
  5
1A3
  8
LAYER1
 62
    18
 10
160.7486128891291
 20
128.7892564311952
 30
0.0
 11
162.7886128891291
 21
128.7892564311952
 31
0.0
  0
LINE
  5
1A4
  8
LAYER1
 62
    18
 10
174.198612889129
 20
128.7892564311952
 30
0.0
 11
176.2386128891291
 21
128.7892564311952
 31
0.0
  0
LINE
  5
1A5
  8
LAYER1
 62
    18
 10
149.3386128891291
 20
128.7892564311952
 30
0.0
 11
149.3386128891291
 21
136.7892564311952
 31
0.0
  0
LINE
  5
1A6
  8
LAYER1
 62
    18
 10
160.7486128891291
 20
136.7892564311952
 30
0.0
 11
160.7486128891291
 21
128.7892564311952
 31
0.0
  0
LINE
  5
1A7
  8
LAYER1
 62
    18
 10
149.3386128891291
 20
136.7892564311952
 30
0.0
 11
160.7486128891291
 21
136.7892564311952
 31
0.0
  0
LINE
  5
1A8
  8
LAYER1
 62
    18
 10
162.7886128891291
 20
128.7892564311952
 30
0.0
 11
162.7886128891291
 21
136.7892564311952
 31
0.0
  0
LINE
  5
1A9
  8
LAYER1
 62
    18
 10
162.7886128891291
 20
136.7892564311952
 30
0.0
 11
174.198612889129
 21
136.7892564311952
 31
0.0
  0
LINE
  5
1AA
  8
LAYER1
 62
    18
 10
174.198612889129
 20
136.7892564311952
 30
0.0
 11
174.198612889129
 21
128.7892564311952
 31
0.0
  0
LINE
  5
1AB
  8
LAYER1
 62
    18
 10
187.6486128891291
 20
128.7892564311952
 30
0.0
 11
189.6886128891291
 21
128.7892564311952
 31
0.0
  0
LINE
  5
1AC
  8
LAYER1
 62
    18
 10
201.098612889129
 20
128.7892564311952
 30
0.0
 11
203.1386128891291
 21
128.7892564311952
 31
0.0
  0
LINE
  5
1AD
  8
LAYER1
 62
    18
 10
176.2386128891291
 20
128.7892564311952
 30
0.0
 11
176.2386128891291
 21
136.7892564311952
 31
0.0
  0
LINE
  5
1AE
  8
LAYER1
 62
    18
 10
187.6486128891291
 20
136.7892564311952
 30
0.0
 11
187.6486128891291
 21
128.7892564311952
 31
0.0
  0
LINE
  5
1AF
  8
LAYER1
 62
    18
 10
176.2386128891291
 20
136.7892564311952
 30
0.0
 11
187.6486128891291
 21
136.7892564311952
 31
0.0
  0
LINE
  5
1B0
  8
LAYER1
 62
    18
 10
189.6886128891291
 20
128.7892564311952
 30
0.0
 11
189.6886128891291
 21
136.7892564311952
 31
0.0
  0
LINE
  5
1B1
  8
LAYER1
 62
    18
 10
189.6886128891291
 20
136.7892564311952
 30
0.0
 11
201.098612889129
 21
136.7892564311952
 31
0.0
  0
LINE
  5
1B2
  8
LAYER1
 62
    18
 10
201.098612889129
 20
136.7892564311952
 30
0.0
 11
201.098612889129
 21
128.7892564311952
 31
0.0
  0
LINE
  5
1B3
  8
LAYER1
 62
    18
 10
214.5486128891291
 20
128.7892564311952
 30
0.0
 11
216.5886128891291
 21
128.7892564311952
 31
0.0
  0
LINE
  5
1B4
  8
LAYER1
 62
    18
 10
227.998612889129
 20
128.7892564311952
 30
0.0
 11
230.038612889129
 21
128.7892564311952
 31
0.0
  0
LINE
  5
1B5
  8
LAYER1
 62
    18
 10
203.1386128891291
 20
128.7892564311952
 30
0.0
 11
203.1386128891291
 21
136.7892564311952
 31
0.0
  0
LINE
  5
1B6
  8
LAYER1
 62
    18
 10
214.5486128891291
 20
136.7892564311952
 30
0.0
 11
214.5486128891291
 21
128.7892564311952
 31
0.0
  0
LINE
  5
1B7
  8
LAYER1
 62
    18
 10
203.1386128891291
 20
136.7892564311952
 30
0.0
 11
214.5486128891291
 21
136.7892564311952
 31
0.0
  0
LINE
  5
1B8
  8
LAYER1
 62
    18
 10
216.5886128891291
 20
128.7892564311952
 30
0.0
 11
216.5886128891291
 21
136.7892564311952
 31
0.0
  0
LINE
  5
1B9
  8
LAYER1
 62
    18
 10
216.5886128891291
 20
136.7892564311952
 30
0.0
 11
227.998612889129
 21
136.7892564311952
 31
0.0
  0
LINE
  5
1BA
  8
LAYER1
 62
    18
 10
227.998612889129
 20
136.7892564311952
 30
0.0
 11
227.998612889129
 21
128.7892564311952
 31
0.0
  0
LINE
  5
1BB
  8
LAYER1
 62
    18
 10
241.448612889129
 20
128.7892564311952
 30
0.0
 11
243.4886128891291
 21
128.7892564311952
 31
0.0
  0
LINE
  5
1BC
  8
LAYER1
 62
    18
 10
254.8986128891289
 20
128.7892564311952
 30
0.0
 11
256.938612889129
 21
128.7892564311952
 31
0.0
  0
LINE
  5
1BD
  8
LAYER1
 62
    18
 10
230.038612889129
 20
128.7892564311952
 30
0.0
 11
230.038612889129
 21
136.7892564311952
 31
0.0
  0
LINE
  5
1BE
  8
LAYER1
 62
    18
 10
241.448612889129
 20
136.7892564311952
 30
0.0
 11
241.448612889129
 21
128.7892564311952
 31
0.0
  0
LINE
  5
1BF
  8
LAYER1
 62
    18
 10
230.038612889129
 20
136.7892564311952
 30
0.0
 11
241.448612889129
 21
136.7892564311952
 31
0.0
  0
LINE
  5
1C0
  8
LAYER1
 62
    18
 10
243.4886128891291
 20
128.7892564311952
 30
0.0
 11
243.4886128891291
 21
136.7892564311952
 31
0.0
  0
LINE
  5
1C1
  8
LAYER1
 62
    18
 10
243.4886128891291
 20
136.7892564311952
 30
0.0
 11
254.8986128891289
 21
136.7892564311952
 31
0.0
  0
LINE
  5
1C2
  8
LAYER1
 62
    18
 10
254.8986128891289
 20
136.7892564311952
 30
0.0
 11
254.8986128891289
 21
128.7892564311952
 31
0.0
  0
LINE
  5
1C3
  8
LAYER1
 62
    18
 10
268.3486128891291
 20
128.7892564311952
 30
0.0
 11
270.388612889129
 21
128.7892564311952
 31
0.0
  0
LINE
  5
1C4
  8
LAYER1
 62
    18
 10
256.938612889129
 20
128.7892564311952
 30
0.0
 11
256.938612889129
 21
136.7892564311952
 31
0.0
  0
LINE
  5
1C5
  8
LAYER1
 62
    18
 10
268.3486128891291
 20
136.7892564311952
 30
0.0
 11
268.3486128891291
 21
128.7892564311952
 31
0.0
  0
LINE
  5
1C6
  8
LAYER1
 62
    18
 10
256.938612889129
 20
136.7892564311952
 30
0.0
 11
268.3486128891291
 21
136.7892564311952
 31
0.0
  0
LINE
  5
1C7
  8
LAYER1
 62
    18
 10
270.388612889129
 20
128.7892564311952
 30
0.0
 11
270.388612889129
 21
136.7892564311952
 31
0.0
  0
LINE
  5
1C8
  8
LAYER1
 62
    18
 10
270.388612889129
 20
136.7892564311952
 30
0.0
 11
281.7986128891289
 21
136.7892564311952
 31
0.0
  0
LINE
  5
1C9
  8
LAYER1
 62
    18
 10
281.7986128891289
 20
136.7892564311952
 30
0.0
 11
281.7986128891289
 21
128.7892564311952
 31
0.0
  0
LINE
  5
1CA
  8
LAYER1
 62
    18
 10
12.79861288912924
 20
120.7892564311952
 30
0.0
 11
12.79861288912924
 21
128.7892564311952
 31
0.0
  0
LINE
  5
1CB
  8
LAYER1
 62
    18
 10
281.7986128891289
 20
128.7892564311952
 30
0.0
 11
282.8186128891289
 21
128.7892564311952
 31
0.0
  0
LINE
  5
1CC
  8
LAYER1
 62
    18
 10
12.79861288912924
 20
120.7892564311952
 30
0.0
 11
282.8186128891289
 21
120.7892564311952
 31
0.0
  0
LINE
  5
1CD
  8
LAYER1
 62
    18
 10
282.8186128891289
 20
120.7892564311952
 30
0.0
 11
282.8186128891289
 21
128.7892564311952
 31
0.0
  0
LINE
  5
1CE
  8
LAYER1
 62
    18
 10
12.79861288912924
 20
110.4564030316953
 30
0.0
 11
14.8386128891293
 21
110.4564030316953
 31
0.0
  0
LINE
  5
1CF
  8
LAYER1
 62
    18
 10
26.24861288912934
 20
110.4564030316953
 30
0.0
 11
28.28861288912931
 21
110.4564030316953
 31
0.0
  0
LINE
  5
1D0
  8
LAYER1
 62
    18
 10
39.69861288912926
 20
110.4564030316953
 30
0.0
 11
41.73861288912923
 21
110.4564030316953
 31
0.0
  0
LINE
  5
1D1
  8
LAYER1
 62
    18
 10
14.8386128891293
 20
110.4564030316953
 30
0.0
 11
14.8386128891293
 21
118.4564030316953
 31
0.0
  0
LINE
  5
1D2
  8
LAYER1
 62
    18
 10
26.24861288912934
 20
118.4564030316953
 30
0.0
 11
26.24861288912934
 21
110.4564030316953
 31
0.0
  0
LINE
  5
1D3
  8
LAYER1
 62
    18
 10
14.8386128891293
 20
118.4564030316953
 30
0.0
 11
26.24861288912934
 21
118.4564030316953
 31
0.0
  0
LINE
  5
1D4
  8
LAYER1
 62
    18
 10
28.28861288912931
 20
110.4564030316953
 30
0.0
 11
28.28861288912931
 21
118.4564030316953
 31
0.0
  0
LINE
  5
1D5
  8
LAYER1
 62
    18
 10
28.28861288912931
 20
118.4564030316953
 30
0.0
 11
39.69861288912926
 21
118.4564030316953
 31
0.0
  0
LINE
  5
1D6
  8
LAYER1
 62
    18
 10
39.69861288912926
 20
118.4564030316953
 30
0.0
 11
39.69861288912926
 21
110.4564030316953
 31
0.0
  0
LINE
  5
1D7
  8
LAYER1
 62
    18
 10
53.14861288912927
 20
110.4564030316953
 30
0.0
 11
55.18861288912932
 21
110.4564030316953
 31
0.0
  0
LINE
  5
1D8
  8
LAYER1
 62
    18
 10
66.59861288912919
 20
110.4564030316953
 30
0.0
 11
68.63861288912925
 21
110.4564030316953
 31
0.0
  0
LINE
  5
1D9
  8
LAYER1
 62
    18
 10
41.73861288912923
 20
110.4564030316953
 30
0.0
 11
41.73861288912923
 21
118.4564030316953
 31
0.0
  0
LINE
  5
1DA
  8
LAYER1
 62
    18
 10
53.14861288912927
 20
118.4564030316953
 30
0.0
 11
53.14861288912927
 21
110.4564030316953
 31
0.0
  0
LINE
  5
1DB
  8
LAYER1
 62
    18
 10
41.73861288912923
 20
118.4564030316953
 30
0.0
 11
53.14861288912927
 21
118.4564030316953
 31
0.0
  0
LINE
  5
1DC
  8
LAYER1
 62
    18
 10
55.18861288912932
 20
110.4564030316953
 30
0.0
 11
55.18861288912932
 21
118.4564030316953
 31
0.0
  0
LINE
  5
1DD
  8
LAYER1
 62
    18
 10
55.18861288912932
 20
118.4564030316953
 30
0.0
 11
66.59861288912919
 21
118.4564030316953
 31
0.0
  0
LINE
  5
1DE
  8
LAYER1
 62
    18
 10
66.59861288912919
 20
118.4564030316953
 30
0.0
 11
66.59861288912919
 21
110.4564030316953
 31
0.0
  0
LINE
  5
1DF
  8
LAYER1
 62
    18
 10
80.04861288912929
 20
110.4564030316953
 30
0.0
 11
82.08861288912925
 21
110.4564030316953
 31
0.0
  0
LINE
  5
1E0
  8
LAYER1
 62
    18
 10
93.4986128891292
 20
110.4564030316953
 30
0.0
 11
95.53861288912917
 21
110.4564030316953
 31
0.0
  0
LINE
  5
1E1
  8
LAYER1
 62
    18
 10
68.63861288912925
 20
110.4564030316953
 30
0.0
 11
68.63861288912925
 21
118.4564030316953
 31
0.0
  0
LINE
  5
1E2
  8
LAYER1
 62
    18
 10
80.04861288912929
 20
118.4564030316953
 30
0.0
 11
80.04861288912929
 21
110.4564030316953
 31
0.0
  0
LINE
  5
1E3
  8
LAYER1
 62
    18
 10
68.63861288912925
 20
118.4564030316953
 30
0.0
 11
80.04861288912929
 21
118.4564030316953
 31
0.0
  0
LINE
  5
1E4
  8
LAYER1
 62
    18
 10
82.08861288912925
 20
110.4564030316953
 30
0.0
 11
82.08861288912925
 21
118.4564030316953
 31
0.0
  0
LINE
  5
1E5
  8
LAYER1
 62
    18
 10
82.08861288912925
 20
118.4564030316953
 30
0.0
 11
93.4986128891292
 21
118.4564030316953
 31
0.0
  0
LINE
  5
1E6
  8
LAYER1
 62
    18
 10
93.4986128891292
 20
118.4564030316953
 30
0.0
 11
93.4986128891292
 21
110.4564030316953
 31
0.0
  0
LINE
  5
1E7
  8
LAYER1
 62
    18
 10
106.9486128891292
 20
110.4564030316953
 30
0.0
 11
108.9886128891293
 21
110.4564030316953
 31
0.0
  0
LINE
  5
1E8
  8
LAYER1
 62
    18
 10
120.3986128891291
 20
110.4564030316953
 30
0.0
 11
122.4386128891291
 21
110.4564030316953
 31
0.0
  0
LINE
  5
1E9
  8
LAYER1
 62
    18
 10
95.53861288912917
 20
110.4564030316953
 30
0.0
 11
95.53861288912917
 21
118.4564030316953
 31
0.0
  0
LINE
  5
1EA
  8
LAYER1
 62
    18
 10
106.9486128891292
 20
118.4564030316953
 30
0.0
 11
106.9486128891292
 21
110.4564030316953
 31
0.0
  0
LINE
  5
1EB
  8
LAYER1
 62
    18
 10
95.53861288912917
 20
118.4564030316953
 30
0.0
 11
106.9486128891292
 21
118.4564030316953
 31
0.0
  0
LINE
  5
1EC
  8
LAYER1
 62
    18
 10
108.9886128891293
 20
110.4564030316953
 30
0.0
 11
108.9886128891293
 21
118.4564030316953
 31
0.0
  0
LINE
  5
1ED
  8
LAYER1
 62
    18
 10
108.9886128891293
 20
118.4564030316953
 30
0.0
 11
120.3986128891291
 21
118.4564030316953
 31
0.0
  0
LINE
  5
1EE
  8
LAYER1
 62
    18
 10
120.3986128891291
 20
118.4564030316953
 30
0.0
 11
120.3986128891291
 21
110.4564030316953
 31
0.0
  0
LINE
  5
1EF
  8
LAYER1
 62
    18
 10
133.8486128891291
 20
110.4564030316953
 30
0.0
 11
135.8886128891291
 21
110.4564030316953
 31
0.0
  0
LINE
  5
1F0
  8
LAYER1
 62
    18
 10
147.2986128891291
 20
110.4564030316953
 30
0.0
 11
149.3386128891291
 21
110.4564030316953
 31
0.0
  0
LINE
  5
1F1
  8
LAYER1
 62
    18
 10
122.4386128891291
 20
110.4564030316953
 30
0.0
 11
122.4386128891291
 21
118.4564030316953
 31
0.0
  0
LINE
  5
1F2
  8
LAYER1
 62
    18
 10
133.8486128891291
 20
118.4564030316953
 30
0.0
 11
133.8486128891291
 21
110.4564030316953
 31
0.0
  0
LINE
  5
1F3
  8
LAYER1
 62
    18
 10
122.4386128891291
 20
118.4564030316953
 30
0.0
 11
133.8486128891291
 21
118.4564030316953
 31
0.0
  0
LINE
  5
1F4
  8
LAYER1
 62
    18
 10
135.8886128891291
 20
110.4564030316953
 30
0.0
 11
135.8886128891291
 21
118.4564030316953
 31
0.0
  0
LINE
  5
1F5
  8
LAYER1
 62
    18
 10
135.8886128891291
 20
118.4564030316953
 30
0.0
 11
147.2986128891291
 21
118.4564030316953
 31
0.0
  0
LINE
  5
1F6
  8
LAYER1
 62
    18
 10
147.2986128891291
 20
118.4564030316953
 30
0.0
 11
147.2986128891291
 21
110.4564030316953
 31
0.0
  0
LINE
  5
1F7
  8
LAYER1
 62
    18
 10
160.7486128891291
 20
110.4564030316953
 30
0.0
 11
162.7886128891291
 21
110.4564030316953
 31
0.0
  0
LINE
  5
1F8
  8
LAYER1
 62
    18
 10
174.198612889129
 20
110.4564030316953
 30
0.0
 11
176.2386128891291
 21
110.4564030316953
 31
0.0
  0
LINE
  5
1F9
  8
LAYER1
 62
    18
 10
149.3386128891291
 20
110.4564030316953
 30
0.0
 11
149.3386128891291
 21
118.4564030316953
 31
0.0
  0
LINE
  5
1FA
  8
LAYER1
 62
    18
 10
160.7486128891291
 20
118.4564030316953
 30
0.0
 11
160.7486128891291
 21
110.4564030316953
 31
0.0
  0
LINE
  5
1FB
  8
LAYER1
 62
    18
 10
149.3386128891291
 20
118.4564030316953
 30
0.0
 11
160.7486128891291
 21
118.4564030316953
 31
0.0
  0
LINE
  5
1FC
  8
LAYER1
 62
    18
 10
162.7886128891291
 20
110.4564030316953
 30
0.0
 11
162.7886128891291
 21
118.4564030316953
 31
0.0
  0
LINE
  5
1FD
  8
LAYER1
 62
    18
 10
162.7886128891291
 20
118.4564030316953
 30
0.0
 11
174.198612889129
 21
118.4564030316953
 31
0.0
  0
LINE
  5
1FE
  8
LAYER1
 62
    18
 10
174.198612889129
 20
118.4564030316953
 30
0.0
 11
174.198612889129
 21
110.4564030316953
 31
0.0
  0
LINE
  5
1FF
  8
LAYER1
 62
    18
 10
187.6486128891291
 20
110.4564030316953
 30
0.0
 11
189.6886128891291
 21
110.4564030316953
 31
0.0
  0
LINE
  5
200
  8
LAYER1
 62
    18
 10
201.098612889129
 20
110.4564030316953
 30
0.0
 11
203.138612889129
 21
110.4564030316953
 31
0.0
  0
LINE
  5
201
  8
LAYER1
 62
    18
 10
176.2386128891291
 20
110.4564030316953
 30
0.0
 11
176.2386128891291
 21
118.4564030316953
 31
0.0
  0
LINE
  5
202
  8
LAYER1
 62
    18
 10
187.6486128891291
 20
118.4564030316953
 30
0.0
 11
187.6486128891291
 21
110.4564030316953
 31
0.0
  0
LINE
  5
203
  8
LAYER1
 62
    18
 10
176.2386128891291
 20
118.4564030316953
 30
0.0
 11
187.6486128891291
 21
118.4564030316953
 31
0.0
  0
LINE
  5
204
  8
LAYER1
 62
    18
 10
189.6886128891291
 20
110.4564030316953
 30
0.0
 11
189.6886128891291
 21
118.4564030316953
 31
0.0
  0
LINE
  5
205
  8
LAYER1
 62
    18
 10
189.6886128891291
 20
118.4564030316953
 30
0.0
 11
201.098612889129
 21
118.4564030316953
 31
0.0
  0
LINE
  5
206
  8
LAYER1
 62
    18
 10
201.098612889129
 20
118.4564030316953
 30
0.0
 11
201.098612889129
 21
110.4564030316953
 31
0.0
  0
LINE
  5
207
  8
LAYER1
 62
    18
 10
214.5486128891291
 20
110.4564030316953
 30
0.0
 11
216.5886128891291
 21
110.4564030316953
 31
0.0
  0
LINE
  5
208
  8
LAYER1
 62
    18
 10
227.998612889129
 20
110.4564030316953
 30
0.0
 11
230.038612889129
 21
110.4564030316953
 31
0.0
  0
LINE
  5
209
  8
LAYER1
 62
    18
 10
203.138612889129
 20
110.4564030316953
 30
0.0
 11
203.138612889129
 21
118.4564030316953
 31
0.0
  0
LINE
  5
20A
  8
LAYER1
 62
    18
 10
214.5486128891291
 20
118.4564030316953
 30
0.0
 11
214.5486128891291
 21
110.4564030316953
 31
0.0
  0
LINE
  5
20B
  8
LAYER1
 62
    18
 10
203.138612889129
 20
118.4564030316953
 30
0.0
 11
214.5486128891291
 21
118.4564030316953
 31
0.0
  0
LINE
  5
20C
  8
LAYER1
 62
    18
 10
216.5886128891291
 20
110.4564030316953
 30
0.0
 11
216.5886128891291
 21
118.4564030316953
 31
0.0
  0
LINE
  5
20D
  8
LAYER1
 62
    18
 10
216.5886128891291
 20
118.4564030316953
 30
0.0
 11
227.998612889129
 21
118.4564030316953
 31
0.0
  0
LINE
  5
20E
  8
LAYER1
 62
    18
 10
227.998612889129
 20
118.4564030316953
 30
0.0
 11
227.998612889129
 21
110.4564030316953
 31
0.0
  0
LINE
  5
20F
  8
LAYER1
 62
    18
 10
241.448612889129
 20
110.4564030316953
 30
0.0
 11
243.4886128891291
 21
110.4564030316953
 31
0.0
  0
LINE
  5
210
  8
LAYER1
 62
    18
 10
254.8986128891289
 20
110.4564030316953
 30
0.0
 11
256.938612889129
 21
110.4564030316953
 31
0.0
  0
LINE
  5
211
  8
LAYER1
 62
    18
 10
230.038612889129
 20
110.4564030316953
 30
0.0
 11
230.038612889129
 21
118.4564030316953
 31
0.0
  0
LINE
  5
212
  8
LAYER1
 62
    18
 10
241.448612889129
 20
118.4564030316953
 30
0.0
 11
241.448612889129
 21
110.4564030316953
 31
0.0
  0
LINE
  5
213
  8
LAYER1
 62
    18
 10
230.038612889129
 20
118.4564030316953
 30
0.0
 11
241.448612889129
 21
118.4564030316953
 31
0.0
  0
LINE
  5
214
  8
LAYER1
 62
    18
 10
243.4886128891291
 20
110.4564030316953
 30
0.0
 11
243.4886128891291
 21
118.4564030316953
 31
0.0
  0
LINE
  5
215
  8
LAYER1
 62
    18
 10
243.4886128891291
 20
118.4564030316953
 30
0.0
 11
254.8986128891289
 21
118.4564030316953
 31
0.0
  0
LINE
  5
216
  8
LAYER1
 62
    18
 10
254.8986128891289
 20
118.4564030316953
 30
0.0
 11
254.8986128891289
 21
110.4564030316953
 31
0.0
  0
LINE
  5
217
  8
LAYER1
 62
    18
 10
268.3486128891291
 20
110.4564030316953
 30
0.0
 11
270.388612889129
 21
110.4564030316953
 31
0.0
  0
LINE
  5
218
  8
LAYER1
 62
    18
 10
256.938612889129
 20
110.4564030316953
 30
0.0
 11
256.938612889129
 21
118.4564030316953
 31
0.0
  0
LINE
  5
219
  8
LAYER1
 62
    18
 10
268.3486128891291
 20
118.4564030316953
 30
0.0
 11
268.3486128891291
 21
110.4564030316953
 31
0.0
  0
LINE
  5
21A
  8
LAYER1
 62
    18
 10
256.938612889129
 20
118.4564030316953
 30
0.0
 11
268.3486128891291
 21
118.4564030316953
 31
0.0
  0
LINE
  5
21B
  8
LAYER1
 62
    18
 10
270.388612889129
 20
110.4564030316953
 30
0.0
 11
270.388612889129
 21
118.4564030316953
 31
0.0
  0
LINE
  5
21C
  8
LAYER1
 62
    18
 10
270.388612889129
 20
118.4564030316953
 30
0.0
 11
281.7986128891289
 21
118.4564030316953
 31
0.0
  0
LINE
  5
21D
  8
LAYER1
 62
    18
 10
281.7986128891289
 20
118.4564030316953
 30
0.0
 11
281.7986128891289
 21
110.4564030316953
 31
0.0
  0
LINE
  5
21E
  8
LAYER1
 62
    18
 10
12.79861288912924
 20
102.4564030316953
 30
0.0
 11
12.79861288912924
 21
110.4564030316953
 31
0.0
  0
LINE
  5
21F
  8
LAYER1
 62
    18
 10
281.7986128891289
 20
110.4564030316953
 30
0.0
 11
282.8186128891289
 21
110.4564030316953
 31
0.0
  0
LINE
  5
220
  8
LAYER1
 62
    18
 10
12.79861288912924
 20
102.4564030316953
 30
0.0
 11
282.8186128891289
 21
102.4564030316953
 31
0.0
  0
LINE
  5
221
  8
LAYER1
 62
    18
 10
282.8186128891289
 20
102.4564030316953
 30
0.0
 11
282.8186128891289
 21
110.4564030316953
 31
0.0
  0
LINE
  5
222
  8
LAYER1
 62
    18
 10
12.79861288912924
 20
91.16141471333884
 30
0.0
 11
14.83861288912921
 21
91.16141471333884
 31
0.0
  0
LINE
  5
223
  8
LAYER1
 62
    18
 10
26.24861288912925
 20
91.16141471333884
 30
0.0
 11
28.28861288912931
 21
91.16141471333884
 31
0.0
  0
LINE
  5
224
  8
LAYER1
 62
    18
 10
39.69861288912917
 20
91.16141471333884
 30
0.0
 11
41.73861288912923
 21
91.16141471333884
 31
0.0
  0
LINE
  5
225
  8
LAYER1
 62
    18
 10
14.83861288912921
 20
91.16141471333884
 30
0.0
 11
14.83861288912921
 21
99.16141471333889
 31
0.0
  0
LINE
  5
226
  8
LAYER1
 62
    18
 10
26.24861288912925
 20
99.16141471333889
 30
0.0
 11
26.24861288912925
 21
91.16141471333884
 31
0.0
  0
LINE
  5
227
  8
LAYER1
 62
    18
 10
14.83861288912921
 20
99.16141471333889
 30
0.0
 11
26.24861288912925
 21
99.16141471333889
 31
0.0
  0
LINE
  5
228
  8
LAYER1
 62
    18
 10
28.28861288912931
 20
91.16141471333884
 30
0.0
 11
28.28861288912931
 21
99.16141471333889
 31
0.0
  0
LINE
  5
229
  8
LAYER1
 62
    18
 10
28.28861288912931
 20
99.16141471333889
 30
0.0
 11
39.69861288912917
 21
99.16141471333889
 31
0.0
  0
LINE
  5
22A
  8
LAYER1
 62
    18
 10
39.69861288912917
 20
99.16141471333889
 30
0.0
 11
39.69861288912917
 21
91.16141471333884
 31
0.0
  0
LINE
  5
22B
  8
LAYER1
 62
    18
 10
53.14861288912927
 20
91.16141471333884
 30
0.0
 11
55.18861288912923
 21
91.16141471333884
 31
0.0
  0
LINE
  5
22C
  8
LAYER1
 62
    18
 10
66.59861288912919
 20
91.16141471333884
 30
0.0
 11
68.63861288912915
 21
91.16141471333884
 31
0.0
  0
LINE
  5
22D
  8
LAYER1
 62
    18
 10
41.73861288912923
 20
91.16141471333884
 30
0.0
 11
41.73861288912923
 21
99.16141471333889
 31
0.0
  0
LINE
  5
22E
  8
LAYER1
 62
    18
 10
53.14861288912927
 20
99.16141471333889
 30
0.0
 11
53.14861288912927
 21
91.16141471333884
 31
0.0
  0
LINE
  5
22F
  8
LAYER1
 62
    18
 10
41.73861288912923
 20
99.16141471333889
 30
0.0
 11
53.14861288912927
 21
99.16141471333889
 31
0.0
  0
LINE
  5
230
  8
LAYER1
 62
    18
 10
55.18861288912923
 20
91.16141471333884
 30
0.0
 11
55.18861288912923
 21
99.16141471333889
 31
0.0
  0
LINE
  5
231
  8
LAYER1
 62
    18
 10
55.18861288912923
 20
99.16141471333889
 30
0.0
 11
66.59861288912919
 21
99.16141471333889
 31
0.0
  0
LINE
  5
232
  8
LAYER1
 62
    18
 10
66.59861288912919
 20
99.16141471333889
 30
0.0
 11
66.59861288912919
 21
91.16141471333884
 31
0.0
  0
LINE
  5
233
  8
LAYER1
 62
    18
 10
80.04861288912919
 20
91.16141471333884
 30
0.0
 11
82.08861288912925
 21
91.16141471333884
 31
0.0
  0
LINE
  5
234
  8
LAYER1
 62
    18
 10
93.4986128891291
 20
91.16141471333884
 30
0.0
 11
95.53861288912917
 21
91.16141471333884
 31
0.0
  0
LINE
  5
235
  8
LAYER1
 62
    18
 10
68.63861288912915
 20
91.16141471333884
 30
0.0
 11
68.63861288912915
 21
99.16141471333889
 31
0.0
  0
LINE
  5
236
  8
LAYER1
 62
    18
 10
80.04861288912919
 20
99.16141471333889
 30
0.0
 11
80.04861288912919
 21
91.16141471333884
 31
0.0
  0
LINE
  5
237
  8
LAYER1
 62
    18
 10
68.63861288912915
 20
99.16141471333889
 30
0.0
 11
80.04861288912919
 21
99.16141471333889
 31
0.0
  0
LINE
  5
238
  8
LAYER1
 62
    18
 10
82.08861288912925
 20
91.16141471333884
 30
0.0
 11
82.08861288912925
 21
99.16141471333889
 31
0.0
  0
LINE
  5
239
  8
LAYER1
 62
    18
 10
82.08861288912925
 20
99.16141471333889
 30
0.0
 11
93.4986128891291
 21
99.16141471333889
 31
0.0
  0
LINE
  5
23A
  8
LAYER1
 62
    18
 10
93.4986128891291
 20
99.16141471333889
 30
0.0
 11
93.4986128891291
 21
91.16141471333884
 31
0.0
  0
LINE
  5
23B
  8
LAYER1
 62
    18
 10
106.9486128891292
 20
91.16141471333884
 30
0.0
 11
108.9886128891292
 21
91.16141471333884
 31
0.0
  0
LINE
  5
23C
  8
LAYER1
 62
    18
 10
120.398612889129
 20
91.16141471333884
 30
0.0
 11
122.4386128891291
 21
91.16141471333884
 31
0.0
  0
LINE
  5
23D
  8
LAYER1
 62
    18
 10
95.53861288912917
 20
91.16141471333884
 30
0.0
 11
95.53861288912917
 21
99.16141471333889
 31
0.0
  0
LINE
  5
23E
  8
LAYER1
 62
    18
 10
106.9486128891292
 20
99.16141471333889
 30
0.0
 11
106.9486128891292
 21
91.16141471333884
 31
0.0
  0
LINE
  5
23F
  8
LAYER1
 62
    18
 10
95.53861288912917
 20
99.16141471333889
 30
0.0
 11
106.9486128891292
 21
99.16141471333889
 31
0.0
  0
LINE
  5
240
  8
LAYER1
 62
    18
 10
108.9886128891292
 20
91.16141471333884
 30
0.0
 11
108.9886128891292
 21
99.16141471333889
 31
0.0
  0
LINE
  5
241
  8
LAYER1
 62
    18
 10
108.9886128891292
 20
99.16141471333889
 30
0.0
 11
120.398612889129
 21
99.16141471333889
 31
0.0
  0
LINE
  5
242
  8
LAYER1
 62
    18
 10
120.398612889129
 20
99.16141471333889
 30
0.0
 11
120.398612889129
 21
91.16141471333884
 31
0.0
  0
LINE
  5
243
  8
LAYER1
 62
    18
 10
133.8486128891291
 20
91.16141471333884
 30
0.0
 11
135.8886128891291
 21
91.16141471333884
 31
0.0
  0
LINE
  5
244
  8
LAYER1
 62
    18
 10
147.298612889129
 20
91.16141471333884
 30
0.0
 11
149.338612889129
 21
91.16141471333884
 31
0.0
  0
LINE
  5
245
  8
LAYER1
 62
    18
 10
122.4386128891291
 20
91.16141471333884
 30
0.0
 11
122.4386128891291
 21
99.16141471333889
 31
0.0
  0
LINE
  5
246
  8
LAYER1
 62
    18
 10
133.8486128891291
 20
99.16141471333889
 30
0.0
 11
133.8486128891291
 21
91.16141471333884
 31
0.0
  0
LINE
  5
247
  8
LAYER1
 62
    18
 10
122.4386128891291
 20
99.16141471333889
 30
0.0
 11
133.8486128891291
 21
99.16141471333889
 31
0.0
  0
LINE
  5
248
  8
LAYER1
 62
    18
 10
135.8886128891291
 20
91.16141471333884
 30
0.0
 11
135.8886128891291
 21
99.16141471333889
 31
0.0
  0
LINE
  5
249
  8
LAYER1
 62
    18
 10
135.8886128891291
 20
99.16141471333889
 30
0.0
 11
147.298612889129
 21
99.16141471333889
 31
0.0
  0
LINE
  5
24A
  8
LAYER1
 62
    18
 10
147.298612889129
 20
99.16141471333889
 30
0.0
 11
147.298612889129
 21
91.16141471333884
 31
0.0
  0
LINE
  5
24B
  8
LAYER1
 62
    18
 10
160.7486128891291
 20
91.16141471333884
 30
0.0
 11
162.7886128891291
 21
91.16141471333884
 31
0.0
  0
LINE
  5
24C
  8
LAYER1
 62
    18
 10
174.198612889129
 20
91.16141471333884
 30
0.0
 11
176.238612889129
 21
91.16141471333884
 31
0.0
  0
LINE
  5
24D
  8
LAYER1
 62
    18
 10
149.338612889129
 20
91.16141471333884
 30
0.0
 11
149.338612889129
 21
99.16141471333889
 31
0.0
  0
LINE
  5
24E
  8
LAYER1
 62
    18
 10
160.7486128891291
 20
99.16141471333889
 30
0.0
 11
160.7486128891291
 21
91.16141471333884
 31
0.0
  0
LINE
  5
24F
  8
LAYER1
 62
    18
 10
149.338612889129
 20
99.16141471333889
 30
0.0
 11
160.7486128891291
 21
99.16141471333889
 31
0.0
  0
LINE
  5
250
  8
LAYER1
 62
    18
 10
162.7886128891291
 20
91.16141471333884
 30
0.0
 11
162.7886128891291
 21
99.16141471333889
 31
0.0
  0
LINE
  5
251
  8
LAYER1
 62
    18
 10
162.7886128891291
 20
99.16141471333889
 30
0.0
 11
174.198612889129
 21
99.16141471333889
 31
0.0
  0
LINE
  5
252
  8
LAYER1
 62
    18
 10
174.198612889129
 20
99.16141471333889
 30
0.0
 11
174.198612889129
 21
91.16141471333884
 31
0.0
  0
LINE
  5
253
  8
LAYER1
 62
    18
 10
187.6486128891291
 20
91.16141471333884
 30
0.0
 11
189.6886128891291
 21
91.16141471333884
 31
0.0
  0
LINE
  5
254
  8
LAYER1
 62
    18
 10
201.098612889129
 20
91.16141471333884
 30
0.0
 11
203.138612889129
 21
91.16141471333884
 31
0.0
  0
LINE
  5
255
  8
LAYER1
 62
    18
 10
176.238612889129
 20
91.16141471333884
 30
0.0
 11
176.238612889129
 21
99.16141471333889
 31
0.0
  0
LINE
  5
256
  8
LAYER1
 62
    18
 10
187.6486128891291
 20
99.16141471333889
 30
0.0
 11
187.6486128891291
 21
91.16141471333884
 31
0.0
  0
LINE
  5
257
  8
LAYER1
 62
    18
 10
176.238612889129
 20
99.16141471333889
 30
0.0
 11
187.6486128891291
 21
99.16141471333889
 31
0.0
  0
LINE
  5
258
  8
LAYER1
 62
    18
 10
189.6886128891291
 20
91.16141471333884
 30
0.0
 11
189.6886128891291
 21
99.16141471333889
 31
0.0
  0
LINE
  5
259
  8
LAYER1
 62
    18
 10
189.6886128891291
 20
99.16141471333889
 30
0.0
 11
201.098612889129
 21
99.16141471333889
 31
0.0
  0
LINE
  5
25A
  8
LAYER1
 62
    18
 10
201.098612889129
 20
99.16141471333889
 30
0.0
 11
201.098612889129
 21
91.16141471333884
 31
0.0
  0
LINE
  5
25B
  8
LAYER1
 62
    18
 10
214.5486128891291
 20
91.16141471333884
 30
0.0
 11
216.5886128891291
 21
91.16141471333884
 31
0.0
  0
LINE
  5
25C
  8
LAYER1
 62
    18
 10
227.998612889129
 20
91.16141471333884
 30
0.0
 11
230.038612889129
 21
91.16141471333884
 31
0.0
  0
LINE
  5
25D
  8
LAYER1
 62
    18
 10
203.138612889129
 20
91.16141471333884
 30
0.0
 11
203.138612889129
 21
99.16141471333889
 31
0.0
  0
LINE
  5
25E
  8
LAYER1
 62
    18
 10
214.5486128891291
 20
99.16141471333889
 30
0.0
 11
214.5486128891291
 21
91.16141471333884
 31
0.0
  0
LINE
  5
25F
  8
LAYER1
 62
    18
 10
203.138612889129
 20
99.16141471333889
 30
0.0
 11
214.5486128891291
 21
99.16141471333889
 31
0.0
  0
LINE
  5
260
  8
LAYER1
 62
    18
 10
216.5886128891291
 20
91.16141471333884
 30
0.0
 11
216.5886128891291
 21
99.16141471333889
 31
0.0
  0
LINE
  5
261
  8
LAYER1
 62
    18
 10
216.5886128891291
 20
99.16141471333889
 30
0.0
 11
227.998612889129
 21
99.16141471333889
 31
0.0
  0
LINE
  5
262
  8
LAYER1
 62
    18
 10
227.998612889129
 20
99.16141471333889
 30
0.0
 11
227.998612889129
 21
91.16141471333884
 31
0.0
  0
LINE
  5
263
  8
LAYER1
 62
    18
 10
241.448612889129
 20
91.16141471333884
 30
0.0
 11
243.4886128891291
 21
91.16141471333884
 31
0.0
  0
LINE
  5
264
  8
LAYER1
 62
    18
 10
254.8986128891289
 20
91.16141471333884
 30
0.0
 11
256.938612889129
 21
91.16141471333884
 31
0.0
  0
LINE
  5
265
  8
LAYER1
 62
    18
 10
230.038612889129
 20
91.16141471333884
 30
0.0
 11
230.038612889129
 21
99.16141471333889
 31
0.0
  0
LINE
  5
266
  8
LAYER1
 62
    18
 10
241.448612889129
 20
99.16141471333889
 30
0.0
 11
241.448612889129
 21
91.16141471333884
 31
0.0
  0
LINE
  5
267
  8
LAYER1
 62
    18
 10
230.038612889129
 20
99.16141471333889
 30
0.0
 11
241.448612889129
 21
99.16141471333889
 31
0.0
  0
LINE
  5
268
  8
LAYER1
 62
    18
 10
243.4886128891291
 20
91.16141471333884
 30
0.0
 11
243.4886128891291
 21
99.16141471333889
 31
0.0
  0
LINE
  5
269
  8
LAYER1
 62
    18
 10
243.4886128891291
 20
99.16141471333889
 30
0.0
 11
254.8986128891289
 21
99.16141471333889
 31
0.0
  0
LINE
  5
26A
  8
LAYER1
 62
    18
 10
254.8986128891289
 20
99.16141471333889
 30
0.0
 11
254.8986128891289
 21
91.16141471333884
 31
0.0
  0
LINE
  5
26B
  8
LAYER1
 62
    18
 10
268.348612889129
 20
91.16141471333884
 30
0.0
 11
270.388612889129
 21
91.16141471333884
 31
0.0
  0
LINE
  5
26C
  8
LAYER1
 62
    18
 10
256.938612889129
 20
91.16141471333884
 30
0.0
 11
256.938612889129
 21
99.16141471333889
 31
0.0
  0
LINE
  5
26D
  8
LAYER1
 62
    18
 10
268.348612889129
 20
99.16141471333889
 30
0.0
 11
268.348612889129
 21
91.16141471333884
 31
0.0
  0
LINE
  5
26E
  8
LAYER1
 62
    18
 10
256.938612889129
 20
99.16141471333889
 30
0.0
 11
268.348612889129
 21
99.16141471333889
 31
0.0
  0
LINE
  5
26F
  8
LAYER1
 62
    18
 10
270.388612889129
 20
91.16141471333884
 30
0.0
 11
270.388612889129
 21
99.16141471333889
 31
0.0
  0
LINE
  5
270
  8
LAYER1
 62
    18
 10
270.388612889129
 20
99.16141471333889
 30
0.0
 11
281.7986128891289
 21
99.16141471333889
 31
0.0
  0
LINE
  5
271
  8
LAYER1
 62
    18
 10
281.7986128891289
 20
99.16141471333889
 30
0.0
 11
281.7986128891289
 21
91.16141471333884
 31
0.0
  0
LINE
  5
272
  8
LAYER1
 62
    18
 10
12.79861288912924
 20
83.16141471333887
 30
0.0
 11
12.79861288912924
 21
91.16141471333884
 31
0.0
  0
LINE
  5
273
  8
LAYER1
 62
    18
 10
281.7986128891289
 20
91.16141471333884
 30
0.0
 11
282.8186128891289
 21
91.16141471333884
 31
0.0
  0
LINE
  5
274
  8
LAYER1
 62
    18
 10
12.79861288912924
 20
83.16141471333887
 30
0.0
 11
282.8186128891289
 21
83.16141471333887
 31
0.0
  0
LINE
  5
275
  8
LAYER1
 62
    18
 10
282.8186128891289
 20
83.16141471333887
 30
0.0
 11
282.8186128891289
 21
91.16141471333884
 31
0.0
  0
LINE
  5
276
  8
LAYER1
 62
    18
 10
12.79861288912924
 20
72.33629862376215
 30
0.0
 11
14.83861288912921
 21
72.33629862376215
 31
0.0
  0
LINE
  5
277
  8
LAYER1
 62
    18
 10
26.24861288912925
 20
72.33629862376215
 30
0.0
 11
28.28861288912931
 21
72.33629862376215
 31
0.0
  0
LINE
  5
278
  8
LAYER1
 62
    18
 10
39.69861288912917
 20
72.33629862376215
 30
0.0
 11
41.73861288912923
 21
72.33629862376215
 31
0.0
  0
LINE
  5
279
  8
LAYER1
 62
    18
 10
14.83861288912921
 20
72.33629862376215
 30
0.0
 11
14.83861288912921
 21
80.33629862376218
 31
0.0
  0
LINE
  5
27A
  8
LAYER1
 62
    18
 10
26.24861288912925
 20
80.33629862376218
 30
0.0
 11
26.24861288912925
 21
72.33629862376215
 31
0.0
  0
LINE
  5
27B
  8
LAYER1
 62
    18
 10
14.83861288912921
 20
80.33629862376218
 30
0.0
 11
26.24861288912925
 21
80.33629862376218
 31
0.0
  0
LINE
  5
27C
  8
LAYER1
 62
    18
 10
28.28861288912931
 20
72.33629862376215
 30
0.0
 11
28.28861288912931
 21
80.33629862376218
 31
0.0
  0
LINE
  5
27D
  8
LAYER1
 62
    18
 10
28.28861288912931
 20
80.33629862376218
 30
0.0
 11
39.69861288912917
 21
80.33629862376218
 31
0.0
  0
LINE
  5
27E
  8
LAYER1
 62
    18
 10
39.69861288912917
 20
80.33629862376218
 30
0.0
 11
39.69861288912917
 21
72.33629862376215
 31
0.0
  0
LINE
  5
27F
  8
LAYER1
 62
    18
 10
53.14861288912927
 20
72.33629862376215
 30
0.0
 11
55.18861288912923
 21
72.33629862376215
 31
0.0
  0
LINE
  5
280
  8
LAYER1
 62
    18
 10
66.59861288912919
 20
72.33629862376215
 30
0.0
 11
68.63861288912915
 21
72.33629862376215
 31
0.0
  0
LINE
  5
281
  8
LAYER1
 62
    18
 10
41.73861288912923
 20
72.33629862376215
 30
0.0
 11
41.73861288912923
 21
80.33629862376218
 31
0.0
  0
LINE
  5
282
  8
LAYER1
 62
    18
 10
53.14861288912927
 20
80.33629862376218
 30
0.0
 11
53.14861288912927
 21
72.33629862376215
 31
0.0
  0
LINE
  5
283
  8
LAYER1
 62
    18
 10
41.73861288912923
 20
80.33629862376218
 30
0.0
 11
53.14861288912927
 21
80.33629862376218
 31
0.0
  0
LINE
  5
284
  8
LAYER1
 62
    18
 10
55.18861288912923
 20
72.33629862376215
 30
0.0
 11
55.18861288912923
 21
80.33629862376218
 31
0.0
  0
LINE
  5
285
  8
LAYER1
 62
    18
 10
55.18861288912923
 20
80.33629862376218
 30
0.0
 11
66.59861288912919
 21
80.33629862376218
 31
0.0
  0
LINE
  5
286
  8
LAYER1
 62
    18
 10
66.59861288912919
 20
80.33629862376218
 30
0.0
 11
66.59861288912919
 21
72.33629862376215
 31
0.0
  0
LINE
  5
287
  8
LAYER1
 62
    18
 10
80.04861288912919
 20
72.33629862376215
 30
0.0
 11
82.08861288912925
 21
72.33629862376215
 31
0.0
  0
LINE
  5
288
  8
LAYER1
 62
    18
 10
93.4986128891291
 20
72.33629862376215
 30
0.0
 11
95.53861288912917
 21
72.33629862376215
 31
0.0
  0
LINE
  5
289
  8
LAYER1
 62
    18
 10
68.63861288912915
 20
72.33629862376215
 30
0.0
 11
68.63861288912915
 21
80.33629862376218
 31
0.0
  0
LINE
  5
28A
  8
LAYER1
 62
    18
 10
80.04861288912919
 20
80.33629862376218
 30
0.0
 11
80.04861288912919
 21
72.33629862376215
 31
0.0
  0
LINE
  5
28B
  8
LAYER1
 62
    18
 10
68.63861288912915
 20
80.33629862376218
 30
0.0
 11
80.04861288912919
 21
80.33629862376218
 31
0.0
  0
LINE
  5
28C
  8
LAYER1
 62
    18
 10
82.08861288912925
 20
72.33629862376215
 30
0.0
 11
82.08861288912925
 21
80.33629862376218
 31
0.0
  0
LINE
  5
28D
  8
LAYER1
 62
    18
 10
82.08861288912925
 20
80.33629862376218
 30
0.0
 11
93.4986128891291
 21
80.33629862376218
 31
0.0
  0
LINE
  5
28E
  8
LAYER1
 62
    18
 10
93.4986128891291
 20
80.33629862376218
 30
0.0
 11
93.4986128891291
 21
72.33629862376215
 31
0.0
  0
LINE
  5
28F
  8
LAYER1
 62
    18
 10
106.9486128891293
 20
72.33629862376215
 30
0.0
 11
108.9886128891293
 21
72.33629862376215
 31
0.0
  0
LINE
  5
290
  8
LAYER1
 62
    18
 10
120.3986128891291
 20
72.33629862376215
 30
0.0
 11
122.4386128891291
 21
72.33629862376215
 31
0.0
  0
LINE
  5
291
  8
LAYER1
 62
    18
 10
95.53861288912917
 20
72.33629862376215
 30
0.0
 11
95.53861288912917
 21
80.33629862376218
 31
0.0
  0
LINE
  5
292
  8
LAYER1
 62
    18
 10
106.9486128891293
 20
80.33629862376218
 30
0.0
 11
106.9486128891293
 21
72.33629862376215
 31
0.0
  0
LINE
  5
293
  8
LAYER1
 62
    18
 10
95.53861288912917
 20
80.33629862376218
 30
0.0
 11
106.9486128891293
 21
80.33629862376218
 31
0.0
  0
LINE
  5
294
  8
LAYER1
 62
    18
 10
108.9886128891293
 20
72.33629862376215
 30
0.0
 11
108.9886128891293
 21
80.33629862376218
 31
0.0
  0
LINE
  5
295
  8
LAYER1
 62
    18
 10
108.9886128891293
 20
80.33629862376218
 30
0.0
 11
120.3986128891291
 21
80.33629862376218
 31
0.0
  0
LINE
  5
296
  8
LAYER1
 62
    18
 10
120.3986128891291
 20
80.33629862376218
 30
0.0
 11
120.3986128891291
 21
72.33629862376215
 31
0.0
  0
LINE
  5
297
  8
LAYER1
 62
    18
 10
133.8486128891291
 20
72.33629862376215
 30
0.0
 11
135.8886128891291
 21
72.33629862376215
 31
0.0
  0
LINE
  5
298
  8
LAYER1
 62
    18
 10
147.2986128891291
 20
72.33629862376215
 30
0.0
 11
149.3386128891291
 21
72.33629862376215
 31
0.0
  0
LINE
  5
299
  8
LAYER1
 62
    18
 10
122.4386128891291
 20
72.33629862376215
 30
0.0
 11
122.4386128891291
 21
80.33629862376218
 31
0.0
  0
LINE
  5
29A
  8
LAYER1
 62
    18
 10
133.8486128891291
 20
80.33629862376218
 30
0.0
 11
133.8486128891291
 21
72.33629862376215
 31
0.0
  0
LINE
  5
29B
  8
LAYER1
 62
    18
 10
122.4386128891291
 20
80.33629862376218
 30
0.0
 11
133.8486128891291
 21
80.33629862376218
 31
0.0
  0
LINE
  5
29C
  8
LAYER1
 62
    18
 10
135.8886128891291
 20
72.33629862376215
 30
0.0
 11
135.8886128891291
 21
80.33629862376218
 31
0.0
  0
LINE
  5
29D
  8
LAYER1
 62
    18
 10
135.8886128891291
 20
80.33629862376218
 30
0.0
 11
147.2986128891291
 21
80.33629862376218
 31
0.0
  0
LINE
  5
29E
  8
LAYER1
 62
    18
 10
147.2986128891291
 20
80.33629862376218
 30
0.0
 11
147.2986128891291
 21
72.33629862376215
 31
0.0
  0
LINE
  5
29F
  8
LAYER1
 62
    18
 10
160.7486128891291
 20
72.33629862376215
 30
0.0
 11
162.7886128891291
 21
72.33629862376215
 31
0.0
  0
LINE
  5
2A0
  8
LAYER1
 62
    18
 10
174.198612889129
 20
72.33629862376215
 30
0.0
 11
176.2386128891291
 21
72.33629862376215
 31
0.0
  0
LINE
  5
2A1
  8
LAYER1
 62
    18
 10
149.3386128891291
 20
72.33629862376215
 30
0.0
 11
149.3386128891291
 21
80.33629862376218
 31
0.0
  0
LINE
  5
2A2
  8
LAYER1
 62
    18
 10
160.7486128891291
 20
80.33629862376218
 30
0.0
 11
160.7486128891291
 21
72.33629862376215
 31
0.0
  0
LINE
  5
2A3
  8
LAYER1
 62
    18
 10
149.3386128891291
 20
80.33629862376218
 30
0.0
 11
160.7486128891291
 21
80.33629862376218
 31
0.0
  0
LINE
  5
2A4
  8
LAYER1
 62
    18
 10
162.7886128891291
 20
72.33629862376215
 30
0.0
 11
162.7886128891291
 21
80.33629862376218
 31
0.0
  0
LINE
  5
2A5
  8
LAYER1
 62
    18
 10
162.7886128891291
 20
80.33629862376218
 30
0.0
 11
174.198612889129
 21
80.33629862376218
 31
0.0
  0
LINE
  5
2A6
  8
LAYER1
 62
    18
 10
174.198612889129
 20
80.33629862376218
 30
0.0
 11
174.198612889129
 21
72.33629862376215
 31
0.0
  0
LINE
  5
2A7
  8
LAYER1
 62
    18
 10
187.6486128891291
 20
72.33629862376215
 30
0.0
 11
189.6886128891291
 21
72.33629862376215
 31
0.0
  0
LINE
  5
2A8
  8
LAYER1
 62
    18
 10
201.098612889129
 20
72.33629862376215
 30
0.0
 11
203.138612889129
 21
72.33629862376215
 31
0.0
  0
LINE
  5
2A9
  8
LAYER1
 62
    18
 10
176.2386128891291
 20
72.33629862376215
 30
0.0
 11
176.2386128891291
 21
80.33629862376218
 31
0.0
  0
LINE
  5
2AA
  8
LAYER1
 62
    18
 10
187.6486128891291
 20
80.33629862376218
 30
0.0
 11
187.6486128891291
 21
72.33629862376215
 31
0.0
  0
LINE
  5
2AB
  8
LAYER1
 62
    18
 10
176.2386128891291
 20
80.33629862376218
 30
0.0
 11
187.6486128891291
 21
80.33629862376218
 31
0.0
  0
LINE
  5
2AC
  8
LAYER1
 62
    18
 10
189.6886128891291
 20
72.33629862376215
 30
0.0
 11
189.6886128891291
 21
80.33629862376218
 31
0.0
  0
LINE
  5
2AD
  8
LAYER1
 62
    18
 10
189.6886128891291
 20
80.33629862376218
 30
0.0
 11
201.098612889129
 21
80.33629862376218
 31
0.0
  0
LINE
  5
2AE
  8
LAYER1
 62
    18
 10
201.098612889129
 20
80.33629862376218
 30
0.0
 11
201.098612889129
 21
72.33629862376215
 31
0.0
  0
LINE
  5
2AF
  8
LAYER1
 62
    18
 10
214.5486128891291
 20
72.33629862376215
 30
0.0
 11
216.5886128891291
 21
72.33629862376215
 31
0.0
  0
LINE
  5
2B0
  8
LAYER1
 62
    18
 10
227.9986128891289
 20
72.33629862376215
 30
0.0
 11
230.038612889129
 21
72.33629862376215
 31
0.0
  0
LINE
  5
2B1
  8
LAYER1
 62
    18
 10
203.138612889129
 20
72.33629862376215
 30
0.0
 11
203.138612889129
 21
80.33629862376218
 31
0.0
  0
LINE
  5
2B2
  8
LAYER1
 62
    18
 10
214.5486128891291
 20
80.33629862376218
 30
0.0
 11
214.5486128891291
 21
72.33629862376215
 31
0.0
  0
LINE
  5
2B3
  8
LAYER1
 62
    18
 10
203.138612889129
 20
80.33629862376218
 30
0.0
 11
214.5486128891291
 21
80.33629862376218
 31
0.0
  0
LINE
  5
2B4
  8
LAYER1
 62
    18
 10
216.5886128891291
 20
72.33629862376215
 30
0.0
 11
216.5886128891291
 21
80.33629862376218
 31
0.0
  0
LINE
  5
2B5
  8
LAYER1
 62
    18
 10
216.5886128891291
 20
80.33629862376218
 30
0.0
 11
227.9986128891289
 21
80.33629862376218
 31
0.0
  0
LINE
  5
2B6
  8
LAYER1
 62
    18
 10
227.9986128891289
 20
80.33629862376218
 30
0.0
 11
227.9986128891289
 21
72.33629862376215
 31
0.0
  0
LINE
  5
2B7
  8
LAYER1
 62
    18
 10
241.448612889129
 20
72.33629862376215
 30
0.0
 11
243.4886128891291
 21
72.33629862376215
 31
0.0
  0
LINE
  5
2B8
  8
LAYER1
 62
    18
 10
254.8986128891289
 20
72.33629862376215
 30
0.0
 11
256.938612889129
 21
72.33629862376215
 31
0.0
  0
LINE
  5
2B9
  8
LAYER1
 62
    18
 10
230.038612889129
 20
72.33629862376215
 30
0.0
 11
230.038612889129
 21
80.33629862376218
 31
0.0
  0
LINE
  5
2BA
  8
LAYER1
 62
    18
 10
241.448612889129
 20
80.33629862376218
 30
0.0
 11
241.448612889129
 21
72.33629862376215
 31
0.0
  0
LINE
  5
2BB
  8
LAYER1
 62
    18
 10
230.038612889129
 20
80.33629862376218
 30
0.0
 11
241.448612889129
 21
80.33629862376218
 31
0.0
  0
LINE
  5
2BC
  8
LAYER1
 62
    18
 10
243.4886128891291
 20
72.33629862376215
 30
0.0
 11
243.4886128891291
 21
80.33629862376218
 31
0.0
  0
LINE
  5
2BD
  8
LAYER1
 62
    18
 10
243.4886128891291
 20
80.33629862376218
 30
0.0
 11
254.8986128891289
 21
80.33629862376218
 31
0.0
  0
LINE
  5
2BE
  8
LAYER1
 62
    18
 10
254.8986128891289
 20
80.33629862376218
 30
0.0
 11
254.8986128891289
 21
72.33629862376215
 31
0.0
  0
LINE
  5
2BF
  8
LAYER1
 62
    18
 10
268.348612889129
 20
72.33629862376215
 30
0.0
 11
270.388612889129
 21
72.33629862376215
 31
0.0
  0
LINE
  5
2C0
  8
LAYER1
 62
    18
 10
256.938612889129
 20
72.33629862376215
 30
0.0
 11
256.938612889129
 21
80.33629862376218
 31
0.0
  0
LINE
  5
2C1
  8
LAYER1
 62
    18
 10
268.348612889129
 20
80.33629862376218
 30
0.0
 11
268.348612889129
 21
72.33629862376215
 31
0.0
  0
LINE
  5
2C2
  8
LAYER1
 62
    18
 10
256.938612889129
 20
80.33629862376218
 30
0.0
 11
268.348612889129
 21
80.33629862376218
 31
0.0
  0
LINE
  5
2C3
  8
LAYER1
 62
    18
 10
270.388612889129
 20
72.33629862376215
 30
0.0
 11
270.388612889129
 21
80.33629862376218
 31
0.0
  0
LINE
  5
2C4
  8
LAYER1
 62
    18
 10
270.388612889129
 20
80.33629862376218
 30
0.0
 11
281.7986128891289
 21
80.33629862376218
 31
0.0
  0
LINE
  5
2C5
  8
LAYER1
 62
    18
 10
281.7986128891289
 20
80.33629862376218
 30
0.0
 11
281.7986128891289
 21
72.33629862376215
 31
0.0
  0
LINE
  5
2C6
  8
LAYER1
 62
    18
 10
12.79861288912924
 20
64.33629862376216
 30
0.0
 11
12.79861288912924
 21
72.33629862376215
 31
0.0
  0
LINE
  5
2C7
  8
LAYER1
 62
    18
 10
281.7986128891289
 20
72.33629862376215
 30
0.0
 11
282.8186128891289
 21
72.33629862376215
 31
0.0
  0
LINE
  5
2C8
  8
LAYER1
 62
    18
 10
12.79861288912924
 20
64.33629862376216
 30
0.0
 11
282.8186128891289
 21
64.33629862376216
 31
0.0
  0
LINE
  5
2C9
  8
LAYER1
 62
    18
 10
282.8186128891289
 20
64.33629862376216
 30
0.0
 11
282.8186128891289
 21
72.33629862376215
 31
0.0
  0
LINE
  5
2CA
  8
LAYER1
 62
    18
 10
12.79861288912924
 20
53.04131030540573
 30
0.0
 11
14.83861288912921
 21
53.04131030540573
 31
0.0
  0
LINE
  5
2CB
  8
LAYER1
 62
    18
 10
26.24861288912925
 20
53.04131030540573
 30
0.0
 11
28.28861288912931
 21
53.04131030540573
 31
0.0
  0
LINE
  5
2CC
  8
LAYER1
 62
    18
 10
39.69861288912917
 20
53.04131030540573
 30
0.0
 11
41.73861288912923
 21
53.04131030540573
 31
0.0
  0
LINE
  5
2CD
  8
LAYER1
 62
    18
 10
14.83861288912921
 20
53.04131030540573
 30
0.0
 11
14.83861288912921
 21
61.04131030540576
 31
0.0
  0
LINE
  5
2CE
  8
LAYER1
 62
    18
 10
26.24861288912925
 20
61.04131030540576
 30
0.0
 11
26.24861288912925
 21
53.04131030540573
 31
0.0
  0
LINE
  5
2CF
  8
LAYER1
 62
    18
 10
14.83861288912921
 20
61.04131030540576
 30
0.0
 11
26.24861288912925
 21
61.04131030540576
 31
0.0
  0
LINE
  5
2D0
  8
LAYER1
 62
    18
 10
28.28861288912931
 20
53.04131030540573
 30
0.0
 11
28.28861288912931
 21
61.04131030540576
 31
0.0
  0
LINE
  5
2D1
  8
LAYER1
 62
    18
 10
28.28861288912931
 20
61.04131030540576
 30
0.0
 11
39.69861288912917
 21
61.04131030540576
 31
0.0
  0
LINE
  5
2D2
  8
LAYER1
 62
    18
 10
39.69861288912917
 20
61.04131030540576
 30
0.0
 11
39.69861288912917
 21
53.04131030540573
 31
0.0
  0
LINE
  5
2D3
  8
LAYER1
 62
    18
 10
53.14861288912927
 20
53.04131030540573
 30
0.0
 11
55.18861288912923
 21
53.04131030540573
 31
0.0
  0
LINE
  5
2D4
  8
LAYER1
 62
    18
 10
66.59861288912919
 20
53.04131030540573
 30
0.0
 11
68.63861288912915
 21
53.04131030540573
 31
0.0
  0
LINE
  5
2D5
  8
LAYER1
 62
    18
 10
41.73861288912923
 20
53.04131030540573
 30
0.0
 11
41.73861288912923
 21
61.04131030540576
 31
0.0
  0
LINE
  5
2D6
  8
LAYER1
 62
    18
 10
53.14861288912927
 20
61.04131030540576
 30
0.0
 11
53.14861288912927
 21
53.04131030540573
 31
0.0
  0
LINE
  5
2D7
  8
LAYER1
 62
    18
 10
41.73861288912923
 20
61.04131030540576
 30
0.0
 11
53.14861288912927
 21
61.04131030540576
 31
0.0
  0
LINE
  5
2D8
  8
LAYER1
 62
    18
 10
55.18861288912923
 20
53.04131030540573
 30
0.0
 11
55.18861288912923
 21
61.04131030540576
 31
0.0
  0
LINE
  5
2D9
  8
LAYER1
 62
    18
 10
55.18861288912923
 20
61.04131030540576
 30
0.0
 11
66.59861288912919
 21
61.04131030540576
 31
0.0
  0
LINE
  5
2DA
  8
LAYER1
 62
    18
 10
66.59861288912919
 20
61.04131030540576
 30
0.0
 11
66.59861288912919
 21
53.04131030540573
 31
0.0
  0
LINE
  5
2DB
  8
LAYER1
 62
    18
 10
80.04861288912919
 20
53.04131030540573
 30
0.0
 11
82.08861288912925
 21
53.04131030540573
 31
0.0
  0
LINE
  5
2DC
  8
LAYER1
 62
    18
 10
93.4986128891291
 20
53.04131030540573
 30
0.0
 11
95.53861288912917
 21
53.04131030540573
 31
0.0
  0
LINE
  5
2DD
  8
LAYER1
 62
    18
 10
68.63861288912915
 20
53.04131030540573
 30
0.0
 11
68.63861288912915
 21
61.04131030540576
 31
0.0
  0
LINE
  5
2DE
  8
LAYER1
 62
    18
 10
80.04861288912919
 20
61.04131030540576
 30
0.0
 11
80.04861288912919
 21
53.04131030540573
 31
0.0
  0
LINE
  5
2DF
  8
LAYER1
 62
    18
 10
68.63861288912915
 20
61.04131030540576
 30
0.0
 11
80.04861288912919
 21
61.04131030540576
 31
0.0
  0
LINE
  5
2E0
  8
LAYER1
 62
    18
 10
82.08861288912925
 20
53.04131030540573
 30
0.0
 11
82.08861288912925
 21
61.04131030540576
 31
0.0
  0
LINE
  5
2E1
  8
LAYER1
 62
    18
 10
82.08861288912925
 20
61.04131030540576
 30
0.0
 11
93.4986128891291
 21
61.04131030540576
 31
0.0
  0
LINE
  5
2E2
  8
LAYER1
 62
    18
 10
93.4986128891291
 20
61.04131030540576
 30
0.0
 11
93.4986128891291
 21
53.04131030540573
 31
0.0
  0
LINE
  5
2E3
  8
LAYER1
 62
    18
 10
106.9486128891293
 20
53.04131030540573
 30
0.0
 11
108.9886128891293
 21
53.04131030540573
 31
0.0
  0
LINE
  5
2E4
  8
LAYER1
 62
    18
 10
120.398612889129
 20
53.04131030540573
 30
0.0
 11
122.4386128891291
 21
53.04131030540573
 31
0.0
  0
LINE
  5
2E5
  8
LAYER1
 62
    18
 10
95.53861288912917
 20
53.04131030540573
 30
0.0
 11
95.53861288912917
 21
61.04131030540576
 31
0.0
  0
LINE
  5
2E6
  8
LAYER1
 62
    18
 10
106.9486128891293
 20
61.04131030540576
 30
0.0
 11
106.9486128891293
 21
53.04131030540573
 31
0.0
  0
LINE
  5
2E7
  8
LAYER1
 62
    18
 10
95.53861288912917
 20
61.04131030540576
 30
0.0
 11
106.9486128891293
 21
61.04131030540576
 31
0.0
  0
LINE
  5
2E8
  8
LAYER1
 62
    18
 10
108.9886128891293
 20
53.04131030540573
 30
0.0
 11
108.9886128891293
 21
61.04131030540576
 31
0.0
  0
LINE
  5
2E9
  8
LAYER1
 62
    18
 10
108.9886128891293
 20
61.04131030540576
 30
0.0
 11
120.398612889129
 21
61.04131030540576
 31
0.0
  0
LINE
  5
2EA
  8
LAYER1
 62
    18
 10
120.398612889129
 20
61.04131030540576
 30
0.0
 11
120.398612889129
 21
53.04131030540573
 31
0.0
  0
LINE
  5
2EB
  8
LAYER1
 62
    18
 10
133.8486128891291
 20
53.04131030540573
 30
0.0
 11
135.8886128891291
 21
53.04131030540573
 31
0.0
  0
LINE
  5
2EC
  8
LAYER1
 62
    18
 10
147.298612889129
 20
53.04131030540573
 30
0.0
 11
149.338612889129
 21
53.04131030540573
 31
0.0
  0
LINE
  5
2ED
  8
LAYER1
 62
    18
 10
122.4386128891291
 20
53.04131030540573
 30
0.0
 11
122.4386128891291
 21
61.04131030540576
 31
0.0
  0
LINE
  5
2EE
  8
LAYER1
 62
    18
 10
133.8486128891291
 20
61.04131030540576
 30
0.0
 11
133.8486128891291
 21
53.04131030540573
 31
0.0
  0
LINE
  5
2EF
  8
LAYER1
 62
    18
 10
122.4386128891291
 20
61.04131030540576
 30
0.0
 11
133.8486128891291
 21
61.04131030540576
 31
0.0
  0
LINE
  5
2F0
  8
LAYER1
 62
    18
 10
135.8886128891291
 20
53.04131030540573
 30
0.0
 11
135.8886128891291
 21
61.04131030540576
 31
0.0
  0
LINE
  5
2F1
  8
LAYER1
 62
    18
 10
135.8886128891291
 20
61.04131030540576
 30
0.0
 11
147.298612889129
 21
61.04131030540576
 31
0.0
  0
LINE
  5
2F2
  8
LAYER1
 62
    18
 10
147.298612889129
 20
61.04131030540576
 30
0.0
 11
147.298612889129
 21
53.04131030540573
 31
0.0
  0
LINE
  5
2F3
  8
LAYER1
 62
    18
 10
160.7486128891291
 20
53.04131030540573
 30
0.0
 11
162.7886128891291
 21
53.04131030540573
 31
0.0
  0
LINE
  5
2F4
  8
LAYER1
 62
    18
 10
174.198612889129
 20
53.04131030540573
 30
0.0
 11
176.238612889129
 21
53.04131030540573
 31
0.0
  0
LINE
  5
2F5
  8
LAYER1
 62
    18
 10
149.338612889129
 20
53.04131030540573
 30
0.0
 11
149.338612889129
 21
61.04131030540576
 31
0.0
  0
LINE
  5
2F6
  8
LAYER1
 62
    18
 10
160.7486128891291
 20
61.04131030540576
 30
0.0
 11
160.7486128891291
 21
53.04131030540573
 31
0.0
  0
LINE
  5
2F7
  8
LAYER1
 62
    18
 10
149.338612889129
 20
61.04131030540576
 30
0.0
 11
160.7486128891291
 21
61.04131030540576
 31
0.0
  0
LINE
  5
2F8
  8
LAYER1
 62
    18
 10
162.7886128891291
 20
53.04131030540573
 30
0.0
 11
162.7886128891291
 21
61.04131030540576
 31
0.0
  0
LINE
  5
2F9
  8
LAYER1
 62
    18
 10
162.7886128891291
 20
61.04131030540576
 30
0.0
 11
174.198612889129
 21
61.04131030540576
 31
0.0
  0
LINE
  5
2FA
  8
LAYER1
 62
    18
 10
174.198612889129
 20
61.04131030540576
 30
0.0
 11
174.198612889129
 21
53.04131030540573
 31
0.0
  0
LINE
  5
2FB
  8
LAYER1
 62
    18
 10
187.6486128891291
 20
53.04131030540573
 30
0.0
 11
189.6886128891291
 21
53.04131030540573
 31
0.0
  0
LINE
  5
2FC
  8
LAYER1
 62
    18
 10
201.098612889129
 20
53.04131030540573
 30
0.0
 11
203.138612889129
 21
53.04131030540573
 31
0.0
  0
LINE
  5
2FD
  8
LAYER1
 62
    18
 10
176.238612889129
 20
53.04131030540573
 30
0.0
 11
176.238612889129
 21
61.04131030540576
 31
0.0
  0
LINE
  5
2FE
  8
LAYER1
 62
    18
 10
187.6486128891291
 20
61.04131030540576
 30
0.0
 11
187.6486128891291
 21
53.04131030540573
 31
0.0
  0
LINE
  5
2FF
  8
LAYER1
 62
    18
 10
176.238612889129
 20
61.04131030540576
 30
0.0
 11
187.6486128891291
 21
61.04131030540576
 31
0.0
  0
LINE
  5
300
  8
LAYER1
 62
    18
 10
189.6886128891291
 20
53.04131030540573
 30
0.0
 11
189.6886128891291
 21
61.04131030540576
 31
0.0
  0
LINE
  5
301
  8
LAYER1
 62
    18
 10
189.6886128891291
 20
61.04131030540576
 30
0.0
 11
201.098612889129
 21
61.04131030540576
 31
0.0
  0
LINE
  5
302
  8
LAYER1
 62
    18
 10
201.098612889129
 20
61.04131030540576
 30
0.0
 11
201.098612889129
 21
53.04131030540573
 31
0.0
  0
LINE
  5
303
  8
LAYER1
 62
    18
 10
214.5486128891291
 20
53.04131030540573
 30
0.0
 11
216.5886128891291
 21
53.04131030540573
 31
0.0
  0
LINE
  5
304
  8
LAYER1
 62
    18
 10
227.9986128891289
 20
53.04131030540573
 30
0.0
 11
230.038612889129
 21
53.04131030540573
 31
0.0
  0
LINE
  5
305
  8
LAYER1
 62
    18
 10
203.138612889129
 20
53.04131030540573
 30
0.0
 11
203.138612889129
 21
61.04131030540576
 31
0.0
  0
LINE
  5
306
  8
LAYER1
 62
    18
 10
214.5486128891291
 20
61.04131030540576
 30
0.0
 11
214.5486128891291
 21
53.04131030540573
 31
0.0
  0
LINE
  5
307
  8
LAYER1
 62
    18
 10
203.138612889129
 20
61.04131030540576
 30
0.0
 11
214.5486128891291
 21
61.04131030540576
 31
0.0
  0
LINE
  5
308
  8
LAYER1
 62
    18
 10
216.5886128891291
 20
53.04131030540573
 30
0.0
 11
216.5886128891291
 21
61.04131030540576
 31
0.0
  0
LINE
  5
309
  8
LAYER1
 62
    18
 10
216.5886128891291
 20
61.04131030540576
 30
0.0
 11
227.9986128891289
 21
61.04131030540576
 31
0.0
  0
LINE
  5
30A
  8
LAYER1
 62
    18
 10
227.9986128891289
 20
61.04131030540576
 30
0.0
 11
227.9986128891289
 21
53.04131030540573
 31
0.0
  0
LINE
  5
30B
  8
LAYER1
 62
    18
 10
241.448612889129
 20
53.04131030540573
 30
0.0
 11
243.488612889129
 21
53.04131030540573
 31
0.0
  0
LINE
  5
30C
  8
LAYER1
 62
    18
 10
254.8986128891289
 20
53.04131030540573
 30
0.0
 11
256.9386128891289
 21
53.04131030540573
 31
0.0
  0
LINE
  5
30D
  8
LAYER1
 62
    18
 10
230.038612889129
 20
53.04131030540573
 30
0.0
 11
230.038612889129
 21
61.04131030540576
 31
0.0
  0
LINE
  5
30E
  8
LAYER1
 62
    18
 10
241.448612889129
 20
61.04131030540576
 30
0.0
 11
241.448612889129
 21
53.04131030540573
 31
0.0
  0
LINE
  5
30F
  8
LAYER1
 62
    18
 10
230.038612889129
 20
61.04131030540576
 30
0.0
 11
241.448612889129
 21
61.04131030540576
 31
0.0
  0
LINE
  5
310
  8
LAYER1
 62
    18
 10
243.488612889129
 20
53.04131030540573
 30
0.0
 11
243.488612889129
 21
61.04131030540576
 31
0.0
  0
LINE
  5
311
  8
LAYER1
 62
    18
 10
243.488612889129
 20
61.04131030540576
 30
0.0
 11
254.8986128891289
 21
61.04131030540576
 31
0.0
  0
LINE
  5
312
  8
LAYER1
 62
    18
 10
254.8986128891289
 20
61.04131030540576
 30
0.0
 11
254.8986128891289
 21
53.04131030540573
 31
0.0
  0
LINE
  5
313
  8
LAYER1
 62
    18
 10
268.348612889129
 20
53.04131030540573
 30
0.0
 11
270.388612889129
 21
53.04131030540573
 31
0.0
  0
LINE
  5
314
  8
LAYER1
 62
    18
 10
256.9386128891289
 20
53.04131030540573
 30
0.0
 11
256.9386128891289
 21
61.04131030540576
 31
0.0
  0
LINE
  5
315
  8
LAYER1
 62
    18
 10
268.348612889129
 20
61.04131030540576
 30
0.0
 11
268.348612889129
 21
53.04131030540573
 31
0.0
  0
LINE
  5
316
  8
LAYER1
 62
    18
 10
256.9386128891289
 20
61.04131030540576
 30
0.0
 11
268.348612889129
 21
61.04131030540576
 31
0.0
  0
LINE
  5
317
  8
LAYER1
 62
    18
 10
270.388612889129
 20
53.04131030540573
 30
0.0
 11
270.388612889129
 21
61.04131030540576
 31
0.0
  0
LINE
  5
318
  8
LAYER1
 62
    18
 10
270.388612889129
 20
61.04131030540576
 30
0.0
 11
281.7986128891289
 21
61.04131030540576
 31
0.0
  0
LINE
  5
319
  8
LAYER1
 62
    18
 10
281.7986128891289
 20
61.04131030540576
 30
0.0
 11
281.7986128891289
 21
53.04131030540573
 31
0.0
  0
LINE
  5
31A
  8
LAYER1
 62
    18
 10
12.79861288912924
 20
45.04131030540574
 30
0.0
 11
12.79861288912924
 21
53.04131030540573
 31
0.0
  0
LINE
  5
31B
  8
LAYER1
 62
    18
 10
281.7986128891289
 20
53.04131030540573
 30
0.0
 11
282.8186128891289
 21
53.04131030540573
 31
0.0
  0
LINE
  5
31C
  8
LAYER1
 62
    18
 10
12.79861288912924
 20
45.04131030540574
 30
0.0
 11
282.8186128891289
 21
45.04131030540574
 31
0.0
  0
LINE
  5
31D
  8
LAYER1
 62
    18
 10
282.8186128891289
 20
45.04131030540574
 30
0.0
 11
282.8186128891289
 21
53.04131030540573
 31
0.0
  0
LINE
  5
31E
  8
LAYER1
 62
    18
 10
12.79861288912924
 20
33.27571251587024
 30
0.0
 11
14.83861288912921
 21
33.27571251587024
 31
0.0
  0
LINE
  5
31F
  8
LAYER1
 62
    18
 10
26.24861288912925
 20
33.27571251587024
 30
0.0
 11
28.28861288912931
 21
33.27571251587024
 31
0.0
  0
LINE
  5
320
  8
LAYER1
 62
    18
 10
39.69861288912917
 20
33.27571251587024
 30
0.0
 11
41.73861288912923
 21
33.27571251587024
 31
0.0
  0
LINE
  5
321
  8
LAYER1
 62
    18
 10
14.83861288912921
 20
33.27571251587024
 30
0.0
 11
14.83861288912921
 21
41.27571251587027
 31
0.0
  0
LINE
  5
322
  8
LAYER1
 62
    18
 10
26.24861288912925
 20
41.27571251587027
 30
0.0
 11
26.24861288912925
 21
33.27571251587024
 31
0.0
  0
LINE
  5
323
  8
LAYER1
 62
    18
 10
14.83861288912921
 20
41.27571251587027
 30
0.0
 11
26.24861288912925
 21
41.27571251587027
 31
0.0
  0
LINE
  5
324
  8
LAYER1
 62
    18
 10
28.28861288912931
 20
33.27571251587024
 30
0.0
 11
28.28861288912931
 21
41.27571251587027
 31
0.0
  0
LINE
  5
325
  8
LAYER1
 62
    18
 10
28.28861288912931
 20
41.27571251587027
 30
0.0
 11
39.69861288912917
 21
41.27571251587027
 31
0.0
  0
LINE
  5
326
  8
LAYER1
 62
    18
 10
39.69861288912917
 20
41.27571251587027
 30
0.0
 11
39.69861288912917
 21
33.27571251587024
 31
0.0
  0
LINE
  5
327
  8
LAYER1
 62
    18
 10
53.14861288912927
 20
33.27571251587024
 30
0.0
 11
55.18861288912923
 21
33.27571251587024
 31
0.0
  0
LINE
  5
328
  8
LAYER1
 62
    18
 10
66.59861288912919
 20
33.27571251587024
 30
0.0
 11
68.63861288912915
 21
33.27571251587024
 31
0.0
  0
LINE
  5
329
  8
LAYER1
 62
    18
 10
41.73861288912923
 20
33.27571251587024
 30
0.0
 11
41.73861288912923
 21
41.27571251587027
 31
0.0
  0
LINE
  5
32A
  8
LAYER1
 62
    18
 10
53.14861288912927
 20
41.27571251587027
 30
0.0
 11
53.14861288912927
 21
33.27571251587024
 31
0.0
  0
LINE
  5
32B
  8
LAYER1
 62
    18
 10
41.73861288912923
 20
41.27571251587027
 30
0.0
 11
53.14861288912927
 21
41.27571251587027
 31
0.0
  0
LINE
  5
32C
  8
LAYER1
 62
    18
 10
55.18861288912923
 20
33.27571251587024
 30
0.0
 11
55.18861288912923
 21
41.27571251587027
 31
0.0
  0
LINE
  5
32D
  8
LAYER1
 62
    18
 10
55.18861288912923
 20
41.27571251587027
 30
0.0
 11
66.59861288912919
 21
41.27571251587027
 31
0.0
  0
LINE
  5
32E
  8
LAYER1
 62
    18
 10
66.59861288912919
 20
41.27571251587027
 30
0.0
 11
66.59861288912919
 21
33.27571251587024
 31
0.0
  0
LINE
  5
32F
  8
LAYER1
 62
    18
 10
80.04861288912919
 20
33.27571251587024
 30
0.0
 11
82.08861288912925
 21
33.27571251587024
 31
0.0
  0
LINE
  5
330
  8
LAYER1
 62
    18
 10
93.4986128891291
 20
33.27571251587024
 30
0.0
 11
95.53861288912917
 21
33.27571251587024
 31
0.0
  0
LINE
  5
331
  8
LAYER1
 62
    18
 10
68.63861288912915
 20
33.27571251587024
 30
0.0
 11
68.63861288912915
 21
41.27571251587027
 31
0.0
  0
LINE
  5
332
  8
LAYER1
 62
    18
 10
80.04861288912919
 20
41.27571251587027
 30
0.0
 11
80.04861288912919
 21
33.27571251587024
 31
0.0
  0
LINE
  5
333
  8
LAYER1
 62
    18
 10
68.63861288912915
 20
41.27571251587027
 30
0.0
 11
80.04861288912919
 21
41.27571251587027
 31
0.0
  0
LINE
  5
334
  8
LAYER1
 62
    18
 10
82.08861288912925
 20
33.27571251587024
 30
0.0
 11
82.08861288912925
 21
41.27571251587027
 31
0.0
  0
LINE
  5
335
  8
LAYER1
 62
    18
 10
82.08861288912925
 20
41.27571251587027
 30
0.0
 11
93.4986128891291
 21
41.27571251587027
 31
0.0
  0
LINE
  5
336
  8
LAYER1
 62
    18
 10
93.4986128891291
 20
41.27571251587027
 30
0.0
 11
93.4986128891291
 21
33.27571251587024
 31
0.0
  0
LINE
  5
337
  8
LAYER1
 62
    18
 10
106.9486128891293
 20
33.27571251587024
 30
0.0
 11
108.9886128891292
 21
33.27571251587024
 31
0.0
  0
LINE
  5
338
  8
LAYER1
 62
    18
 10
120.3986128891291
 20
33.27571251587024
 30
0.0
 11
122.438612889129
 21
33.27571251587024
 31
0.0
  0
LINE
  5
339
  8
LAYER1
 62
    18
 10
95.53861288912917
 20
33.27571251587024
 30
0.0
 11
95.53861288912917
 21
41.27571251587027
 31
0.0
  0
LINE
  5
33A
  8
LAYER1
 62
    18
 10
106.9486128891293
 20
41.27571251587027
 30
0.0
 11
106.9486128891293
 21
33.27571251587024
 31
0.0
  0
LINE
  5
33B
  8
LAYER1
 62
    18
 10
95.53861288912917
 20
41.27571251587027
 30
0.0
 11
106.9486128891293
 21
41.27571251587027
 31
0.0
  0
LINE
  5
33C
  8
LAYER1
 62
    18
 10
108.9886128891292
 20
33.27571251587024
 30
0.0
 11
108.9886128891292
 21
41.27571251587027
 31
0.0
  0
LINE
  5
33D
  8
LAYER1
 62
    18
 10
108.9886128891292
 20
41.27571251587027
 30
0.0
 11
120.3986128891291
 21
41.27571251587027
 31
0.0
  0
LINE
  5
33E
  8
LAYER1
 62
    18
 10
120.3986128891291
 20
41.27571251587027
 30
0.0
 11
120.3986128891291
 21
33.27571251587024
 31
0.0
  0
LINE
  5
33F
  8
LAYER1
 62
    18
 10
133.8486128891291
 20
33.27571251587024
 30
0.0
 11
135.8886128891291
 21
33.27571251587024
 31
0.0
  0
LINE
  5
340
  8
LAYER1
 62
    18
 10
147.298612889129
 20
33.27571251587024
 30
0.0
 11
149.3386128891291
 21
33.27571251587024
 31
0.0
  0
LINE
  5
341
  8
LAYER1
 62
    18
 10
122.438612889129
 20
33.27571251587024
 30
0.0
 11
122.438612889129
 21
41.27571251587027
 31
0.0
  0
LINE
  5
342
  8
LAYER1
 62
    18
 10
133.8486128891291
 20
41.27571251587027
 30
0.0
 11
133.8486128891291
 21
33.27571251587024
 31
0.0
  0
LINE
  5
343
  8
LAYER1
 62
    18
 10
122.438612889129
 20
41.27571251587027
 30
0.0
 11
133.8486128891291
 21
41.27571251587027
 31
0.0
  0
LINE
  5
344
  8
LAYER1
 62
    18
 10
135.8886128891291
 20
33.27571251587024
 30
0.0
 11
135.8886128891291
 21
41.27571251587027
 31
0.0
  0
LINE
  5
345
  8
LAYER1
 62
    18
 10
135.8886128891291
 20
41.27571251587027
 30
0.0
 11
147.298612889129
 21
41.27571251587027
 31
0.0
  0
LINE
  5
346
  8
LAYER1
 62
    18
 10
147.298612889129
 20
41.27571251587027
 30
0.0
 11
147.298612889129
 21
33.27571251587024
 31
0.0
  0
LINE
  5
347
  8
LAYER1
 62
    18
 10
160.7486128891291
 20
33.27571251587024
 30
0.0
 11
162.7886128891291
 21
33.27571251587024
 31
0.0
  0
LINE
  5
348
  8
LAYER1
 62
    18
 10
174.198612889129
 20
33.27571251587024
 30
0.0
 11
176.238612889129
 21
33.27571251587024
 31
0.0
  0
LINE
  5
349
  8
LAYER1
 62
    18
 10
149.3386128891291
 20
33.27571251587024
 30
0.0
 11
149.3386128891291
 21
41.27571251587027
 31
0.0
  0
LINE
  5
34A
  8
LAYER1
 62
    18
 10
160.7486128891291
 20
41.27571251587027
 30
0.0
 11
160.7486128891291
 21
33.27571251587024
 31
0.0
  0
LINE
  5
34B
  8
LAYER1
 62
    18
 10
149.3386128891291
 20
41.27571251587027
 30
0.0
 11
160.7486128891291
 21
41.27571251587027
 31
0.0
  0
LINE
  5
34C
  8
LAYER1
 62
    18
 10
162.7886128891291
 20
33.27571251587024
 30
0.0
 11
162.7886128891291
 21
41.27571251587027
 31
0.0
  0
LINE
  5
34D
  8
LAYER1
 62
    18
 10
162.7886128891291
 20
41.27571251587027
 30
0.0
 11
174.198612889129
 21
41.27571251587027
 31
0.0
  0
LINE
  5
34E
  8
LAYER1
 62
    18
 10
174.198612889129
 20
41.27571251587027
 30
0.0
 11
174.198612889129
 21
33.27571251587024
 31
0.0
  0
LINE
  5
34F
  8
LAYER1
 62
    18
 10
187.6486128891291
 20
33.27571251587024
 30
0.0
 11
189.6886128891291
 21
33.27571251587024
 31
0.0
  0
LINE
  5
350
  8
LAYER1
 62
    18
 10
201.098612889129
 20
33.27571251587024
 30
0.0
 11
203.138612889129
 21
33.27571251587024
 31
0.0
  0
LINE
  5
351
  8
LAYER1
 62
    18
 10
176.238612889129
 20
33.27571251587024
 30
0.0
 11
176.238612889129
 21
41.27571251587027
 31
0.0
  0
LINE
  5
352
  8
LAYER1
 62
    18
 10
187.6486128891291
 20
41.27571251587027
 30
0.0
 11
187.6486128891291
 21
33.27571251587024
 31
0.0
  0
LINE
  5
353
  8
LAYER1
 62
    18
 10
176.238612889129
 20
41.27571251587027
 30
0.0
 11
187.6486128891291
 21
41.27571251587027
 31
0.0
  0
LINE
  5
354
  8
LAYER1
 62
    18
 10
189.6886128891291
 20
33.27571251587024
 30
0.0
 11
189.6886128891291
 21
41.27571251587027
 31
0.0
  0
LINE
  5
355
  8
LAYER1
 62
    18
 10
189.6886128891291
 20
41.27571251587027
 30
0.0
 11
201.098612889129
 21
41.27571251587027
 31
0.0
  0
LINE
  5
356
  8
LAYER1
 62
    18
 10
201.098612889129
 20
41.27571251587027
 30
0.0
 11
201.098612889129
 21
33.27571251587024
 31
0.0
  0
LINE
  5
357
  8
LAYER1
 62
    18
 10
214.548612889129
 20
33.27571251587024
 30
0.0
 11
216.5886128891291
 21
33.27571251587024
 31
0.0
  0
LINE
  5
358
  8
LAYER1
 62
    18
 10
227.9986128891289
 20
33.27571251587024
 30
0.0
 11
230.038612889129
 21
33.27571251587024
 31
0.0
  0
LINE
  5
359
  8
LAYER1
 62
    18
 10
203.138612889129
 20
33.27571251587024
 30
0.0
 11
203.138612889129
 21
41.27571251587027
 31
0.0
  0
LINE
  5
35A
  8
LAYER1
 62
    18
 10
214.548612889129
 20
41.27571251587027
 30
0.0
 11
214.548612889129
 21
33.27571251587024
 31
0.0
  0
LINE
  5
35B
  8
LAYER1
 62
    18
 10
203.138612889129
 20
41.27571251587027
 30
0.0
 11
214.548612889129
 21
41.27571251587027
 31
0.0
  0
LINE
  5
35C
  8
LAYER1
 62
    18
 10
216.5886128891291
 20
33.27571251587024
 30
0.0
 11
216.5886128891291
 21
41.27571251587027
 31
0.0
  0
LINE
  5
35D
  8
LAYER1
 62
    18
 10
216.5886128891291
 20
41.27571251587027
 30
0.0
 11
227.9986128891289
 21
41.27571251587027
 31
0.0
  0
LINE
  5
35E
  8
LAYER1
 62
    18
 10
227.9986128891289
 20
41.27571251587027
 30
0.0
 11
227.9986128891289
 21
33.27571251587024
 31
0.0
  0
LINE
  5
35F
  8
LAYER1
 62
    18
 10
241.448612889129
 20
33.27571251587024
 30
0.0
 11
243.488612889129
 21
33.27571251587024
 31
0.0
  0
LINE
  5
360
  8
LAYER1
 62
    18
 10
254.8986128891289
 20
33.27571251587024
 30
0.0
 11
256.9386128891289
 21
33.27571251587024
 31
0.0
  0
LINE
  5
361
  8
LAYER1
 62
    18
 10
230.038612889129
 20
33.27571251587024
 30
0.0
 11
230.038612889129
 21
41.27571251587027
 31
0.0
  0
LINE
  5
362
  8
LAYER1
 62
    18
 10
241.448612889129
 20
41.27571251587027
 30
0.0
 11
241.448612889129
 21
33.27571251587024
 31
0.0
  0
LINE
  5
363
  8
LAYER1
 62
    18
 10
230.038612889129
 20
41.27571251587027
 30
0.0
 11
241.448612889129
 21
41.27571251587027
 31
0.0
  0
LINE
  5
364
  8
LAYER1
 62
    18
 10
243.488612889129
 20
33.27571251587024
 30
0.0
 11
243.488612889129
 21
41.27571251587027
 31
0.0
  0
LINE
  5
365
  8
LAYER1
 62
    18
 10
243.488612889129
 20
41.27571251587027
 30
0.0
 11
254.8986128891289
 21
41.27571251587027
 31
0.0
  0
LINE
  5
366
  8
LAYER1
 62
    18
 10
254.8986128891289
 20
41.27571251587027
 30
0.0
 11
254.8986128891289
 21
33.27571251587024
 31
0.0
  0
LINE
  5
367
  8
LAYER1
 62
    18
 10
268.348612889129
 20
33.27571251587024
 30
0.0
 11
270.388612889129
 21
33.27571251587024
 31
0.0
  0
LINE
  5
368
  8
LAYER1
 62
    18
 10
256.9386128891289
 20
33.27571251587024
 30
0.0
 11
256.9386128891289
 21
41.27571251587027
 31
0.0
  0
LINE
  5
369
  8
LAYER1
 62
    18
 10
268.348612889129
 20
41.27571251587027
 30
0.0
 11
268.348612889129
 21
33.27571251587024
 31
0.0
  0
LINE
  5
36A
  8
LAYER1
 62
    18
 10
256.9386128891289
 20
41.27571251587027
 30
0.0
 11
268.348612889129
 21
41.27571251587027
 31
0.0
  0
LINE
  5
36B
  8
LAYER1
 62
    18
 10
270.388612889129
 20
33.27571251587024
 30
0.0
 11
270.388612889129
 21
41.27571251587027
 31
0.0
  0
LINE
  5
36C
  8
LAYER1
 62
    18
 10
270.388612889129
 20
41.27571251587027
 30
0.0
 11
281.7986128891289
 21
41.27571251587027
 31
0.0
  0
LINE
  5
36D
  8
LAYER1
 62
    18
 10
281.7986128891289
 20
41.27571251587027
 30
0.0
 11
281.7986128891289
 21
33.27571251587024
 31
0.0
  0
LINE
  5
36E
  8
LAYER1
 62
    18
 10
12.79861288912924
 20
25.27571251587026
 30
0.0
 11
12.79861288912924
 21
33.27571251587024
 31
0.0
  0
LINE
  5
36F
  8
LAYER1
 62
    18
 10
281.7986128891289
 20
33.27571251587024
 30
0.0
 11
282.8186128891289
 21
33.27571251587024
 31
0.0
  0
LINE
  5
370
  8
LAYER1
 62
    18
 10
12.79861288912924
 20
25.27571251587026
 30
0.0
 11
282.8186128891289
 21
25.27571251587026
 31
0.0
  0
LINE
  5
371
  8
LAYER1
 62
    18
 10
282.8186128891289
 20
25.27571251587026
 30
0.0
 11
282.8186128891289
 21
33.27571251587024
 31
0.0
  0
LINE
  5
372
  8
LAYER1
 62
    18
 10
12.79861288912924
 20
13.98072419751383
 30
0.0
 11
14.83861288912921
 21
13.98072419751383
 31
0.0
  0
LINE
  5
373
  8
LAYER1
 62
    18
 10
26.24861288912925
 20
13.98072419751383
 30
0.0
 11
28.28861288912931
 21
13.98072419751383
 31
0.0
  0
LINE
  5
374
  8
LAYER1
 62
    18
 10
39.69861288912917
 20
13.98072419751383
 30
0.0
 11
41.73861288912923
 21
13.98072419751383
 31
0.0
  0
LINE
  5
375
  8
LAYER1
 62
    18
 10
14.83861288912921
 20
13.98072419751383
 30
0.0
 11
14.83861288912921
 21
21.98072419751386
 31
0.0
  0
LINE
  5
376
  8
LAYER1
 62
    18
 10
26.24861288912925
 20
21.98072419751386
 30
0.0
 11
26.24861288912925
 21
13.98072419751383
 31
0.0
  0
LINE
  5
377
  8
LAYER1
 62
    18
 10
14.83861288912921
 20
21.98072419751386
 30
0.0
 11
26.24861288912925
 21
21.98072419751386
 31
0.0
  0
LINE
  5
378
  8
LAYER1
 62
    18
 10
28.28861288912931
 20
13.98072419751383
 30
0.0
 11
28.28861288912931
 21
21.98072419751386
 31
0.0
  0
LINE
  5
379
  8
LAYER1
 62
    18
 10
28.28861288912931
 20
21.98072419751386
 30
0.0
 11
39.69861288912917
 21
21.98072419751386
 31
0.0
  0
LINE
  5
37A
  8
LAYER1
 62
    18
 10
39.69861288912917
 20
21.98072419751386
 30
0.0
 11
39.69861288912917
 21
13.98072419751383
 31
0.0
  0
LINE
  5
37B
  8
LAYER1
 62
    18
 10
53.14861288912927
 20
13.98072419751383
 30
0.0
 11
55.18861288912923
 21
13.98072419751383
 31
0.0
  0
LINE
  5
37C
  8
LAYER1
 62
    18
 10
66.59861288912919
 20
13.98072419751383
 30
0.0
 11
68.63861288912915
 21
13.98072419751383
 31
0.0
  0
LINE
  5
37D
  8
LAYER1
 62
    18
 10
41.73861288912923
 20
13.98072419751383
 30
0.0
 11
41.73861288912923
 21
21.98072419751386
 31
0.0
  0
LINE
  5
37E
  8
LAYER1
 62
    18
 10
53.14861288912927
 20
21.98072419751386
 30
0.0
 11
53.14861288912927
 21
13.98072419751383
 31
0.0
  0
LINE
  5
37F
  8
LAYER1
 62
    18
 10
41.73861288912923
 20
21.98072419751386
 30
0.0
 11
53.14861288912927
 21
21.98072419751386
 31
0.0
  0
LINE
  5
380
  8
LAYER1
 62
    18
 10
55.18861288912923
 20
13.98072419751383
 30
0.0
 11
55.18861288912923
 21
21.98072419751386
 31
0.0
  0
LINE
  5
381
  8
LAYER1
 62
    18
 10
55.18861288912923
 20
21.98072419751386
 30
0.0
 11
66.59861288912919
 21
21.98072419751386
 31
0.0
  0
LINE
  5
382
  8
LAYER1
 62
    18
 10
66.59861288912919
 20
21.98072419751386
 30
0.0
 11
66.59861288912919
 21
13.98072419751383
 31
0.0
  0
LINE
  5
383
  8
LAYER1
 62
    18
 10
80.04861288912919
 20
13.98072419751383
 30
0.0
 11
82.08861288912925
 21
13.98072419751383
 31
0.0
  0
LINE
  5
384
  8
LAYER1
 62
    18
 10
93.4986128891291
 20
13.98072419751383
 30
0.0
 11
95.53861288912917
 21
13.98072419751383
 31
0.0
  0
LINE
  5
385
  8
LAYER1
 62
    18
 10
68.63861288912915
 20
13.98072419751383
 30
0.0
 11
68.63861288912915
 21
21.98072419751386
 31
0.0
  0
LINE
  5
386
  8
LAYER1
 62
    18
 10
80.04861288912919
 20
21.98072419751386
 30
0.0
 11
80.04861288912919
 21
13.98072419751383
 31
0.0
  0
LINE
  5
387
  8
LAYER1
 62
    18
 10
68.63861288912915
 20
21.98072419751386
 30
0.0
 11
80.04861288912919
 21
21.98072419751386
 31
0.0
  0
LINE
  5
388
  8
LAYER1
 62
    18
 10
82.08861288912925
 20
13.98072419751383
 30
0.0
 11
82.08861288912925
 21
21.98072419751386
 31
0.0
  0
LINE
  5
389
  8
LAYER1
 62
    18
 10
82.08861288912925
 20
21.98072419751386
 30
0.0
 11
93.4986128891291
 21
21.98072419751386
 31
0.0
  0
LINE
  5
38A
  8
LAYER1
 62
    18
 10
93.4986128891291
 20
21.98072419751386
 30
0.0
 11
93.4986128891291
 21
13.98072419751383
 31
0.0
  0
LINE
  5
38B
  8
LAYER1
 62
    18
 10
106.9486128891293
 20
13.98072419751383
 30
0.0
 11
108.9886128891292
 21
13.98072419751383
 31
0.0
  0
LINE
  5
38C
  8
LAYER1
 62
    18
 10
120.398612889129
 20
13.98072419751383
 30
0.0
 11
122.438612889129
 21
13.98072419751383
 31
0.0
  0
LINE
  5
38D
  8
LAYER1
 62
    18
 10
95.53861288912917
 20
13.98072419751383
 30
0.0
 11
95.53861288912917
 21
21.98072419751386
 31
0.0
  0
LINE
  5
38E
  8
LAYER1
 62
    18
 10
106.9486128891293
 20
21.98072419751386
 30
0.0
 11
106.9486128891293
 21
13.98072419751383
 31
0.0
  0
LINE
  5
38F
  8
LAYER1
 62
    18
 10
95.53861288912917
 20
21.98072419751386
 30
0.0
 11
106.9486128891293
 21
21.98072419751386
 31
0.0
  0
LINE
  5
390
  8
LAYER1
 62
    18
 10
108.9886128891292
 20
13.98072419751383
 30
0.0
 11
108.9886128891292
 21
21.98072419751386
 31
0.0
  0
LINE
  5
391
  8
LAYER1
 62
    18
 10
108.9886128891292
 20
21.98072419751386
 30
0.0
 11
120.398612889129
 21
21.98072419751386
 31
0.0
  0
LINE
  5
392
  8
LAYER1
 62
    18
 10
120.398612889129
 20
21.98072419751386
 30
0.0
 11
120.398612889129
 21
13.98072419751383
 31
0.0
  0
LINE
  5
393
  8
LAYER1
 62
    18
 10
133.8486128891291
 20
13.98072419751383
 30
0.0
 11
135.8886128891291
 21
13.98072419751383
 31
0.0
  0
LINE
  5
394
  8
LAYER1
 62
    18
 10
147.298612889129
 20
13.98072419751383
 30
0.0
 11
149.338612889129
 21
13.98072419751383
 31
0.0
  0
LINE
  5
395
  8
LAYER1
 62
    18
 10
122.438612889129
 20
13.98072419751383
 30
0.0
 11
122.438612889129
 21
21.98072419751386
 31
0.0
  0
LINE
  5
396
  8
LAYER1
 62
    18
 10
133.8486128891291
 20
21.98072419751386
 30
0.0
 11
133.8486128891291
 21
13.98072419751383
 31
0.0
  0
LINE
  5
397
  8
LAYER1
 62
    18
 10
122.438612889129
 20
21.98072419751386
 30
0.0
 11
133.8486128891291
 21
21.98072419751386
 31
0.0
  0
LINE
  5
398
  8
LAYER1
 62
    18
 10
135.8886128891291
 20
13.98072419751383
 30
0.0
 11
135.8886128891291
 21
21.98072419751386
 31
0.0
  0
LINE
  5
399
  8
LAYER1
 62
    18
 10
135.8886128891291
 20
21.98072419751386
 30
0.0
 11
147.298612889129
 21
21.98072419751386
 31
0.0
  0
LINE
  5
39A
  8
LAYER1
 62
    18
 10
147.298612889129
 20
21.98072419751386
 30
0.0
 11
147.298612889129
 21
13.98072419751383
 31
0.0
  0
LINE
  5
39B
  8
LAYER1
 62
    18
 10
160.748612889129
 20
13.98072419751383
 30
0.0
 11
162.7886128891291
 21
13.98072419751383
 31
0.0
  0
LINE
  5
39C
  8
LAYER1
 62
    18
 10
174.198612889129
 20
13.98072419751383
 30
0.0
 11
176.238612889129
 21
13.98072419751383
 31
0.0
  0
LINE
  5
39D
  8
LAYER1
 62
    18
 10
149.338612889129
 20
13.98072419751383
 30
0.0
 11
149.338612889129
 21
21.98072419751386
 31
0.0
  0
LINE
  5
39E
  8
LAYER1
 62
    18
 10
160.748612889129
 20
21.98072419751386
 30
0.0
 11
160.748612889129
 21
13.98072419751383
 31
0.0
  0
LINE
  5
39F
  8
LAYER1
 62
    18
 10
149.338612889129
 20
21.98072419751386
 30
0.0
 11
160.748612889129
 21
21.98072419751386
 31
0.0
  0
LINE
  5
3A0
  8
LAYER1
 62
    18
 10
162.7886128891291
 20
13.98072419751383
 30
0.0
 11
162.7886128891291
 21
21.98072419751386
 31
0.0
  0
LINE
  5
3A1
  8
LAYER1
 62
    18
 10
162.7886128891291
 20
21.98072419751386
 30
0.0
 11
174.198612889129
 21
21.98072419751386
 31
0.0
  0
LINE
  5
3A2
  8
LAYER1
 62
    18
 10
174.198612889129
 20
21.98072419751386
 30
0.0
 11
174.198612889129
 21
13.98072419751383
 31
0.0
  0
LINE
  5
3A3
  8
LAYER1
 62
    18
 10
187.648612889129
 20
13.98072419751383
 30
0.0
 11
189.6886128891291
 21
13.98072419751383
 31
0.0
  0
LINE
  5
3A4
  8
LAYER1
 62
    18
 10
201.098612889129
 20
13.98072419751383
 30
0.0
 11
203.138612889129
 21
13.98072419751383
 31
0.0
  0
LINE
  5
3A5
  8
LAYER1
 62
    18
 10
176.238612889129
 20
13.98072419751383
 30
0.0
 11
176.238612889129
 21
21.98072419751386
 31
0.0
  0
LINE
  5
3A6
  8
LAYER1
 62
    18
 10
187.648612889129
 20
21.98072419751386
 30
0.0
 11
187.648612889129
 21
13.98072419751383
 31
0.0
  0
LINE
  5
3A7
  8
LAYER1
 62
    18
 10
176.238612889129
 20
21.98072419751386
 30
0.0
 11
187.648612889129
 21
21.98072419751386
 31
0.0
  0
LINE
  5
3A8
  8
LAYER1
 62
    18
 10
189.6886128891291
 20
13.98072419751383
 30
0.0
 11
189.6886128891291
 21
21.98072419751386
 31
0.0
  0
LINE
  5
3A9
  8
LAYER1
 62
    18
 10
189.6886128891291
 20
21.98072419751386
 30
0.0
 11
201.098612889129
 21
21.98072419751386
 31
0.0
  0
LINE
  5
3AA
  8
LAYER1
 62
    18
 10
201.098612889129
 20
21.98072419751386
 30
0.0
 11
201.098612889129
 21
13.98072419751383
 31
0.0
  0
LINE
  5
3AB
  8
LAYER1
 62
    18
 10
214.548612889129
 20
13.98072419751383
 30
0.0
 11
216.5886128891291
 21
13.98072419751383
 31
0.0
  0
LINE
  5
3AC
  8
LAYER1
 62
    18
 10
227.9986128891289
 20
13.98072419751383
 30
0.0
 11
230.038612889129
 21
13.98072419751383
 31
0.0
  0
LINE
  5
3AD
  8
LAYER1
 62
    18
 10
203.138612889129
 20
13.98072419751383
 30
0.0
 11
203.138612889129
 21
21.98072419751386
 31
0.0
  0
LINE
  5
3AE
  8
LAYER1
 62
    18
 10
214.548612889129
 20
21.98072419751386
 30
0.0
 11
214.548612889129
 21
13.98072419751383
 31
0.0
  0
LINE
  5
3AF
  8
LAYER1
 62
    18
 10
203.138612889129
 20
21.98072419751386
 30
0.0
 11
214.548612889129
 21
21.98072419751386
 31
0.0
  0
LINE
  5
3B0
  8
LAYER1
 62
    18
 10
216.5886128891291
 20
13.98072419751383
 30
0.0
 11
216.5886128891291
 21
21.98072419751386
 31
0.0
  0
LINE
  5
3B1
  8
LAYER1
 62
    18
 10
216.5886128891291
 20
21.98072419751386
 30
0.0
 11
227.9986128891289
 21
21.98072419751386
 31
0.0
  0
LINE
  5
3B2
  8
LAYER1
 62
    18
 10
227.9986128891289
 20
21.98072419751386
 30
0.0
 11
227.9986128891289
 21
13.98072419751383
 31
0.0
  0
LINE
  5
3B3
  8
LAYER1
 62
    18
 10
241.448612889129
 20
13.98072419751383
 30
0.0
 11
243.488612889129
 21
13.98072419751383
 31
0.0
  0
LINE
  5
3B4
  8
LAYER1
 62
    18
 10
254.8986128891289
 20
13.98072419751383
 30
0.0
 11
256.9386128891289
 21
13.98072419751383
 31
0.0
  0
LINE
  5
3B5
  8
LAYER1
 62
    18
 10
230.038612889129
 20
13.98072419751383
 30
0.0
 11
230.038612889129
 21
21.98072419751386
 31
0.0
  0
LINE
  5
3B6
  8
LAYER1
 62
    18
 10
241.448612889129
 20
21.98072419751386
 30
0.0
 11
241.448612889129
 21
13.98072419751383
 31
0.0
  0
LINE
  5
3B7
  8
LAYER1
 62
    18
 10
230.038612889129
 20
21.98072419751386
 30
0.0
 11
241.448612889129
 21
21.98072419751386
 31
0.0
  0
LINE
  5
3B8
  8
LAYER1
 62
    18
 10
243.488612889129
 20
13.98072419751383
 30
0.0
 11
243.488612889129
 21
21.98072419751386
 31
0.0
  0
LINE
  5
3B9
  8
LAYER1
 62
    18
 10
243.488612889129
 20
21.98072419751386
 30
0.0
 11
254.8986128891289
 21
21.98072419751386
 31
0.0
  0
LINE
  5
3BA
  8
LAYER1
 62
    18
 10
254.8986128891289
 20
21.98072419751386
 30
0.0
 11
254.8986128891289
 21
13.98072419751383
 31
0.0
  0
LINE
  5
3BB
  8
LAYER1
 62
    18
 10
268.348612889129
 20
13.98072419751383
 30
0.0
 11
270.388612889129
 21
13.98072419751383
 31
0.0
  0
LINE
  5
3BC
  8
LAYER1
 62
    18
 10
256.9386128891289
 20
13.98072419751383
 30
0.0
 11
256.9386128891289
 21
21.98072419751386
 31
0.0
  0
LINE
  5
3BD
  8
LAYER1
 62
    18
 10
268.348612889129
 20
21.98072419751386
 30
0.0
 11
268.348612889129
 21
13.98072419751383
 31
0.0
  0
LINE
  5
3BE
  8
LAYER1
 62
    18
 10
256.9386128891289
 20
21.98072419751386
 30
0.0
 11
268.348612889129
 21
21.98072419751386
 31
0.0
  0
LINE
  5
3BF
  8
LAYER1
 62
    18
 10
270.388612889129
 20
13.98072419751383
 30
0.0
 11
270.388612889129
 21
21.98072419751386
 31
0.0
  0
LINE
  5
3C0
  8
LAYER1
 62
    18
 10
270.388612889129
 20
21.98072419751386
 30
0.0
 11
281.7986128891289
 21
21.98072419751386
 31
0.0
  0
LINE
  5
3C1
  8
LAYER1
 62
    18
 10
281.7986128891289
 20
21.98072419751386
 30
0.0
 11
281.7986128891289
 21
13.98072419751383
 31
0.0
  0
LINE
  5
3C2
  8
LAYER1
 62
    18
 10
12.79861288912924
 20
5.980724197513843
 30
0.0
 11
12.79861288912924
 21
13.98072419751383
 31
0.0
  0
LINE
  5
3C3
  8
LAYER1
 62
    18
 10
281.7986128891289
 20
13.98072419751383
 30
0.0
 11
282.8186128891289
 21
13.98072419751383
 31
0.0
  0
LINE
  5
3C4
  8
LAYER1
 62
    18
 10
12.79861288912924
 20
5.980724197513843
 30
0.0
 11
282.8186128891289
 21
5.980724197513843
 31
0.0
  0
LINE
  5
3C5
  8
LAYER1
 62
    18
 10
282.8186128891289
 20
5.980724197513843
 30
0.0
 11
282.8186128891289
 21
13.98072419751383
 31
0.0
  0
LINE
  5
3C6
  8
LAYER1
 62
    18
 10
339.445527518979
 20
40.27074901554808
 30
0.0
 11
339.445527518979
 21
42.31074901554805
 31
0.0
  0
LINE
  5
3C7
  8
LAYER1
 62
    18
 10
339.445527518979
 20
53.720749015548
 30
0.0
 11
339.445527518979
 21
55.76074901554797
 31
0.0
  0
LINE
  5
3C8
  8
LAYER1
 62
    18
 10
339.445527518979
 20
28.86074901554804
 30
0.0
 11
331.4455275189788
 21
28.86074901554804
 31
0.0
  0
LINE
  5
3C9
  8
LAYER1
 62
    18
 10
331.4455275189788
 20
40.27074901554808
 30
0.0
 11
339.445527518979
 21
40.27074901554808
 31
0.0
  0
LINE
  5
3CA
  8
LAYER1
 62
    18
 10
331.4455275189788
 20
28.86074901554804
 30
0.0
 11
331.4455275189788
 21
40.27074901554808
 31
0.0
  0
LINE
  5
3CB
  8
LAYER1
 62
    18
 10
339.445527518979
 20
42.31074901554805
 30
0.0
 11
331.4455275189788
 21
42.31074901554805
 31
0.0
  0
LINE
  5
3CC
  8
LAYER1
 62
    18
 10
331.4455275189788
 20
42.31074901554805
 30
0.0
 11
331.4455275189788
 21
53.720749015548
 31
0.0
  0
LINE
  5
3CD
  8
LAYER1
 62
    18
 10
331.4455275189788
 20
53.720749015548
 30
0.0
 11
339.445527518979
 21
53.720749015548
 31
0.0
  0
LINE
  5
3CE
  8
LAYER1
 62
    18
 10
339.445527518979
 20
67.17074901554801
 30
0.0
 11
339.445527518979
 21
69.21074901554807
 31
0.0
  0
LINE
  5
3CF
  8
LAYER1
 62
    18
 10
339.445527518979
 20
80.62074901554793
 30
0.0
 11
339.445527518979
 21
82.66074901554799
 31
0.0
  0
LINE
  5
3D0
  8
LAYER1
 62
    18
 10
339.445527518979
 20
55.76074901554797
 30
0.0
 11
331.4455275189788
 21
55.76074901554797
 31
0.0
  0
LINE
  5
3D1
  8
LAYER1
 62
    18
 10
331.4455275189788
 20
67.17074901554801
 30
0.0
 11
339.445527518979
 21
67.17074901554801
 31
0.0
  0
LINE
  5
3D2
  8
LAYER1
 62
    18
 10
331.4455275189788
 20
55.76074901554797
 30
0.0
 11
331.4455275189788
 21
67.17074901554801
 31
0.0
  0
LINE
  5
3D3
  8
LAYER1
 62
    18
 10
339.445527518979
 20
69.21074901554807
 30
0.0
 11
331.4455275189788
 21
69.21074901554807
 31
0.0
  0
LINE
  5
3D4
  8
LAYER1
 62
    18
 10
331.4455275189788
 20
69.21074901554807
 30
0.0
 11
331.4455275189788
 21
80.62074901554793
 31
0.0
  0
LINE
  5
3D5
  8
LAYER1
 62
    18
 10
331.4455275189788
 20
80.62074901554793
 30
0.0
 11
339.445527518979
 21
80.62074901554793
 31
0.0
  0
LINE
  5
3D6
  8
LAYER1
 62
    18
 10
339.445527518979
 20
94.07074901554803
 30
0.0
 11
339.445527518979
 21
96.110749015548
 31
0.0
  0
LINE
  5
3D7
  8
LAYER1
 62
    18
 10
339.445527518979
 20
107.5207490155479
 30
0.0
 11
339.445527518979
 21
109.5607490155479
 31
0.0
  0
LINE
  5
3D8
  8
LAYER1
 62
    18
 10
339.445527518979
 20
82.66074901554799
 30
0.0
 11
331.4455275189788
 21
82.66074901554799
 31
0.0
  0
LINE
  5
3D9
  8
LAYER1
 62
    18
 10
331.4455275189788
 20
94.07074901554803
 30
0.0
 11
339.445527518979
 21
94.07074901554803
 31
0.0
  0
LINE
  5
3DA
  8
LAYER1
 62
    18
 10
331.4455275189788
 20
82.66074901554799
 30
0.0
 11
331.4455275189788
 21
94.07074901554803
 31
0.0
  0
LINE
  5
3DB
  8
LAYER1
 62
    18
 10
339.445527518979
 20
96.110749015548
 30
0.0
 11
331.4455275189788
 21
96.110749015548
 31
0.0
  0
LINE
  5
3DC
  8
LAYER1
 62
    18
 10
331.4455275189788
 20
96.110749015548
 30
0.0
 11
331.4455275189788
 21
107.5207490155479
 31
0.0
  0
LINE
  5
3DD
  8
LAYER1
 62
    18
 10
331.4455275189788
 20
107.5207490155479
 30
0.0
 11
339.445527518979
 21
107.5207490155479
 31
0.0
  0
LINE
  5
3DE
  8
LAYER1
 62
    18
 10
339.445527518979
 20
120.9707490155481
 30
0.0
 11
339.445527518979
 21
123.010749015548
 31
0.0
  0
LINE
  5
3DF
  8
LAYER1
 62
    18
 10
339.445527518979
 20
134.4207490155479
 30
0.0
 11
339.445527518979
 21
136.4607490155481
 31
0.0
  0
LINE
  5
3E0
  8
LAYER1
 62
    18
 10
339.445527518979
 20
109.5607490155479
 30
0.0
 11
331.4455275189788
 21
109.5607490155479
 31
0.0
  0
LINE
  5
3E1
  8
LAYER1
 62
    18
 10
331.4455275189788
 20
120.9707490155481
 30
0.0
 11
339.445527518979
 21
120.9707490155481
 31
0.0
  0
LINE
  5
3E2
  8
LAYER1
 62
    18
 10
331.4455275189788
 20
109.5607490155479
 30
0.0
 11
331.4455275189788
 21
120.9707490155481
 31
0.0
  0
LINE
  5
3E3
  8
LAYER1
 62
    18
 10
339.445527518979
 20
123.010749015548
 30
0.0
 11
331.4455275189788
 21
123.010749015548
 31
0.0
  0
LINE
  5
3E4
  8
LAYER1
 62
    18
 10
331.4455275189788
 20
123.010749015548
 30
0.0
 11
331.4455275189788
 21
134.4207490155479
 31
0.0
  0
LINE
  5
3E5
  8
LAYER1
 62
    18
 10
331.4455275189788
 20
134.4207490155479
 30
0.0
 11
339.445527518979
 21
134.4207490155479
 31
0.0
  0
LINE
  5
3E6
  8
LAYER1
 62
    18
 10
339.445527518979
 20
147.8707490155481
 30
0.0
 11
339.445527518979
 21
149.9107490155481
 31
0.0
  0
LINE
  5
3E7
  8
LAYER1
 62
    18
 10
339.445527518979
 20
161.3207490155479
 30
0.0
 11
339.445527518979
 21
163.3607490155479
 31
0.0
  0
LINE
  5
3E8
  8
LAYER1
 62
    18
 10
339.445527518979
 20
136.4607490155481
 30
0.0
 11
331.4455275189788
 21
136.4607490155481
 31
0.0
  0
LINE
  5
3E9
  8
LAYER1
 62
    18
 10
331.4455275189788
 20
147.8707490155481
 30
0.0
 11
339.445527518979
 21
147.8707490155481
 31
0.0
  0
LINE
  5
3EA
  8
LAYER1
 62
    18
 10
331.4455275189788
 20
136.4607490155481
 30
0.0
 11
331.4455275189788
 21
147.8707490155481
 31
0.0
  0
LINE
  5
3EB
  8
LAYER1
 62
    18
 10
339.445527518979
 20
149.9107490155481
 30
0.0
 11
331.4455275189788
 21
149.9107490155481
 31
0.0
  0
LINE
  5
3EC
  8
LAYER1
 62
    18
 10
331.4455275189788
 20
149.9107490155481
 30
0.0
 11
331.4455275189788
 21
161.3207490155479
 31
0.0
  0
LINE
  5
3ED
  8
LAYER1
 62
    18
 10
331.4455275189788
 20
161.3207490155479
 30
0.0
 11
339.445527518979
 21
161.3207490155479
 31
0.0
  0
LINE
  5
3EE
  8
LAYER1
 62
    18
 10
339.445527518979
 20
174.7707490155479
 30
0.0
 11
339.445527518979
 21
176.8107490155481
 31
0.0
  0
LINE
  5
3EF
  8
LAYER1
 62
    18
 10
339.445527518979
 20
188.2207490155479
 30
0.0
 11
339.445527518979
 21
190.2607490155478
 31
0.0
  0
LINE
  5
3F0
  8
LAYER1
 62
    18
 10
339.445527518979
 20
163.3607490155479
 30
0.0
 11
331.4455275189788
 21
163.3607490155479
 31
0.0
  0
LINE
  5
3F1
  8
LAYER1
 62
    18
 10
331.4455275189788
 20
174.7707490155479
 30
0.0
 11
339.445527518979
 21
174.7707490155479
 31
0.0
  0
LINE
  5
3F2
  8
LAYER1
 62
    18
 10
331.4455275189788
 20
163.3607490155479
 30
0.0
 11
331.4455275189788
 21
174.7707490155479
 31
0.0
  0
LINE
  5
3F3
  8
LAYER1
 62
    18
 10
339.445527518979
 20
176.8107490155481
 30
0.0
 11
331.4455275189788
 21
176.8107490155481
 31
0.0
  0
LINE
  5
3F4
  8
LAYER1
 62
    18
 10
331.4455275189788
 20
176.8107490155481
 30
0.0
 11
331.4455275189788
 21
188.2207490155479
 31
0.0
  0
LINE
  5
3F5
  8
LAYER1
 62
    18
 10
331.4455275189788
 20
188.2207490155479
 30
0.0
 11
339.445527518979
 21
188.2207490155479
 31
0.0
  0
LINE
  5
3F6
  8
LAYER1
 62
    18
 10
339.445527518979
 20
190.2607490155478
 30
0.0
 11
347.4455275189789
 21
190.2607490155478
 31
0.0
  0
LINE
  5
3F7
  8
LAYER1
 62
    18
 10
339.445527518979
 20
28.86074901554804
 30
0.0
 11
339.445527518979
 21
27.84074901554806
 31
0.0
  0
LINE
  5
3F8
  8
LAYER1
 62
    18
 10
339.445527518979
 20
27.84074901554806
 30
0.0
 11
347.4455275189789
 21
27.84074901554806
 31
0.0
  0
LINE
  5
3F9
  8
LAYER1
 62
    18
 10
347.4455275189789
 20
27.84074901554806
 30
0.0
 11
347.4455275189789
 21
190.2607490155478
 31
0.0
  0
LINE
  5
3FA
  8
LAYER1
 62
    18
 10
358.7405158373336
 20
40.27074901554808
 30
0.0
 11
358.7405158373336
 21
42.31074901554805
 31
0.0
  0
LINE
  5
3FB
  8
LAYER1
 62
    18
 10
358.7405158373336
 20
53.720749015548
 30
0.0
 11
358.7405158373336
 21
55.76074901554797
 31
0.0
  0
LINE
  5
3FC
  8
LAYER1
 62
    18
 10
358.7405158373336
 20
28.86074901554804
 30
0.0
 11
350.7405158373336
 21
28.86074901554804
 31
0.0
  0
LINE
  5
3FD
  8
LAYER1
 62
    18
 10
350.7405158373336
 20
40.27074901554808
 30
0.0
 11
358.7405158373336
 21
40.27074901554808
 31
0.0
  0
LINE
  5
3FE
  8
LAYER1
 62
    18
 10
350.7405158373336
 20
28.86074901554804
 30
0.0
 11
350.7405158373336
 21
40.27074901554808
 31
0.0
  0
LINE
  5
3FF
  8
LAYER1
 62
    18
 10
358.7405158373336
 20
42.31074901554805
 30
0.0
 11
350.7405158373336
 21
42.31074901554805
 31
0.0
  0
LINE
  5
400
  8
LAYER1
 62
    18
 10
350.7405158373336
 20
42.31074901554805
 30
0.0
 11
350.7405158373336
 21
53.720749015548
 31
0.0
  0
LINE
  5
401
  8
LAYER1
 62
    18
 10
350.7405158373336
 20
53.720749015548
 30
0.0
 11
358.7405158373336
 21
53.720749015548
 31
0.0
  0
LINE
  5
402
  8
LAYER1
 62
    18
 10
358.7405158373336
 20
67.17074901554801
 30
0.0
 11
358.7405158373336
 21
69.21074901554807
 31
0.0
  0
LINE
  5
403
  8
LAYER1
 62
    18
 10
358.7405158373336
 20
80.62074901554793
 30
0.0
 11
358.7405158373336
 21
82.66074901554799
 31
0.0
  0
LINE
  5
404
  8
LAYER1
 62
    18
 10
358.7405158373336
 20
55.76074901554797
 30
0.0
 11
350.7405158373336
 21
55.76074901554797
 31
0.0
  0
LINE
  5
405
  8
LAYER1
 62
    18
 10
350.7405158373336
 20
67.17074901554801
 30
0.0
 11
358.7405158373336
 21
67.17074901554801
 31
0.0
  0
LINE
  5
406
  8
LAYER1
 62
    18
 10
350.7405158373336
 20
55.76074901554797
 30
0.0
 11
350.7405158373336
 21
67.17074901554801
 31
0.0
  0
LINE
  5
407
  8
LAYER1
 62
    18
 10
358.7405158373336
 20
69.21074901554807
 30
0.0
 11
350.7405158373336
 21
69.21074901554807
 31
0.0
  0
LINE
  5
408
  8
LAYER1
 62
    18
 10
350.7405158373336
 20
69.21074901554807
 30
0.0
 11
350.7405158373336
 21
80.62074901554793
 31
0.0
  0
LINE
  5
409
  8
LAYER1
 62
    18
 10
350.7405158373336
 20
80.62074901554793
 30
0.0
 11
358.7405158373336
 21
80.62074901554793
 31
0.0
  0
LINE
  5
40A
  8
LAYER1
 62
    18
 10
358.7405158373336
 20
94.07074901554803
 30
0.0
 11
358.7405158373336
 21
96.110749015548
 31
0.0
  0
LINE
  5
40B
  8
LAYER1
 62
    18
 10
358.7405158373336
 20
107.5207490155479
 30
0.0
 11
358.7405158373336
 21
109.5607490155479
 31
0.0
  0
LINE
  5
40C
  8
LAYER1
 62
    18
 10
358.7405158373336
 20
82.66074901554799
 30
0.0
 11
350.7405158373336
 21
82.66074901554799
 31
0.0
  0
LINE
  5
40D
  8
LAYER1
 62
    18
 10
350.7405158373336
 20
94.07074901554803
 30
0.0
 11
358.7405158373336
 21
94.07074901554803
 31
0.0
  0
LINE
  5
40E
  8
LAYER1
 62
    18
 10
350.7405158373336
 20
82.66074901554799
 30
0.0
 11
350.7405158373336
 21
94.07074901554803
 31
0.0
  0
LINE
  5
40F
  8
LAYER1
 62
    18
 10
358.7405158373336
 20
96.110749015548
 30
0.0
 11
350.7405158373336
 21
96.110749015548
 31
0.0
  0
LINE
  5
410
  8
LAYER1
 62
    18
 10
350.7405158373336
 20
96.110749015548
 30
0.0
 11
350.7405158373336
 21
107.5207490155479
 31
0.0
  0
LINE
  5
411
  8
LAYER1
 62
    18
 10
350.7405158373336
 20
107.5207490155479
 30
0.0
 11
358.7405158373336
 21
107.5207490155479
 31
0.0
  0
LINE
  5
412
  8
LAYER1
 62
    18
 10
358.7405158373336
 20
120.9707490155481
 30
0.0
 11
358.7405158373336
 21
123.010749015548
 31
0.0
  0
LINE
  5
413
  8
LAYER1
 62
    18
 10
358.7405158373336
 20
134.4207490155479
 30
0.0
 11
358.7405158373336
 21
136.4607490155481
 31
0.0
  0
LINE
  5
414
  8
LAYER1
 62
    18
 10
358.7405158373336
 20
109.5607490155479
 30
0.0
 11
350.7405158373336
 21
109.5607490155479
 31
0.0
  0
LINE
  5
415
  8
LAYER1
 62
    18
 10
350.7405158373336
 20
120.9707490155481
 30
0.0
 11
358.7405158373336
 21
120.9707490155481
 31
0.0
  0
LINE
  5
416
  8
LAYER1
 62
    18
 10
350.7405158373336
 20
109.5607490155479
 30
0.0
 11
350.7405158373336
 21
120.9707490155481
 31
0.0
  0
LINE
  5
417
  8
LAYER1
 62
    18
 10
358.7405158373336
 20
123.010749015548
 30
0.0
 11
350.7405158373336
 21
123.010749015548
 31
0.0
  0
LINE
  5
418
  8
LAYER1
 62
    18
 10
350.7405158373336
 20
123.010749015548
 30
0.0
 11
350.7405158373336
 21
134.4207490155479
 31
0.0
  0
LINE
  5
419
  8
LAYER1
 62
    18
 10
350.7405158373336
 20
134.4207490155479
 30
0.0
 11
358.7405158373336
 21
134.4207490155479
 31
0.0
  0
LINE
  5
41A
  8
LAYER1
 62
    18
 10
358.7405158373336
 20
147.8707490155481
 30
0.0
 11
358.7405158373336
 21
149.9107490155481
 31
0.0
  0
LINE
  5
41B
  8
LAYER1
 62
    18
 10
358.7405158373336
 20
161.3207490155479
 30
0.0
 11
358.7405158373336
 21
163.3607490155479
 31
0.0
  0
LINE
  5
41C
  8
LAYER1
 62
    18
 10
358.7405158373336
 20
136.4607490155481
 30
0.0
 11
350.7405158373336
 21
136.4607490155481
 31
0.0
  0
LINE
  5
41D
  8
LAYER1
 62
    18
 10
350.7405158373336
 20
147.8707490155481
 30
0.0
 11
358.7405158373336
 21
147.8707490155481
 31
0.0
  0
LINE
  5
41E
  8
LAYER1
 62
    18
 10
350.7405158373336
 20
136.4607490155481
 30
0.0
 11
350.7405158373336
 21
147.8707490155481
 31
0.0
  0
LINE
  5
41F
  8
LAYER1
 62
    18
 10
358.7405158373336
 20
149.9107490155481
 30
0.0
 11
350.7405158373336
 21
149.9107490155481
 31
0.0
  0
LINE
  5
420
  8
LAYER1
 62
    18
 10
350.7405158373336
 20
149.9107490155481
 30
0.0
 11
350.7405158373336
 21
161.3207490155479
 31
0.0
  0
LINE
  5
421
  8
LAYER1
 62
    18
 10
350.7405158373336
 20
161.3207490155479
 30
0.0
 11
358.7405158373336
 21
161.3207490155479
 31
0.0
  0
LINE
  5
422
  8
LAYER1
 62
    18
 10
358.7405158373336
 20
174.7707490155479
 30
0.0
 11
358.7405158373336
 21
176.8107490155481
 31
0.0
  0
LINE
  5
423
  8
LAYER1
 62
    18
 10
358.7405158373336
 20
188.2207490155479
 30
0.0
 11
358.7405158373336
 21
190.2607490155478
 31
0.0
  0
LINE
  5
424
  8
LAYER1
 62
    18
 10
358.7405158373336
 20
163.3607490155479
 30
0.0
 11
350.7405158373336
 21
163.3607490155479
 31
0.0
  0
LINE
  5
425
  8
LAYER1
 62
    18
 10
350.7405158373336
 20
174.7707490155479
 30
0.0
 11
358.7405158373336
 21
174.7707490155479
 31
0.0
  0
LINE
  5
426
  8
LAYER1
 62
    18
 10
350.7405158373336
 20
163.3607490155479
 30
0.0
 11
350.7405158373336
 21
174.7707490155479
 31
0.0
  0
LINE
  5
427
  8
LAYER1
 62
    18
 10
358.7405158373336
 20
176.8107490155481
 30
0.0
 11
350.7405158373336
 21
176.8107490155481
 31
0.0
  0
LINE
  5
428
  8
LAYER1
 62
    18
 10
350.7405158373336
 20
176.8107490155481
 30
0.0
 11
350.7405158373336
 21
188.2207490155479
 31
0.0
  0
LINE
  5
429
  8
LAYER1
 62
    18
 10
350.7405158373336
 20
188.2207490155479
 30
0.0
 11
358.7405158373336
 21
188.2207490155479
 31
0.0
  0
LINE
  5
42A
  8
LAYER1
 62
    18
 10
358.7405158373336
 20
190.2607490155478
 30
0.0
 11
366.7405158373336
 21
190.2607490155478
 31
0.0
  0
LINE
  5
42B
  8
LAYER1
 62
    18
 10
358.7405158373336
 20
28.86074901554804
 30
0.0
 11
358.7405158373336
 21
27.84074901554806
 31
0.0
  0
LINE
  5
42C
  8
LAYER1
 62
    18
 10
358.7405158373336
 20
27.84074901554806
 30
0.0
 11
366.7405158373336
 21
27.84074901554806
 31
0.0
  0
LINE
  5
42D
  8
LAYER1
 62
    18
 10
366.7405158373336
 20
27.84074901554806
 30
0.0
 11
366.7405158373336
 21
190.2607490155478
 31
0.0
  0
LINE
  5
42E
  8
LAYER1
 62
    18
 10
378.5061136268694
 20
40.27074901554808
 30
0.0
 11
378.5061136268694
 21
42.31074901554805
 31
0.0
  0
LINE
  5
42F
  8
LAYER1
 62
    18
 10
378.5061136268694
 20
53.720749015548
 30
0.0
 11
378.5061136268694
 21
55.76074901554797
 31
0.0
  0
LINE
  5
430
  8
LAYER1
 62
    18
 10
378.5061136268694
 20
28.86074901554804
 30
0.0
 11
370.5061136268694
 21
28.86074901554804
 31
0.0
  0
LINE
  5
431
  8
LAYER1
 62
    18
 10
370.5061136268694
 20
40.27074901554808
 30
0.0
 11
378.5061136268694
 21
40.27074901554808
 31
0.0
  0
LINE
  5
432
  8
LAYER1
 62
    18
 10
370.5061136268694
 20
28.86074901554804
 30
0.0
 11
370.5061136268694
 21
40.27074901554808
 31
0.0
  0
LINE
  5
433
  8
LAYER1
 62
    18
 10
378.5061136268694
 20
42.31074901554805
 30
0.0
 11
370.5061136268694
 21
42.31074901554805
 31
0.0
  0
LINE
  5
434
  8
LAYER1
 62
    18
 10
370.5061136268694
 20
42.31074901554805
 30
0.0
 11
370.5061136268694
 21
53.720749015548
 31
0.0
  0
LINE
  5
435
  8
LAYER1
 62
    18
 10
370.5061136268694
 20
53.720749015548
 30
0.0
 11
378.5061136268694
 21
53.720749015548
 31
0.0
  0
LINE
  5
436
  8
LAYER1
 62
    18
 10
378.5061136268694
 20
67.17074901554801
 30
0.0
 11
378.5061136268694
 21
69.21074901554807
 31
0.0
  0
LINE
  5
437
  8
LAYER1
 62
    18
 10
378.5061136268694
 20
80.62074901554793
 30
0.0
 11
378.5061136268694
 21
82.66074901554799
 31
0.0
  0
LINE
  5
438
  8
LAYER1
 62
    18
 10
378.5061136268694
 20
55.76074901554797
 30
0.0
 11
370.5061136268694
 21
55.76074901554797
 31
0.0
  0
LINE
  5
439
  8
LAYER1
 62
    18
 10
370.5061136268694
 20
67.17074901554801
 30
0.0
 11
378.5061136268694
 21
67.17074901554801
 31
0.0
  0
LINE
  5
43A
  8
LAYER1
 62
    18
 10
370.5061136268694
 20
55.76074901554797
 30
0.0
 11
370.5061136268694
 21
67.17074901554801
 31
0.0
  0
LINE
  5
43B
  8
LAYER1
 62
    18
 10
378.5061136268694
 20
69.21074901554807
 30
0.0
 11
370.5061136268694
 21
69.21074901554807
 31
0.0
  0
LINE
  5
43C
  8
LAYER1
 62
    18
 10
370.5061136268694
 20
69.21074901554807
 30
0.0
 11
370.5061136268694
 21
80.62074901554793
 31
0.0
  0
LINE
  5
43D
  8
LAYER1
 62
    18
 10
370.5061136268694
 20
80.62074901554793
 30
0.0
 11
378.5061136268694
 21
80.62074901554793
 31
0.0
  0
LINE
  5
43E
  8
LAYER1
 62
    18
 10
378.5061136268694
 20
94.07074901554803
 30
0.0
 11
378.5061136268694
 21
96.110749015548
 31
0.0
  0
LINE
  5
43F
  8
LAYER1
 62
    18
 10
378.5061136268694
 20
107.5207490155479
 30
0.0
 11
378.5061136268694
 21
109.5607490155479
 31
0.0
  0
LINE
  5
440
  8
LAYER1
 62
    18
 10
378.5061136268694
 20
82.66074901554799
 30
0.0
 11
370.5061136268694
 21
82.66074901554799
 31
0.0
  0
LINE
  5
441
  8
LAYER1
 62
    18
 10
370.5061136268694
 20
94.07074901554803
 30
0.0
 11
378.5061136268694
 21
94.07074901554803
 31
0.0
  0
LINE
  5
442
  8
LAYER1
 62
    18
 10
370.5061136268694
 20
82.66074901554799
 30
0.0
 11
370.5061136268694
 21
94.07074901554803
 31
0.0
  0
LINE
  5
443
  8
LAYER1
 62
    18
 10
378.5061136268694
 20
96.110749015548
 30
0.0
 11
370.5061136268694
 21
96.110749015548
 31
0.0
  0
LINE
  5
444
  8
LAYER1
 62
    18
 10
370.5061136268694
 20
96.110749015548
 30
0.0
 11
370.5061136268694
 21
107.5207490155479
 31
0.0
  0
LINE
  5
445
  8
LAYER1
 62
    18
 10
370.5061136268694
 20
107.5207490155479
 30
0.0
 11
378.5061136268694
 21
107.5207490155479
 31
0.0
  0
LINE
  5
446
  8
LAYER1
 62
    18
 10
378.5061136268694
 20
120.9707490155481
 30
0.0
 11
378.5061136268694
 21
123.010749015548
 31
0.0
  0
LINE
  5
447
  8
LAYER1
 62
    18
 10
378.5061136268694
 20
134.4207490155479
 30
0.0
 11
378.5061136268694
 21
136.4607490155481
 31
0.0
  0
LINE
  5
448
  8
LAYER1
 62
    18
 10
378.5061136268694
 20
109.5607490155479
 30
0.0
 11
370.5061136268694
 21
109.5607490155479
 31
0.0
  0
LINE
  5
449
  8
LAYER1
 62
    18
 10
370.5061136268694
 20
120.9707490155481
 30
0.0
 11
378.5061136268694
 21
120.9707490155481
 31
0.0
  0
LINE
  5
44A
  8
LAYER1
 62
    18
 10
370.5061136268694
 20
109.5607490155479
 30
0.0
 11
370.5061136268694
 21
120.9707490155481
 31
0.0
  0
LINE
  5
44B
  8
LAYER1
 62
    18
 10
378.5061136268694
 20
123.010749015548
 30
0.0
 11
370.5061136268694
 21
123.010749015548
 31
0.0
  0
LINE
  5
44C
  8
LAYER1
 62
    18
 10
370.5061136268694
 20
123.010749015548
 30
0.0
 11
370.5061136268694
 21
134.4207490155479
 31
0.0
  0
LINE
  5
44D
  8
LAYER1
 62
    18
 10
370.5061136268694
 20
134.4207490155479
 30
0.0
 11
378.5061136268694
 21
134.4207490155479
 31
0.0
  0
LINE
  5
44E
  8
LAYER1
 62
    18
 10
378.5061136268694
 20
147.8707490155481
 30
0.0
 11
378.5061136268694
 21
149.9107490155481
 31
0.0
  0
LINE
  5
44F
  8
LAYER1
 62
    18
 10
378.5061136268694
 20
161.3207490155479
 30
0.0
 11
378.5061136268694
 21
163.3607490155479
 31
0.0
  0
LINE
  5
450
  8
LAYER1
 62
    18
 10
378.5061136268694
 20
136.4607490155481
 30
0.0
 11
370.5061136268694
 21
136.4607490155481
 31
0.0
  0
LINE
  5
451
  8
LAYER1
 62
    18
 10
370.5061136268694
 20
147.8707490155481
 30
0.0
 11
378.5061136268694
 21
147.8707490155481
 31
0.0
  0
LINE
  5
452
  8
LAYER1
 62
    18
 10
370.5061136268694
 20
136.4607490155481
 30
0.0
 11
370.5061136268694
 21
147.8707490155481
 31
0.0
  0
LINE
  5
453
  8
LAYER1
 62
    18
 10
378.5061136268694
 20
149.9107490155481
 30
0.0
 11
370.5061136268694
 21
149.9107490155481
 31
0.0
  0
LINE
  5
454
  8
LAYER1
 62
    18
 10
370.5061136268694
 20
149.9107490155481
 30
0.0
 11
370.5061136268694
 21
161.3207490155479
 31
0.0
  0
LINE
  5
455
  8
LAYER1
 62
    18
 10
370.5061136268694
 20
161.3207490155479
 30
0.0
 11
378.5061136268694
 21
161.3207490155479
 31
0.0
  0
LINE
  5
456
  8
LAYER1
 62
    18
 10
378.5061136268694
 20
174.7707490155479
 30
0.0
 11
378.5061136268694
 21
176.8107490155481
 31
0.0
  0
LINE
  5
457
  8
LAYER1
 62
    18
 10
378.5061136268694
 20
188.2207490155479
 30
0.0
 11
378.5061136268694
 21
190.2607490155478
 31
0.0
  0
LINE
  5
458
  8
LAYER1
 62
    18
 10
378.5061136268694
 20
163.3607490155479
 30
0.0
 11
370.5061136268694
 21
163.3607490155479
 31
0.0
  0
LINE
  5
459
  8
LAYER1
 62
    18
 10
370.5061136268694
 20
174.7707490155479
 30
0.0
 11
378.5061136268694
 21
174.7707490155479
 31
0.0
  0
LINE
  5
45A
  8
LAYER1
 62
    18
 10
370.5061136268694
 20
163.3607490155479
 30
0.0
 11
370.5061136268694
 21
174.7707490155479
 31
0.0
  0
LINE
  5
45B
  8
LAYER1
 62
    18
 10
378.5061136268694
 20
176.8107490155481
 30
0.0
 11
370.5061136268694
 21
176.8107490155481
 31
0.0
  0
LINE
  5
45C
  8
LAYER1
 62
    18
 10
370.5061136268694
 20
176.8107490155481
 30
0.0
 11
370.5061136268694
 21
188.2207490155479
 31
0.0
  0
LINE
  5
45D
  8
LAYER1
 62
    18
 10
370.5061136268694
 20
188.2207490155479
 30
0.0
 11
378.5061136268694
 21
188.2207490155479
 31
0.0
  0
LINE
  5
45E
  8
LAYER1
 62
    18
 10
378.5061136268694
 20
190.2607490155478
 30
0.0
 11
386.5061136268694
 21
190.2607490155478
 31
0.0
  0
LINE
  5
45F
  8
LAYER1
 62
    18
 10
378.5061136268694
 20
28.86074901554804
 30
0.0
 11
378.5061136268694
 21
27.84074901554806
 31
0.0
  0
LINE
  5
460
  8
LAYER1
 62
    18
 10
378.5061136268694
 20
27.84074901554806
 30
0.0
 11
386.5061136268694
 21
27.84074901554806
 31
0.0
  0
LINE
  5
461
  8
LAYER1
 62
    18
 10
386.5061136268694
 20
27.84074901554806
 30
0.0
 11
386.5061136268694
 21
190.2607490155478
 31
0.0
  0
LINE
  5
462
  8
LAYER1
 62
    18
 10
397.801101945224
 20
40.27074901554808
 30
0.0
 11
397.801101945224
 21
42.31074901554805
 31
0.0
  0
LINE
  5
463
  8
LAYER1
 62
    18
 10
397.801101945224
 20
53.720749015548
 30
0.0
 11
397.801101945224
 21
55.76074901554797
 31
0.0
  0
LINE
  5
464
  8
LAYER1
 62
    18
 10
397.801101945224
 20
28.86074901554804
 30
0.0
 11
389.8011019452241
 21
28.86074901554804
 31
0.0
  0
LINE
  5
465
  8
LAYER1
 62
    18
 10
389.8011019452241
 20
40.27074901554808
 30
0.0
 11
397.801101945224
 21
40.27074901554808
 31
0.0
  0
LINE
  5
466
  8
LAYER1
 62
    18
 10
389.8011019452241
 20
28.86074901554804
 30
0.0
 11
389.8011019452241
 21
40.27074901554808
 31
0.0
  0
LINE
  5
467
  8
LAYER1
 62
    18
 10
397.801101945224
 20
42.31074901554805
 30
0.0
 11
389.8011019452241
 21
42.31074901554805
 31
0.0
  0
LINE
  5
468
  8
LAYER1
 62
    18
 10
389.8011019452241
 20
42.31074901554805
 30
0.0
 11
389.8011019452241
 21
53.720749015548
 31
0.0
  0
LINE
  5
469
  8
LAYER1
 62
    18
 10
389.8011019452241
 20
53.720749015548
 30
0.0
 11
397.801101945224
 21
53.720749015548
 31
0.0
  0
LINE
  5
46A
  8
LAYER1
 62
    18
 10
397.801101945224
 20
67.17074901554801
 30
0.0
 11
397.801101945224
 21
69.21074901554807
 31
0.0
  0
LINE
  5
46B
  8
LAYER1
 62
    18
 10
397.801101945224
 20
80.62074901554793
 30
0.0
 11
397.801101945224
 21
82.66074901554799
 31
0.0
  0
LINE
  5
46C
  8
LAYER1
 62
    18
 10
397.801101945224
 20
55.76074901554797
 30
0.0
 11
389.8011019452241
 21
55.76074901554797
 31
0.0
  0
LINE
  5
46D
  8
LAYER1
 62
    18
 10
389.8011019452241
 20
67.17074901554801
 30
0.0
 11
397.801101945224
 21
67.17074901554801
 31
0.0
  0
LINE
  5
46E
  8
LAYER1
 62
    18
 10
389.8011019452241
 20
55.76074901554797
 30
0.0
 11
389.8011019452241
 21
67.17074901554801
 31
0.0
  0
LINE
  5
46F
  8
LAYER1
 62
    18
 10
397.801101945224
 20
69.21074901554807
 30
0.0
 11
389.8011019452241
 21
69.21074901554807
 31
0.0
  0
LINE
  5
470
  8
LAYER1
 62
    18
 10
389.8011019452241
 20
69.21074901554807
 30
0.0
 11
389.8011019452241
 21
80.62074901554793
 31
0.0
  0
LINE
  5
471
  8
LAYER1
 62
    18
 10
389.8011019452241
 20
80.62074901554793
 30
0.0
 11
397.801101945224
 21
80.62074901554793
 31
0.0
  0
LINE
  5
472
  8
LAYER1
 62
    18
 10
397.801101945224
 20
94.07074901554803
 30
0.0
 11
397.801101945224
 21
96.110749015548
 31
0.0
  0
LINE
  5
473
  8
LAYER1
 62
    18
 10
397.801101945224
 20
107.5207490155479
 30
0.0
 11
397.801101945224
 21
109.5607490155479
 31
0.0
  0
LINE
  5
474
  8
LAYER1
 62
    18
 10
397.801101945224
 20
82.66074901554799
 30
0.0
 11
389.8011019452241
 21
82.66074901554799
 31
0.0
  0
LINE
  5
475
  8
LAYER1
 62
    18
 10
389.8011019452241
 20
94.07074901554803
 30
0.0
 11
397.801101945224
 21
94.07074901554803
 31
0.0
  0
LINE
  5
476
  8
LAYER1
 62
    18
 10
389.8011019452241
 20
82.66074901554799
 30
0.0
 11
389.8011019452241
 21
94.07074901554803
 31
0.0
  0
LINE
  5
477
  8
LAYER1
 62
    18
 10
397.801101945224
 20
96.110749015548
 30
0.0
 11
389.8011019452241
 21
96.110749015548
 31
0.0
  0
LINE
  5
478
  8
LAYER1
 62
    18
 10
389.8011019452241
 20
96.110749015548
 30
0.0
 11
389.8011019452241
 21
107.5207490155479
 31
0.0
  0
LINE
  5
479
  8
LAYER1
 62
    18
 10
389.8011019452241
 20
107.5207490155479
 30
0.0
 11
397.801101945224
 21
107.5207490155479
 31
0.0
  0
LINE
  5
47A
  8
LAYER1
 62
    18
 10
397.801101945224
 20
120.9707490155481
 30
0.0
 11
397.801101945224
 21
123.010749015548
 31
0.0
  0
LINE
  5
47B
  8
LAYER1
 62
    18
 10
397.801101945224
 20
134.4207490155479
 30
0.0
 11
397.801101945224
 21
136.4607490155481
 31
0.0
  0
LINE
  5
47C
  8
LAYER1
 62
    18
 10
397.801101945224
 20
109.5607490155479
 30
0.0
 11
389.8011019452241
 21
109.5607490155479
 31
0.0
  0
LINE
  5
47D
  8
LAYER1
 62
    18
 10
389.8011019452241
 20
120.9707490155481
 30
0.0
 11
397.801101945224
 21
120.9707490155481
 31
0.0
  0
LINE
  5
47E
  8
LAYER1
 62
    18
 10
389.8011019452241
 20
109.5607490155479
 30
0.0
 11
389.8011019452241
 21
120.9707490155481
 31
0.0
  0
LINE
  5
47F
  8
LAYER1
 62
    18
 10
397.801101945224
 20
123.010749015548
 30
0.0
 11
389.8011019452241
 21
123.010749015548
 31
0.0
  0
LINE
  5
480
  8
LAYER1
 62
    18
 10
389.8011019452241
 20
123.010749015548
 30
0.0
 11
389.8011019452241
 21
134.4207490155479
 31
0.0
  0
LINE
  5
481
  8
LAYER1
 62
    18
 10
389.8011019452241
 20
134.4207490155479
 30
0.0
 11
397.801101945224
 21
134.4207490155479
 31
0.0
  0
LINE
  5
482
  8
LAYER1
 62
    18
 10
397.801101945224
 20
147.8707490155481
 30
0.0
 11
397.801101945224
 21
149.9107490155481
 31
0.0
  0
LINE
  5
483
  8
LAYER1
 62
    18
 10
397.801101945224
 20
161.3207490155479
 30
0.0
 11
397.801101945224
 21
163.3607490155479
 31
0.0
  0
LINE
  5
484
  8
LAYER1
 62
    18
 10
397.801101945224
 20
136.4607490155481
 30
0.0
 11
389.8011019452241
 21
136.4607490155481
 31
0.0
  0
LINE
  5
485
  8
LAYER1
 62
    18
 10
389.8011019452241
 20
147.8707490155481
 30
0.0
 11
397.801101945224
 21
147.8707490155481
 31
0.0
  0
LINE
  5
486
  8
LAYER1
 62
    18
 10
389.8011019452241
 20
136.4607490155481
 30
0.0
 11
389.8011019452241
 21
147.8707490155481
 31
0.0
  0
LINE
  5
487
  8
LAYER1
 62
    18
 10
397.801101945224
 20
149.9107490155481
 30
0.0
 11
389.8011019452241
 21
149.9107490155481
 31
0.0
  0
LINE
  5
488
  8
LAYER1
 62
    18
 10
389.8011019452241
 20
149.9107490155481
 30
0.0
 11
389.8011019452241
 21
161.3207490155479
 31
0.0
  0
LINE
  5
489
  8
LAYER1
 62
    18
 10
389.8011019452241
 20
161.3207490155479
 30
0.0
 11
397.801101945224
 21
161.3207490155479
 31
0.0
  0
LINE
  5
48A
  8
LAYER1
 62
    18
 10
397.801101945224
 20
174.7707490155479
 30
0.0
 11
397.801101945224
 21
176.8107490155481
 31
0.0
  0
LINE
  5
48B
  8
LAYER1
 62
    18
 10
397.801101945224
 20
188.2207490155479
 30
0.0
 11
397.801101945224
 21
190.2607490155478
 31
0.0
  0
LINE
  5
48C
  8
LAYER1
 62
    18
 10
397.801101945224
 20
163.3607490155479
 30
0.0
 11
389.8011019452241
 21
163.3607490155479
 31
0.0
  0
LINE
  5
48D
  8
LAYER1
 62
    18
 10
389.8011019452241
 20
174.7707490155479
 30
0.0
 11
397.801101945224
 21
174.7707490155479
 31
0.0
  0
LINE
  5
48E
  8
LAYER1
 62
    18
 10
389.8011019452241
 20
163.3607490155479
 30
0.0
 11
389.8011019452241
 21
174.7707490155479
 31
0.0
  0
LINE
  5
48F
  8
LAYER1
 62
    18
 10
397.801101945224
 20
176.8107490155481
 30
0.0
 11
389.8011019452241
 21
176.8107490155481
 31
0.0
  0
LINE
  5
490
  8
LAYER1
 62
    18
 10
389.8011019452241
 20
176.8107490155481
 30
0.0
 11
389.8011019452241
 21
188.2207490155479
 31
0.0
  0
LINE
  5
491
  8
LAYER1
 62
    18
 10
389.8011019452241
 20
188.2207490155479
 30
0.0
 11
397.801101945224
 21
188.2207490155479
 31
0.0
  0
LINE
  5
492
  8
LAYER1
 62
    18
 10
397.801101945224
 20
190.2607490155478
 30
0.0
 11
405.801101945224
 21
190.2607490155478
 31
0.0
  0
LINE
  5
493
  8
LAYER1
 62
    18
 10
397.801101945224
 20
28.86074901554804
 30
0.0
 11
397.801101945224
 21
27.84074901554806
 31
0.0
  0
LINE
  5
494
  8
LAYER1
 62
    18
 10
397.801101945224
 20
27.84074901554806
 30
0.0
 11
405.801101945224
 21
27.84074901554806
 31
0.0
  0
LINE
  5
495
  8
LAYER1
 62
    18
 10
405.801101945224
 20
27.84074901554806
 30
0.0
 11
405.801101945224
 21
190.2607490155478
 31
0.0
  0
LINE
  5
496
  8
LAYER1
 62
    18
 10
417.1278879229256
 20
40.27074901554808
 30
0.0
 11
417.1278879229256
 21
42.31074901554805
 31
0.0
  0
LINE
  5
497
  8
LAYER1
 62
    18
 10
417.1278879229256
 20
53.720749015548
 30
0.0
 11
417.1278879229256
 21
55.76074901554797
 31
0.0
  0
LINE
  5
498
  8
LAYER1
 62
    18
 10
417.1278879229256
 20
28.86074901554804
 30
0.0
 11
409.1278879229257
 21
28.86074901554804
 31
0.0
  0
LINE
  5
499
  8
LAYER1
 62
    18
 10
409.1278879229257
 20
40.27074901554808
 30
0.0
 11
417.1278879229256
 21
40.27074901554808
 31
0.0
  0
LINE
  5
49A
  8
LAYER1
 62
    18
 10
409.1278879229257
 20
28.86074901554804
 30
0.0
 11
409.1278879229257
 21
40.27074901554808
 31
0.0
  0
LINE
  5
49B
  8
LAYER1
 62
    18
 10
417.1278879229256
 20
42.31074901554805
 30
0.0
 11
409.1278879229257
 21
42.31074901554805
 31
0.0
  0
LINE
  5
49C
  8
LAYER1
 62
    18
 10
409.1278879229257
 20
42.31074901554805
 30
0.0
 11
409.1278879229257
 21
53.720749015548
 31
0.0
  0
LINE
  5
49D
  8
LAYER1
 62
    18
 10
409.1278879229257
 20
53.720749015548
 30
0.0
 11
417.1278879229256
 21
53.720749015548
 31
0.0
  0
LINE
  5
49E
  8
LAYER1
 62
    18
 10
417.1278879229256
 20
67.17074901554801
 30
0.0
 11
417.1278879229256
 21
69.21074901554807
 31
0.0
  0
LINE
  5
49F
  8
LAYER1
 62
    18
 10
417.1278879229256
 20
80.62074901554793
 30
0.0
 11
417.1278879229256
 21
82.66074901554799
 31
0.0
  0
LINE
  5
4A0
  8
LAYER1
 62
    18
 10
417.1278879229256
 20
55.76074901554797
 30
0.0
 11
409.1278879229257
 21
55.76074901554797
 31
0.0
  0
LINE
  5
4A1
  8
LAYER1
 62
    18
 10
409.1278879229257
 20
67.17074901554801
 30
0.0
 11
417.1278879229256
 21
67.17074901554801
 31
0.0
  0
LINE
  5
4A2
  8
LAYER1
 62
    18
 10
409.1278879229257
 20
55.76074901554797
 30
0.0
 11
409.1278879229257
 21
67.17074901554801
 31
0.0
  0
LINE
  5
4A3
  8
LAYER1
 62
    18
 10
417.1278879229256
 20
69.21074901554807
 30
0.0
 11
409.1278879229257
 21
69.21074901554807
 31
0.0
  0
LINE
  5
4A4
  8
LAYER1
 62
    18
 10
409.1278879229257
 20
69.21074901554807
 30
0.0
 11
409.1278879229257
 21
80.62074901554793
 31
0.0
  0
LINE
  5
4A5
  8
LAYER1
 62
    18
 10
409.1278879229257
 20
80.62074901554793
 30
0.0
 11
417.1278879229256
 21
80.62074901554793
 31
0.0
  0
LINE
  5
4A6
  8
LAYER1
 62
    18
 10
417.1278879229256
 20
94.07074901554803
 30
0.0
 11
417.1278879229256
 21
96.110749015548
 31
0.0
  0
LINE
  5
4A7
  8
LAYER1
 62
    18
 10
417.1278879229256
 20
107.5207490155479
 30
0.0
 11
417.1278879229256
 21
109.5607490155479
 31
0.0
  0
LINE
  5
4A8
  8
LAYER1
 62
    18
 10
417.1278879229256
 20
82.66074901554799
 30
0.0
 11
409.1278879229257
 21
82.66074901554799
 31
0.0
  0
LINE
  5
4A9
  8
LAYER1
 62
    18
 10
409.1278879229257
 20
94.07074901554803
 30
0.0
 11
417.1278879229256
 21
94.07074901554803
 31
0.0
  0
LINE
  5
4AA
  8
LAYER1
 62
    18
 10
409.1278879229257
 20
82.66074901554799
 30
0.0
 11
409.1278879229257
 21
94.07074901554803
 31
0.0
  0
LINE
  5
4AB
  8
LAYER1
 62
    18
 10
417.1278879229256
 20
96.110749015548
 30
0.0
 11
409.1278879229257
 21
96.110749015548
 31
0.0
  0
LINE
  5
4AC
  8
LAYER1
 62
    18
 10
409.1278879229257
 20
96.110749015548
 30
0.0
 11
409.1278879229257
 21
107.5207490155479
 31
0.0
  0
LINE
  5
4AD
  8
LAYER1
 62
    18
 10
409.1278879229257
 20
107.5207490155479
 30
0.0
 11
417.1278879229256
 21
107.5207490155479
 31
0.0
  0
LINE
  5
4AE
  8
LAYER1
 62
    18
 10
417.1278879229256
 20
120.9707490155481
 30
0.0
 11
417.1278879229256
 21
123.010749015548
 31
0.0
  0
LINE
  5
4AF
  8
LAYER1
 62
    18
 10
417.1278879229256
 20
134.4207490155479
 30
0.0
 11
417.1278879229256
 21
136.4607490155481
 31
0.0
  0
LINE
  5
4B0
  8
LAYER1
 62
    18
 10
417.1278879229256
 20
109.5607490155479
 30
0.0
 11
409.1278879229257
 21
109.5607490155479
 31
0.0
  0
LINE
  5
4B1
  8
LAYER1
 62
    18
 10
409.1278879229257
 20
120.9707490155481
 30
0.0
 11
417.1278879229256
 21
120.9707490155481
 31
0.0
  0
LINE
  5
4B2
  8
LAYER1
 62
    18
 10
409.1278879229257
 20
109.5607490155479
 30
0.0
 11
409.1278879229257
 21
120.9707490155481
 31
0.0
  0
LINE
  5
4B3
  8
LAYER1
 62
    18
 10
417.1278879229256
 20
123.010749015548
 30
0.0
 11
409.1278879229257
 21
123.010749015548
 31
0.0
  0
LINE
  5
4B4
  8
LAYER1
 62
    18
 10
409.1278879229257
 20
123.010749015548
 30
0.0
 11
409.1278879229257
 21
134.4207490155479
 31
0.0
  0
LINE
  5
4B5
  8
LAYER1
 62
    18
 10
409.1278879229257
 20
134.4207490155479
 30
0.0
 11
417.1278879229256
 21
134.4207490155479
 31
0.0
  0
LINE
  5
4B6
  8
LAYER1
 62
    18
 10
417.1278879229256
 20
147.8707490155481
 30
0.0
 11
417.1278879229256
 21
149.9107490155481
 31
0.0
  0
LINE
  5
4B7
  8
LAYER1
 62
    18
 10
417.1278879229256
 20
161.3207490155479
 30
0.0
 11
417.1278879229256
 21
163.3607490155479
 31
0.0
  0
LINE
  5
4B8
  8
LAYER1
 62
    18
 10
417.1278879229256
 20
136.4607490155481
 30
0.0
 11
409.1278879229257
 21
136.4607490155481
 31
0.0
  0
LINE
  5
4B9
  8
LAYER1
 62
    18
 10
409.1278879229257
 20
147.8707490155481
 30
0.0
 11
417.1278879229256
 21
147.8707490155481
 31
0.0
  0
LINE
  5
4BA
  8
LAYER1
 62
    18
 10
409.1278879229257
 20
136.4607490155481
 30
0.0
 11
409.1278879229257
 21
147.8707490155481
 31
0.0
  0
LINE
  5
4BB
  8
LAYER1
 62
    18
 10
417.1278879229256
 20
149.9107490155481
 30
0.0
 11
409.1278879229257
 21
149.9107490155481
 31
0.0
  0
LINE
  5
4BC
  8
LAYER1
 62
    18
 10
409.1278879229257
 20
149.9107490155481
 30
0.0
 11
409.1278879229257
 21
161.3207490155479
 31
0.0
  0
LINE
  5
4BD
  8
LAYER1
 62
    18
 10
409.1278879229257
 20
161.3207490155479
 30
0.0
 11
417.1278879229256
 21
161.3207490155479
 31
0.0
  0
LINE
  5
4BE
  8
LAYER1
 62
    18
 10
417.1278879229256
 20
174.7707490155479
 30
0.0
 11
417.1278879229256
 21
176.8107490155481
 31
0.0
  0
LINE
  5
4BF
  8
LAYER1
 62
    18
 10
417.1278879229256
 20
188.2207490155479
 30
0.0
 11
417.1278879229256
 21
190.2607490155478
 31
0.0
  0
LINE
  5
4C0
  8
LAYER1
 62
    18
 10
417.1278879229256
 20
163.3607490155479
 30
0.0
 11
409.1278879229257
 21
163.3607490155479
 31
0.0
  0
LINE
  5
4C1
  8
LAYER1
 62
    18
 10
409.1278879229257
 20
174.7707490155479
 30
0.0
 11
417.1278879229256
 21
174.7707490155479
 31
0.0
  0
LINE
  5
4C2
  8
LAYER1
 62
    18
 10
409.1278879229257
 20
163.3607490155479
 30
0.0
 11
409.1278879229257
 21
174.7707490155479
 31
0.0
  0
LINE
  5
4C3
  8
LAYER1
 62
    18
 10
417.1278879229256
 20
176.8107490155481
 30
0.0
 11
409.1278879229257
 21
176.8107490155481
 31
0.0
  0
LINE
  5
4C4
  8
LAYER1
 62
    18
 10
409.1278879229257
 20
176.8107490155481
 30
0.0
 11
409.1278879229257
 21
188.2207490155479
 31
0.0
  0
LINE
  5
4C5
  8
LAYER1
 62
    18
 10
409.1278879229257
 20
188.2207490155479
 30
0.0
 11
417.1278879229256
 21
188.2207490155479
 31
0.0
  0
LINE
  5
4C6
  8
LAYER1
 62
    18
 10
417.1278879229256
 20
190.2607490155478
 30
0.0
 11
425.1278879229255
 21
190.2607490155478
 31
0.0
  0
LINE
  5
4C7
  8
LAYER1
 62
    18
 10
417.1278879229256
 20
28.86074901554804
 30
0.0
 11
417.1278879229256
 21
27.84074901554806
 31
0.0
  0
LINE
  5
4C8
  8
LAYER1
 62
    18
 10
417.1278879229256
 20
27.84074901554806
 30
0.0
 11
425.1278879229255
 21
27.84074901554806
 31
0.0
  0
LINE
  5
4C9
  8
LAYER1
 62
    18
 10
425.1278879229255
 20
27.84074901554806
 30
0.0
 11
425.1278879229255
 21
190.2607490155478
 31
0.0
  0
LINE
  5
4CA
  8
LAYER1
 62
    18
 10
436.4228762412803
 20
40.27074901554808
 30
0.0
 11
436.4228762412803
 21
42.31074901554805
 31
0.0
  0
LINE
  5
4CB
  8
LAYER1
 62
    18
 10
436.4228762412803
 20
53.720749015548
 30
0.0
 11
436.4228762412803
 21
55.76074901554797
 31
0.0
  0
LINE
  5
4CC
  8
LAYER1
 62
    18
 10
436.4228762412803
 20
28.86074901554804
 30
0.0
 11
428.4228762412804
 21
28.86074901554804
 31
0.0
  0
LINE
  5
4CD
  8
LAYER1
 62
    18
 10
428.4228762412804
 20
40.27074901554808
 30
0.0
 11
436.4228762412803
 21
40.27074901554808
 31
0.0
  0
LINE
  5
4CE
  8
LAYER1
 62
    18
 10
428.4228762412804
 20
28.86074901554804
 30
0.0
 11
428.4228762412804
 21
40.27074901554808
 31
0.0
  0
LINE
  5
4CF
  8
LAYER1
 62
    18
 10
436.4228762412803
 20
42.31074901554805
 30
0.0
 11
428.4228762412804
 21
42.31074901554805
 31
0.0
  0
LINE
  5
4D0
  8
LAYER1
 62
    18
 10
428.4228762412804
 20
42.31074901554805
 30
0.0
 11
428.4228762412804
 21
53.720749015548
 31
0.0
  0
LINE
  5
4D1
  8
LAYER1
 62
    18
 10
428.4228762412804
 20
53.720749015548
 30
0.0
 11
436.4228762412803
 21
53.720749015548
 31
0.0
  0
LINE
  5
4D2
  8
LAYER1
 62
    18
 10
436.4228762412803
 20
67.17074901554801
 30
0.0
 11
436.4228762412803
 21
69.21074901554807
 31
0.0
  0
LINE
  5
4D3
  8
LAYER1
 62
    18
 10
436.4228762412803
 20
80.62074901554793
 30
0.0
 11
436.4228762412803
 21
82.66074901554799
 31
0.0
  0
LINE
  5
4D4
  8
LAYER1
 62
    18
 10
436.4228762412803
 20
55.76074901554797
 30
0.0
 11
428.4228762412804
 21
55.76074901554797
 31
0.0
  0
LINE
  5
4D5
  8
LAYER1
 62
    18
 10
428.4228762412804
 20
67.17074901554801
 30
0.0
 11
436.4228762412803
 21
67.17074901554801
 31
0.0
  0
LINE
  5
4D6
  8
LAYER1
 62
    18
 10
428.4228762412804
 20
55.76074901554797
 30
0.0
 11
428.4228762412804
 21
67.17074901554801
 31
0.0
  0
LINE
  5
4D7
  8
LAYER1
 62
    18
 10
436.4228762412803
 20
69.21074901554807
 30
0.0
 11
428.4228762412804
 21
69.21074901554807
 31
0.0
  0
LINE
  5
4D8
  8
LAYER1
 62
    18
 10
428.4228762412804
 20
69.21074901554807
 30
0.0
 11
428.4228762412804
 21
80.62074901554793
 31
0.0
  0
LINE
  5
4D9
  8
LAYER1
 62
    18
 10
428.4228762412804
 20
80.62074901554793
 30
0.0
 11
436.4228762412803
 21
80.62074901554793
 31
0.0
  0
LINE
  5
4DA
  8
LAYER1
 62
    18
 10
436.4228762412803
 20
94.07074901554803
 30
0.0
 11
436.4228762412803
 21
96.110749015548
 31
0.0
  0
LINE
  5
4DB
  8
LAYER1
 62
    18
 10
436.4228762412803
 20
107.5207490155479
 30
0.0
 11
436.4228762412803
 21
109.5607490155479
 31
0.0
  0
LINE
  5
4DC
  8
LAYER1
 62
    18
 10
436.4228762412803
 20
82.66074901554799
 30
0.0
 11
428.4228762412804
 21
82.66074901554799
 31
0.0
  0
LINE
  5
4DD
  8
LAYER1
 62
    18
 10
428.4228762412804
 20
94.07074901554803
 30
0.0
 11
436.4228762412803
 21
94.07074901554803
 31
0.0
  0
LINE
  5
4DE
  8
LAYER1
 62
    18
 10
428.4228762412804
 20
82.66074901554799
 30
0.0
 11
428.4228762412804
 21
94.07074901554803
 31
0.0
  0
LINE
  5
4DF
  8
LAYER1
 62
    18
 10
436.4228762412803
 20
96.110749015548
 30
0.0
 11
428.4228762412804
 21
96.110749015548
 31
0.0
  0
LINE
  5
4E0
  8
LAYER1
 62
    18
 10
428.4228762412804
 20
96.110749015548
 30
0.0
 11
428.4228762412804
 21
107.5207490155479
 31
0.0
  0
LINE
  5
4E1
  8
LAYER1
 62
    18
 10
428.4228762412804
 20
107.5207490155479
 30
0.0
 11
436.4228762412803
 21
107.5207490155479
 31
0.0
  0
LINE
  5
4E2
  8
LAYER1
 62
    18
 10
436.4228762412803
 20
120.9707490155481
 30
0.0
 11
436.4228762412803
 21
123.010749015548
 31
0.0
  0
LINE
  5
4E3
  8
LAYER1
 62
    18
 10
436.4228762412803
 20
134.4207490155479
 30
0.0
 11
436.4228762412803
 21
136.4607490155481
 31
0.0
  0
LINE
  5
4E4
  8
LAYER1
 62
    18
 10
436.4228762412803
 20
109.5607490155479
 30
0.0
 11
428.4228762412804
 21
109.5607490155479
 31
0.0
  0
LINE
  5
4E5
  8
LAYER1
 62
    18
 10
428.4228762412804
 20
120.9707490155481
 30
0.0
 11
436.4228762412803
 21
120.9707490155481
 31
0.0
  0
LINE
  5
4E6
  8
LAYER1
 62
    18
 10
428.4228762412804
 20
109.5607490155479
 30
0.0
 11
428.4228762412804
 21
120.9707490155481
 31
0.0
  0
LINE
  5
4E7
  8
LAYER1
 62
    18
 10
436.4228762412803
 20
123.010749015548
 30
0.0
 11
428.4228762412804
 21
123.010749015548
 31
0.0
  0
LINE
  5
4E8
  8
LAYER1
 62
    18
 10
428.4228762412804
 20
123.010749015548
 30
0.0
 11
428.4228762412804
 21
134.4207490155479
 31
0.0
  0
LINE
  5
4E9
  8
LAYER1
 62
    18
 10
428.4228762412804
 20
134.4207490155479
 30
0.0
 11
436.4228762412803
 21
134.4207490155479
 31
0.0
  0
LINE
  5
4EA
  8
LAYER1
 62
    18
 10
436.4228762412803
 20
147.8707490155481
 30
0.0
 11
436.4228762412803
 21
149.9107490155481
 31
0.0
  0
LINE
  5
4EB
  8
LAYER1
 62
    18
 10
436.4228762412803
 20
161.3207490155479
 30
0.0
 11
436.4228762412803
 21
163.3607490155479
 31
0.0
  0
LINE
  5
4EC
  8
LAYER1
 62
    18
 10
436.4228762412803
 20
136.4607490155481
 30
0.0
 11
428.4228762412804
 21
136.4607490155481
 31
0.0
  0
LINE
  5
4ED
  8
LAYER1
 62
    18
 10
428.4228762412804
 20
147.8707490155481
 30
0.0
 11
436.4228762412803
 21
147.8707490155481
 31
0.0
  0
LINE
  5
4EE
  8
LAYER1
 62
    18
 10
428.4228762412804
 20
136.4607490155481
 30
0.0
 11
428.4228762412804
 21
147.8707490155481
 31
0.0
  0
LINE
  5
4EF
  8
LAYER1
 62
    18
 10
436.4228762412803
 20
149.9107490155481
 30
0.0
 11
428.4228762412804
 21
149.9107490155481
 31
0.0
  0
LINE
  5
4F0
  8
LAYER1
 62
    18
 10
428.4228762412804
 20
149.9107490155481
 30
0.0
 11
428.4228762412804
 21
161.3207490155479
 31
0.0
  0
LINE
  5
4F1
  8
LAYER1
 62
    18
 10
428.4228762412804
 20
161.3207490155479
 30
0.0
 11
436.4228762412803
 21
161.3207490155479
 31
0.0
  0
LINE
  5
4F2
  8
LAYER1
 62
    18
 10
436.4228762412803
 20
174.7707490155479
 30
0.0
 11
436.4228762412803
 21
176.8107490155481
 31
0.0
  0
LINE
  5
4F3
  8
LAYER1
 62
    18
 10
436.4228762412803
 20
188.2207490155479
 30
0.0
 11
436.4228762412803
 21
190.2607490155478
 31
0.0
  0
LINE
  5
4F4
  8
LAYER1
 62
    18
 10
436.4228762412803
 20
163.3607490155479
 30
0.0
 11
428.4228762412804
 21
163.3607490155479
 31
0.0
  0
LINE
  5
4F5
  8
LAYER1
 62
    18
 10
428.4228762412804
 20
174.7707490155479
 30
0.0
 11
436.4228762412803
 21
174.7707490155479
 31
0.0
  0
LINE
  5
4F6
  8
LAYER1
 62
    18
 10
428.4228762412804
 20
163.3607490155479
 30
0.0
 11
428.4228762412804
 21
174.7707490155479
 31
0.0
  0
LINE
  5
4F7
  8
LAYER1
 62
    18
 10
436.4228762412803
 20
176.8107490155481
 30
0.0
 11
428.4228762412804
 21
176.8107490155481
 31
0.0
  0
LINE
  5
4F8
  8
LAYER1
 62
    18
 10
428.4228762412804
 20
176.8107490155481
 30
0.0
 11
428.4228762412804
 21
188.2207490155479
 31
0.0
  0
LINE
  5
4F9
  8
LAYER1
 62
    18
 10
428.4228762412804
 20
188.2207490155479
 30
0.0
 11
436.4228762412803
 21
188.2207490155479
 31
0.0
  0
LINE
  5
4FA
  8
LAYER1
 62
    18
 10
436.4228762412803
 20
190.2607490155478
 30
0.0
 11
444.4228762412803
 21
190.2607490155478
 31
0.0
  0
LINE
  5
4FB
  8
LAYER1
 62
    18
 10
436.4228762412803
 20
28.86074901554804
 30
0.0
 11
436.4228762412803
 21
27.84074901554806
 31
0.0
  0
LINE
  5
4FC
  8
LAYER1
 62
    18
 10
436.4228762412803
 20
27.84074901554806
 30
0.0
 11
444.4228762412803
 21
27.84074901554806
 31
0.0
  0
LINE
  5
4FD
  8
LAYER1
 62
    18
 10
444.4228762412803
 20
27.84074901554806
 30
0.0
 11
444.4228762412803
 21
190.2607490155478
 31
0.0
  0
LINE
  5
4FE
  8
LAYER1
 62
    18
 10
456.1884740308162
 20
40.27074901554808
 30
0.0
 11
456.1884740308162
 21
42.31074901554805
 31
0.0
  0
LINE
  5
4FF
  8
LAYER1
 62
    18
 10
456.1884740308162
 20
53.720749015548
 30
0.0
 11
456.1884740308162
 21
55.76074901554797
 31
0.0
  0
LINE
  5
500
  8
LAYER1
 62
    18
 10
456.1884740308162
 20
28.86074901554804
 30
0.0
 11
448.1884740308161
 21
28.86074901554804
 31
0.0
  0
LINE
  5
501
  8
LAYER1
 62
    18
 10
448.1884740308161
 20
40.27074901554808
 30
0.0
 11
456.1884740308162
 21
40.27074901554808
 31
0.0
  0
LINE
  5
502
  8
LAYER1
 62
    18
 10
448.1884740308161
 20
28.86074901554804
 30
0.0
 11
448.1884740308161
 21
40.27074901554808
 31
0.0
  0
LINE
  5
503
  8
LAYER1
 62
    18
 10
456.1884740308162
 20
42.31074901554805
 30
0.0
 11
448.1884740308161
 21
42.31074901554805
 31
0.0
  0
LINE
  5
504
  8
LAYER1
 62
    18
 10
448.1884740308161
 20
42.31074901554805
 30
0.0
 11
448.1884740308161
 21
53.720749015548
 31
0.0
  0
LINE
  5
505
  8
LAYER1
 62
    18
 10
448.1884740308161
 20
53.720749015548
 30
0.0
 11
456.1884740308162
 21
53.720749015548
 31
0.0
  0
LINE
  5
506
  8
LAYER1
 62
    18
 10
456.1884740308162
 20
67.17074901554801
 30
0.0
 11
456.1884740308162
 21
69.21074901554807
 31
0.0
  0
LINE
  5
507
  8
LAYER1
 62
    18
 10
456.1884740308162
 20
80.62074901554793
 30
0.0
 11
456.1884740308162
 21
82.66074901554799
 31
0.0
  0
LINE
  5
508
  8
LAYER1
 62
    18
 10
456.1884740308162
 20
55.76074901554797
 30
0.0
 11
448.1884740308161
 21
55.76074901554797
 31
0.0
  0
LINE
  5
509
  8
LAYER1
 62
    18
 10
448.1884740308161
 20
67.17074901554801
 30
0.0
 11
456.1884740308162
 21
67.17074901554801
 31
0.0
  0
LINE
  5
50A
  8
LAYER1
 62
    18
 10
448.1884740308161
 20
55.76074901554797
 30
0.0
 11
448.1884740308161
 21
67.17074901554801
 31
0.0
  0
LINE
  5
50B
  8
LAYER1
 62
    18
 10
456.1884740308162
 20
69.21074901554807
 30
0.0
 11
448.1884740308161
 21
69.21074901554807
 31
0.0
  0
LINE
  5
50C
  8
LAYER1
 62
    18
 10
448.1884740308161
 20
69.21074901554807
 30
0.0
 11
448.1884740308161
 21
80.62074901554793
 31
0.0
  0
LINE
  5
50D
  8
LAYER1
 62
    18
 10
448.1884740308161
 20
80.62074901554793
 30
0.0
 11
456.1884740308162
 21
80.62074901554793
 31
0.0
  0
LINE
  5
50E
  8
LAYER1
 62
    18
 10
456.1884740308162
 20
94.07074901554803
 30
0.0
 11
456.1884740308162
 21
96.110749015548
 31
0.0
  0
LINE
  5
50F
  8
LAYER1
 62
    18
 10
456.1884740308162
 20
107.5207490155479
 30
0.0
 11
456.1884740308162
 21
109.5607490155479
 31
0.0
  0
LINE
  5
510
  8
LAYER1
 62
    18
 10
456.1884740308162
 20
82.66074901554799
 30
0.0
 11
448.1884740308161
 21
82.66074901554799
 31
0.0
  0
LINE
  5
511
  8
LAYER1
 62
    18
 10
448.1884740308161
 20
94.07074901554803
 30
0.0
 11
456.1884740308162
 21
94.07074901554803
 31
0.0
  0
LINE
  5
512
  8
LAYER1
 62
    18
 10
448.1884740308161
 20
82.66074901554799
 30
0.0
 11
448.1884740308161
 21
94.07074901554803
 31
0.0
  0
LINE
  5
513
  8
LAYER1
 62
    18
 10
456.1884740308162
 20
96.110749015548
 30
0.0
 11
448.1884740308161
 21
96.110749015548
 31
0.0
  0
LINE
  5
514
  8
LAYER1
 62
    18
 10
448.1884740308161
 20
96.110749015548
 30
0.0
 11
448.1884740308161
 21
107.5207490155479
 31
0.0
  0
LINE
  5
515
  8
LAYER1
 62
    18
 10
448.1884740308161
 20
107.5207490155479
 30
0.0
 11
456.1884740308162
 21
107.5207490155479
 31
0.0
  0
LINE
  5
516
  8
LAYER1
 62
    18
 10
456.1884740308162
 20
120.9707490155481
 30
0.0
 11
456.1884740308162
 21
123.010749015548
 31
0.0
  0
LINE
  5
517
  8
LAYER1
 62
    18
 10
456.1884740308162
 20
134.4207490155479
 30
0.0
 11
456.1884740308162
 21
136.4607490155481
 31
0.0
  0
LINE
  5
518
  8
LAYER1
 62
    18
 10
456.1884740308162
 20
109.5607490155479
 30
0.0
 11
448.1884740308161
 21
109.5607490155479
 31
0.0
  0
LINE
  5
519
  8
LAYER1
 62
    18
 10
448.1884740308161
 20
120.9707490155481
 30
0.0
 11
456.1884740308162
 21
120.9707490155481
 31
0.0
  0
LINE
  5
51A
  8
LAYER1
 62
    18
 10
448.1884740308161
 20
109.5607490155479
 30
0.0
 11
448.1884740308161
 21
120.9707490155481
 31
0.0
  0
LINE
  5
51B
  8
LAYER1
 62
    18
 10
456.1884740308162
 20
123.010749015548
 30
0.0
 11
448.1884740308161
 21
123.010749015548
 31
0.0
  0
LINE
  5
51C
  8
LAYER1
 62
    18
 10
448.1884740308161
 20
123.010749015548
 30
0.0
 11
448.1884740308161
 21
134.4207490155479
 31
0.0
  0
LINE
  5
51D
  8
LAYER1
 62
    18
 10
448.1884740308161
 20
134.4207490155479
 30
0.0
 11
456.1884740308162
 21
134.4207490155479
 31
0.0
  0
LINE
  5
51E
  8
LAYER1
 62
    18
 10
456.1884740308162
 20
147.8707490155481
 30
0.0
 11
456.1884740308162
 21
149.9107490155481
 31
0.0
  0
LINE
  5
51F
  8
LAYER1
 62
    18
 10
456.1884740308162
 20
161.3207490155479
 30
0.0
 11
456.1884740308162
 21
163.3607490155479
 31
0.0
  0
LINE
  5
520
  8
LAYER1
 62
    18
 10
456.1884740308162
 20
136.4607490155481
 30
0.0
 11
448.1884740308161
 21
136.4607490155481
 31
0.0
  0
LINE
  5
521
  8
LAYER1
 62
    18
 10
448.1884740308161
 20
147.8707490155481
 30
0.0
 11
456.1884740308162
 21
147.8707490155481
 31
0.0
  0
LINE
  5
522
  8
LAYER1
 62
    18
 10
448.1884740308161
 20
136.4607490155481
 30
0.0
 11
448.1884740308161
 21
147.8707490155481
 31
0.0
  0
LINE
  5
523
  8
LAYER1
 62
    18
 10
456.1884740308162
 20
149.9107490155481
 30
0.0
 11
448.1884740308161
 21
149.9107490155481
 31
0.0
  0
LINE
  5
524
  8
LAYER1
 62
    18
 10
448.1884740308161
 20
149.9107490155481
 30
0.0
 11
448.1884740308161
 21
161.3207490155479
 31
0.0
  0
LINE
  5
525
  8
LAYER1
 62
    18
 10
448.1884740308161
 20
161.3207490155479
 30
0.0
 11
456.1884740308162
 21
161.3207490155479
 31
0.0
  0
LINE
  5
526
  8
LAYER1
 62
    18
 10
456.1884740308162
 20
174.7707490155479
 30
0.0
 11
456.1884740308162
 21
176.8107490155481
 31
0.0
  0
LINE
  5
527
  8
LAYER1
 62
    18
 10
456.1884740308162
 20
188.2207490155479
 30
0.0
 11
456.1884740308162
 21
190.2607490155478
 31
0.0
  0
LINE
  5
528
  8
LAYER1
 62
    18
 10
456.1884740308162
 20
163.3607490155479
 30
0.0
 11
448.1884740308161
 21
163.3607490155479
 31
0.0
  0
LINE
  5
529
  8
LAYER1
 62
    18
 10
448.1884740308161
 20
174.7707490155479
 30
0.0
 11
456.1884740308162
 21
174.7707490155479
 31
0.0
  0
LINE
  5
52A
  8
LAYER1
 62
    18
 10
448.1884740308161
 20
163.3607490155479
 30
0.0
 11
448.1884740308161
 21
174.7707490155479
 31
0.0
  0
LINE
  5
52B
  8
LAYER1
 62
    18
 10
456.1884740308162
 20
176.8107490155481
 30
0.0
 11
448.1884740308161
 21
176.8107490155481
 31
0.0
  0
LINE
  5
52C
  8
LAYER1
 62
    18
 10
448.1884740308161
 20
176.8107490155481
 30
0.0
 11
448.1884740308161
 21
188.2207490155479
 31
0.0
  0
LINE
  5
52D
  8
LAYER1
 62
    18
 10
448.1884740308161
 20
188.2207490155479
 30
0.0
 11
456.1884740308162
 21
188.2207490155479
 31
0.0
  0
LINE
  5
52E
  8
LAYER1
 62
    18
 10
456.1884740308162
 20
190.2607490155478
 30
0.0
 11
464.188474030816
 21
190.2607490155478
 31
0.0
  0
LINE
  5
52F
  8
LAYER1
 62
    18
 10
456.1884740308162
 20
28.86074901554804
 30
0.0
 11
456.1884740308162
 21
27.84074901554806
 31
0.0
  0
LINE
  5
530
  8
LAYER1
 62
    18
 10
456.1884740308162
 20
27.84074901554806
 30
0.0
 11
464.188474030816
 21
27.84074901554806
 31
0.0
  0
LINE
  5
531
  8
LAYER1
 62
    18
 10
464.188474030816
 20
27.84074901554806
 30
0.0
 11
464.188474030816
 21
190.2607490155478
 31
0.0
  0
LINE
  5
532
  8
LAYER1
 62
    18
 10
475.4834623491708
 20
40.27074901554808
 30
0.0
 11
475.4834623491708
 21
42.31074901554805
 31
0.0
  0
LINE
  5
533
  8
LAYER1
 62
    18
 10
475.4834623491708
 20
53.720749015548
 30
0.0
 11
475.4834623491708
 21
55.76074901554797
 31
0.0
  0
LINE
  5
534
  8
LAYER1
 62
    18
 10
475.4834623491708
 20
28.86074901554804
 30
0.0
 11
467.4834623491708
 21
28.86074901554804
 31
0.0
  0
LINE
  5
535
  8
LAYER1
 62
    18
 10
467.4834623491708
 20
40.27074901554808
 30
0.0
 11
475.4834623491708
 21
40.27074901554808
 31
0.0
  0
LINE
  5
536
  8
LAYER1
 62
    18
 10
467.4834623491708
 20
28.86074901554804
 30
0.0
 11
467.4834623491708
 21
40.27074901554808
 31
0.0
  0
LINE
  5
537
  8
LAYER1
 62
    18
 10
475.4834623491708
 20
42.31074901554805
 30
0.0
 11
467.4834623491708
 21
42.31074901554805
 31
0.0
  0
LINE
  5
538
  8
LAYER1
 62
    18
 10
467.4834623491708
 20
42.31074901554805
 30
0.0
 11
467.4834623491708
 21
53.720749015548
 31
0.0
  0
LINE
  5
539
  8
LAYER1
 62
    18
 10
467.4834623491708
 20
53.720749015548
 30
0.0
 11
475.4834623491708
 21
53.720749015548
 31
0.0
  0
LINE
  5
53A
  8
LAYER1
 62
    18
 10
475.4834623491708
 20
67.17074901554801
 30
0.0
 11
475.4834623491708
 21
69.21074901554807
 31
0.0
  0
LINE
  5
53B
  8
LAYER1
 62
    18
 10
475.4834623491708
 20
80.62074901554793
 30
0.0
 11
475.4834623491708
 21
82.66074901554799
 31
0.0
  0
LINE
  5
53C
  8
LAYER1
 62
    18
 10
475.4834623491708
 20
55.76074901554797
 30
0.0
 11
467.4834623491708
 21
55.76074901554797
 31
0.0
  0
LINE
  5
53D
  8
LAYER1
 62
    18
 10
467.4834623491708
 20
67.17074901554801
 30
0.0
 11
475.4834623491708
 21
67.17074901554801
 31
0.0
  0
LINE
  5
53E
  8
LAYER1
 62
    18
 10
467.4834623491708
 20
55.76074901554797
 30
0.0
 11
467.4834623491708
 21
67.17074901554801
 31
0.0
  0
LINE
  5
53F
  8
LAYER1
 62
    18
 10
475.4834623491708
 20
69.21074901554807
 30
0.0
 11
467.4834623491708
 21
69.21074901554807
 31
0.0
  0
LINE
  5
540
  8
LAYER1
 62
    18
 10
467.4834623491708
 20
69.21074901554807
 30
0.0
 11
467.4834623491708
 21
80.62074901554793
 31
0.0
  0
LINE
  5
541
  8
LAYER1
 62
    18
 10
467.4834623491708
 20
80.62074901554793
 30
0.0
 11
475.4834623491708
 21
80.62074901554793
 31
0.0
  0
LINE
  5
542
  8
LAYER1
 62
    18
 10
475.4834623491708
 20
94.07074901554803
 30
0.0
 11
475.4834623491708
 21
96.110749015548
 31
0.0
  0
LINE
  5
543
  8
LAYER1
 62
    18
 10
475.4834623491708
 20
107.5207490155479
 30
0.0
 11
475.4834623491708
 21
109.5607490155479
 31
0.0
  0
LINE
  5
544
  8
LAYER1
 62
    18
 10
475.4834623491708
 20
82.66074901554799
 30
0.0
 11
467.4834623491708
 21
82.66074901554799
 31
0.0
  0
LINE
  5
545
  8
LAYER1
 62
    18
 10
467.4834623491708
 20
94.07074901554803
 30
0.0
 11
475.4834623491708
 21
94.07074901554803
 31
0.0
  0
LINE
  5
546
  8
LAYER1
 62
    18
 10
467.4834623491708
 20
82.66074901554799
 30
0.0
 11
467.4834623491708
 21
94.07074901554803
 31
0.0
  0
LINE
  5
547
  8
LAYER1
 62
    18
 10
475.4834623491708
 20
96.110749015548
 30
0.0
 11
467.4834623491708
 21
96.110749015548
 31
0.0
  0
LINE
  5
548
  8
LAYER1
 62
    18
 10
467.4834623491708
 20
96.110749015548
 30
0.0
 11
467.4834623491708
 21
107.5207490155479
 31
0.0
  0
LINE
  5
549
  8
LAYER1
 62
    18
 10
467.4834623491708
 20
107.5207490155479
 30
0.0
 11
475.4834623491708
 21
107.5207490155479
 31
0.0
  0
LINE
  5
54A
  8
LAYER1
 62
    18
 10
475.4834623491708
 20
120.9707490155481
 30
0.0
 11
475.4834623491708
 21
123.010749015548
 31
0.0
  0
LINE
  5
54B
  8
LAYER1
 62
    18
 10
475.4834623491708
 20
134.4207490155479
 30
0.0
 11
475.4834623491708
 21
136.4607490155481
 31
0.0
  0
LINE
  5
54C
  8
LAYER1
 62
    18
 10
475.4834623491708
 20
109.5607490155479
 30
0.0
 11
467.4834623491708
 21
109.5607490155479
 31
0.0
  0
LINE
  5
54D
  8
LAYER1
 62
    18
 10
467.4834623491708
 20
120.9707490155481
 30
0.0
 11
475.4834623491708
 21
120.9707490155481
 31
0.0
  0
LINE
  5
54E
  8
LAYER1
 62
    18
 10
467.4834623491708
 20
109.5607490155479
 30
0.0
 11
467.4834623491708
 21
120.9707490155481
 31
0.0
  0
LINE
  5
54F
  8
LAYER1
 62
    18
 10
475.4834623491708
 20
123.010749015548
 30
0.0
 11
467.4834623491708
 21
123.010749015548
 31
0.0
  0
LINE
  5
550
  8
LAYER1
 62
    18
 10
467.4834623491708
 20
123.010749015548
 30
0.0
 11
467.4834623491708
 21
134.4207490155479
 31
0.0
  0
LINE
  5
551
  8
LAYER1
 62
    18
 10
467.4834623491708
 20
134.4207490155479
 30
0.0
 11
475.4834623491708
 21
134.4207490155479
 31
0.0
  0
LINE
  5
552
  8
LAYER1
 62
    18
 10
475.4834623491708
 20
147.8707490155481
 30
0.0
 11
475.4834623491708
 21
149.9107490155481
 31
0.0
  0
LINE
  5
553
  8
LAYER1
 62
    18
 10
475.4834623491708
 20
161.3207490155479
 30
0.0
 11
475.4834623491708
 21
163.3607490155479
 31
0.0
  0
LINE
  5
554
  8
LAYER1
 62
    18
 10
475.4834623491708
 20
136.4607490155481
 30
0.0
 11
467.4834623491708
 21
136.4607490155481
 31
0.0
  0
LINE
  5
555
  8
LAYER1
 62
    18
 10
467.4834623491708
 20
147.8707490155481
 30
0.0
 11
475.4834623491708
 21
147.8707490155481
 31
0.0
  0
LINE
  5
556
  8
LAYER1
 62
    18
 10
467.4834623491708
 20
136.4607490155481
 30
0.0
 11
467.4834623491708
 21
147.8707490155481
 31
0.0
  0
LINE
  5
557
  8
LAYER1
 62
    18
 10
475.4834623491708
 20
149.9107490155481
 30
0.0
 11
467.4834623491708
 21
149.9107490155481
 31
0.0
  0
LINE
  5
558
  8
LAYER1
 62
    18
 10
467.4834623491708
 20
149.9107490155481
 30
0.0
 11
467.4834623491708
 21
161.3207490155479
 31
0.0
  0
LINE
  5
559
  8
LAYER1
 62
    18
 10
467.4834623491708
 20
161.3207490155479
 30
0.0
 11
475.4834623491708
 21
161.3207490155479
 31
0.0
  0
LINE
  5
55A
  8
LAYER1
 62
    18
 10
475.4834623491708
 20
174.7707490155479
 30
0.0
 11
475.4834623491708
 21
176.8107490155481
 31
0.0
  0
LINE
  5
55B
  8
LAYER1
 62
    18
 10
475.4834623491708
 20
188.2207490155479
 30
0.0
 11
475.4834623491708
 21
190.2607490155478
 31
0.0
  0
LINE
  5
55C
  8
LAYER1
 62
    18
 10
475.4834623491708
 20
163.3607490155479
 30
0.0
 11
467.4834623491708
 21
163.3607490155479
 31
0.0
  0
LINE
  5
55D
  8
LAYER1
 62
    18
 10
467.4834623491708
 20
174.7707490155479
 30
0.0
 11
475.4834623491708
 21
174.7707490155479
 31
0.0
  0
LINE
  5
55E
  8
LAYER1
 62
    18
 10
467.4834623491708
 20
163.3607490155479
 30
0.0
 11
467.4834623491708
 21
174.7707490155479
 31
0.0
  0
LINE
  5
55F
  8
LAYER1
 62
    18
 10
475.4834623491708
 20
176.8107490155481
 30
0.0
 11
467.4834623491708
 21
176.8107490155481
 31
0.0
  0
LINE
  5
560
  8
LAYER1
 62
    18
 10
467.4834623491708
 20
176.8107490155481
 30
0.0
 11
467.4834623491708
 21
188.2207490155479
 31
0.0
  0
LINE
  5
561
  8
LAYER1
 62
    18
 10
467.4834623491708
 20
188.2207490155479
 30
0.0
 11
475.4834623491708
 21
188.2207490155479
 31
0.0
  0
LINE
  5
562
  8
LAYER1
 62
    18
 10
475.4834623491708
 20
190.2607490155478
 30
0.0
 11
483.4834623491708
 21
190.2607490155478
 31
0.0
  0
LINE
  5
563
  8
LAYER1
 62
    18
 10
475.4834623491708
 20
28.86074901554804
 30
0.0
 11
475.4834623491708
 21
27.84074901554806
 31
0.0
  0
LINE
  5
564
  8
LAYER1
 62
    18
 10
475.4834623491708
 20
27.84074901554806
 30
0.0
 11
483.4834623491708
 21
27.84074901554806
 31
0.0
  0
LINE
  5
565
  8
LAYER1
 62
    18
 10
483.4834623491708
 20
27.84074901554806
 30
0.0
 11
483.4834623491708
 21
190.2607490155478
 31
0.0
  0
LINE
  5
566
  8
LAYER1
 62
    18
 10
495.5500548640672
 20
40.27074901554808
 30
0.0
 11
495.5500548640672
 21
42.31074901554805
 31
0.0
  0
LINE
  5
567
  8
LAYER1
 62
    18
 10
495.5500548640672
 20
53.720749015548
 30
0.0
 11
495.5500548640672
 21
55.76074901554797
 31
0.0
  0
LINE
  5
568
  8
LAYER1
 62
    18
 10
495.5500548640672
 20
28.86074901554804
 30
0.0
 11
487.5500548640672
 21
28.86074901554804
 31
0.0
  0
LINE
  5
569
  8
LAYER1
 62
    18
 10
487.5500548640672
 20
40.27074901554808
 30
0.0
 11
495.5500548640672
 21
40.27074901554808
 31
0.0
  0
LINE
  5
56A
  8
LAYER1
 62
    18
 10
487.5500548640672
 20
28.86074901554804
 30
0.0
 11
487.5500548640672
 21
40.27074901554808
 31
0.0
  0
LINE
  5
56B
  8
LAYER1
 62
    18
 10
495.5500548640672
 20
42.31074901554805
 30
0.0
 11
487.5500548640672
 21
42.31074901554805
 31
0.0
  0
LINE
  5
56C
  8
LAYER1
 62
    18
 10
487.5500548640672
 20
42.31074901554805
 30
0.0
 11
487.5500548640672
 21
53.720749015548
 31
0.0
  0
LINE
  5
56D
  8
LAYER1
 62
    18
 10
487.5500548640672
 20
53.720749015548
 30
0.0
 11
495.5500548640672
 21
53.720749015548
 31
0.0
  0
LINE
  5
56E
  8
LAYER1
 62
    18
 10
495.5500548640672
 20
67.17074901554801
 30
0.0
 11
495.5500548640672
 21
69.21074901554807
 31
0.0
  0
LINE
  5
56F
  8
LAYER1
 62
    18
 10
495.5500548640672
 20
80.62074901554793
 30
0.0
 11
495.5500548640672
 21
82.66074901554799
 31
0.0
  0
LINE
  5
570
  8
LAYER1
 62
    18
 10
495.5500548640672
 20
55.76074901554797
 30
0.0
 11
487.5500548640672
 21
55.76074901554797
 31
0.0
  0
LINE
  5
571
  8
LAYER1
 62
    18
 10
487.5500548640672
 20
67.17074901554801
 30
0.0
 11
495.5500548640672
 21
67.17074901554801
 31
0.0
  0
LINE
  5
572
  8
LAYER1
 62
    18
 10
487.5500548640672
 20
55.76074901554797
 30
0.0
 11
487.5500548640672
 21
67.17074901554801
 31
0.0
  0
LINE
  5
573
  8
LAYER1
 62
    18
 10
495.5500548640672
 20
69.21074901554807
 30
0.0
 11
487.5500548640672
 21
69.21074901554807
 31
0.0
  0
LINE
  5
574
  8
LAYER1
 62
    18
 10
487.5500548640672
 20
69.21074901554807
 30
0.0
 11
487.5500548640672
 21
80.62074901554793
 31
0.0
  0
LINE
  5
575
  8
LAYER1
 62
    18
 10
487.5500548640672
 20
80.62074901554793
 30
0.0
 11
495.5500548640672
 21
80.62074901554793
 31
0.0
  0
LINE
  5
576
  8
LAYER1
 62
    18
 10
495.5500548640672
 20
94.07074901554803
 30
0.0
 11
495.5500548640672
 21
96.110749015548
 31
0.0
  0
LINE
  5
577
  8
LAYER1
 62
    18
 10
495.5500548640672
 20
107.5207490155479
 30
0.0
 11
495.5500548640672
 21
109.5607490155479
 31
0.0
  0
LINE
  5
578
  8
LAYER1
 62
    18
 10
495.5500548640672
 20
82.66074901554799
 30
0.0
 11
487.5500548640672
 21
82.66074901554799
 31
0.0
  0
LINE
  5
579
  8
LAYER1
 62
    18
 10
487.5500548640672
 20
94.07074901554803
 30
0.0
 11
495.5500548640672
 21
94.07074901554803
 31
0.0
  0
LINE
  5
57A
  8
LAYER1
 62
    18
 10
487.5500548640672
 20
82.66074901554799
 30
0.0
 11
487.5500548640672
 21
94.07074901554803
 31
0.0
  0
LINE
  5
57B
  8
LAYER1
 62
    18
 10
495.5500548640672
 20
96.110749015548
 30
0.0
 11
487.5500548640672
 21
96.110749015548
 31
0.0
  0
LINE
  5
57C
  8
LAYER1
 62
    18
 10
487.5500548640672
 20
96.110749015548
 30
0.0
 11
487.5500548640672
 21
107.5207490155479
 31
0.0
  0
LINE
  5
57D
  8
LAYER1
 62
    18
 10
487.5500548640672
 20
107.5207490155479
 30
0.0
 11
495.5500548640672
 21
107.5207490155479
 31
0.0
  0
LINE
  5
57E
  8
LAYER1
 62
    18
 10
495.5500548640672
 20
120.9707490155481
 30
0.0
 11
495.5500548640672
 21
123.010749015548
 31
0.0
  0
LINE
  5
57F
  8
LAYER1
 62
    18
 10
495.5500548640672
 20
134.4207490155479
 30
0.0
 11
495.5500548640672
 21
136.4607490155481
 31
0.0
  0
LINE
  5
580
  8
LAYER1
 62
    18
 10
495.5500548640672
 20
109.5607490155479
 30
0.0
 11
487.5500548640672
 21
109.5607490155479
 31
0.0
  0
LINE
  5
581
  8
LAYER1
 62
    18
 10
487.5500548640672
 20
120.9707490155481
 30
0.0
 11
495.5500548640672
 21
120.9707490155481
 31
0.0
  0
LINE
  5
582
  8
LAYER1
 62
    18
 10
487.5500548640672
 20
109.5607490155479
 30
0.0
 11
487.5500548640672
 21
120.9707490155481
 31
0.0
  0
LINE
  5
583
  8
LAYER1
 62
    18
 10
495.5500548640672
 20
123.010749015548
 30
0.0
 11
487.5500548640672
 21
123.010749015548
 31
0.0
  0
LINE
  5
584
  8
LAYER1
 62
    18
 10
487.5500548640672
 20
123.010749015548
 30
0.0
 11
487.5500548640672
 21
134.4207490155479
 31
0.0
  0
LINE
  5
585
  8
LAYER1
 62
    18
 10
487.5500548640672
 20
134.4207490155479
 30
0.0
 11
495.5500548640672
 21
134.4207490155479
 31
0.0
  0
LINE
  5
586
  8
LAYER1
 62
    18
 10
495.5500548640672
 20
147.8707490155481
 30
0.0
 11
495.5500548640672
 21
149.9107490155481
 31
0.0
  0
LINE
  5
587
  8
LAYER1
 62
    18
 10
495.5500548640672
 20
161.3207490155479
 30
0.0
 11
495.5500548640672
 21
163.3607490155479
 31
0.0
  0
LINE
  5
588
  8
LAYER1
 62
    18
 10
495.5500548640672
 20
136.4607490155481
 30
0.0
 11
487.5500548640672
 21
136.4607490155481
 31
0.0
  0
LINE
  5
589
  8
LAYER1
 62
    18
 10
487.5500548640672
 20
147.8707490155481
 30
0.0
 11
495.5500548640672
 21
147.8707490155481
 31
0.0
  0
LINE
  5
58A
  8
LAYER1
 62
    18
 10
487.5500548640672
 20
136.4607490155481
 30
0.0
 11
487.5500548640672
 21
147.8707490155481
 31
0.0
  0
LINE
  5
58B
  8
LAYER1
 62
    18
 10
495.5500548640672
 20
149.9107490155481
 30
0.0
 11
487.5500548640672
 21
149.9107490155481
 31
0.0
  0
LINE
  5
58C
  8
LAYER1
 62
    18
 10
487.5500548640672
 20
149.9107490155481
 30
0.0
 11
487.5500548640672
 21
161.3207490155479
 31
0.0
  0
LINE
  5
58D
  8
LAYER1
 62
    18
 10
487.5500548640672
 20
161.3207490155479
 30
0.0
 11
495.5500548640672
 21
161.3207490155479
 31
0.0
  0
LINE
  5
58E
  8
LAYER1
 62
    18
 10
495.5500548640672
 20
174.7707490155479
 30
0.0
 11
495.5500548640672
 21
176.8107490155481
 31
0.0
  0
LINE
  5
58F
  8
LAYER1
 62
    18
 10
495.5500548640672
 20
188.2207490155479
 30
0.0
 11
495.5500548640672
 21
190.2607490155478
 31
0.0
  0
LINE
  5
590
  8
LAYER1
 62
    18
 10
495.5500548640672
 20
163.3607490155479
 30
0.0
 11
487.5500548640672
 21
163.3607490155479
 31
0.0
  0
LINE
  5
591
  8
LAYER1
 62
    18
 10
487.5500548640672
 20
174.7707490155479
 30
0.0
 11
495.5500548640672
 21
174.7707490155479
 31
0.0
  0
LINE
  5
592
  8
LAYER1
 62
    18
 10
487.5500548640672
 20
163.3607490155479
 30
0.0
 11
487.5500548640672
 21
174.7707490155479
 31
0.0
  0
LINE
  5
593
  8
LAYER1
 62
    18
 10
495.5500548640672
 20
176.8107490155481
 30
0.0
 11
487.5500548640672
 21
176.8107490155481
 31
0.0
  0
LINE
  5
594
  8
LAYER1
 62
    18
 10
487.5500548640672
 20
176.8107490155481
 30
0.0
 11
487.5500548640672
 21
188.2207490155479
 31
0.0
  0
LINE
  5
595
  8
LAYER1
 62
    18
 10
487.5500548640672
 20
188.2207490155479
 30
0.0
 11
495.5500548640672
 21
188.2207490155479
 31
0.0
  0
LINE
  5
596
  8
LAYER1
 62
    18
 10
495.5500548640672
 20
190.2607490155478
 30
0.0
 11
503.5500548640672
 21
190.2607490155478
 31
0.0
  0
LINE
  5
597
  8
LAYER1
 62
    18
 10
495.5500548640672
 20
28.86074901554804
 30
0.0
 11
495.5500548640672
 21
27.84074901554806
 31
0.0
  0
LINE
  5
598
  8
LAYER1
 62
    18
 10
495.5500548640672
 20
27.84074901554806
 30
0.0
 11
503.5500548640672
 21
27.84074901554806
 31
0.0
  0
LINE
  5
599
  8
LAYER1
 62
    18
 10
503.5500548640672
 20
27.84074901554806
 30
0.0
 11
503.5500548640672
 21
190.2607490155478
 31
0.0
  0
LINE
  5
59A
  8
LAYER1
 62
    18
 10
514.845043182422
 20
40.27074901554808
 30
0.0
 11
514.845043182422
 21
42.31074901554805
 31
0.0
  0
LINE
  5
59B
  8
LAYER1
 62
    18
 10
514.845043182422
 20
53.720749015548
 30
0.0
 11
514.845043182422
 21
55.76074901554797
 31
0.0
  0
LINE
  5
59C
  8
LAYER1
 62
    18
 10
514.845043182422
 20
28.86074901554804
 30
0.0
 11
506.845043182422
 21
28.86074901554804
 31
0.0
  0
LINE
  5
59D
  8
LAYER1
 62
    18
 10
506.845043182422
 20
40.27074901554808
 30
0.0
 11
514.845043182422
 21
40.27074901554808
 31
0.0
  0
LINE
  5
59E
  8
LAYER1
 62
    18
 10
506.845043182422
 20
28.86074901554804
 30
0.0
 11
506.845043182422
 21
40.27074901554808
 31
0.0
  0
LINE
  5
59F
  8
LAYER1
 62
    18
 10
514.845043182422
 20
42.31074901554805
 30
0.0
 11
506.845043182422
 21
42.31074901554805
 31
0.0
  0
LINE
  5
5A0
  8
LAYER1
 62
    18
 10
506.845043182422
 20
42.31074901554805
 30
0.0
 11
506.845043182422
 21
53.720749015548
 31
0.0
  0
LINE
  5
5A1
  8
LAYER1
 62
    18
 10
506.845043182422
 20
53.720749015548
 30
0.0
 11
514.845043182422
 21
53.720749015548
 31
0.0
  0
LINE
  5
5A2
  8
LAYER1
 62
    18
 10
514.845043182422
 20
67.17074901554801
 30
0.0
 11
514.845043182422
 21
69.21074901554807
 31
0.0
  0
LINE
  5
5A3
  8
LAYER1
 62
    18
 10
514.845043182422
 20
80.62074901554793
 30
0.0
 11
514.845043182422
 21
82.66074901554799
 31
0.0
  0
LINE
  5
5A4
  8
LAYER1
 62
    18
 10
514.845043182422
 20
55.76074901554797
 30
0.0
 11
506.845043182422
 21
55.76074901554797
 31
0.0
  0
LINE
  5
5A5
  8
LAYER1
 62
    18
 10
506.845043182422
 20
67.17074901554801
 30
0.0
 11
514.845043182422
 21
67.17074901554801
 31
0.0
  0
LINE
  5
5A6
  8
LAYER1
 62
    18
 10
506.845043182422
 20
55.76074901554797
 30
0.0
 11
506.845043182422
 21
67.17074901554801
 31
0.0
  0
LINE
  5
5A7
  8
LAYER1
 62
    18
 10
514.845043182422
 20
69.21074901554807
 30
0.0
 11
506.845043182422
 21
69.21074901554807
 31
0.0
  0
LINE
  5
5A8
  8
LAYER1
 62
    18
 10
506.845043182422
 20
69.21074901554807
 30
0.0
 11
506.845043182422
 21
80.62074901554793
 31
0.0
  0
LINE
  5
5A9
  8
LAYER1
 62
    18
 10
506.845043182422
 20
80.62074901554793
 30
0.0
 11
514.845043182422
 21
80.62074901554793
 31
0.0
  0
LINE
  5
5AA
  8
LAYER1
 62
    18
 10
514.845043182422
 20
94.07074901554803
 30
0.0
 11
514.845043182422
 21
96.110749015548
 31
0.0
  0
LINE
  5
5AB
  8
LAYER1
 62
    18
 10
514.845043182422
 20
107.5207490155479
 30
0.0
 11
514.845043182422
 21
109.5607490155479
 31
0.0
  0
LINE
  5
5AC
  8
LAYER1
 62
    18
 10
514.845043182422
 20
82.66074901554799
 30
0.0
 11
506.845043182422
 21
82.66074901554799
 31
0.0
  0
LINE
  5
5AD
  8
LAYER1
 62
    18
 10
506.845043182422
 20
94.07074901554803
 30
0.0
 11
514.845043182422
 21
94.07074901554803
 31
0.0
  0
LINE
  5
5AE
  8
LAYER1
 62
    18
 10
506.845043182422
 20
82.66074901554799
 30
0.0
 11
506.845043182422
 21
94.07074901554803
 31
0.0
  0
LINE
  5
5AF
  8
LAYER1
 62
    18
 10
514.845043182422
 20
96.110749015548
 30
0.0
 11
506.845043182422
 21
96.110749015548
 31
0.0
  0
LINE
  5
5B0
  8
LAYER1
 62
    18
 10
506.845043182422
 20
96.110749015548
 30
0.0
 11
506.845043182422
 21
107.5207490155479
 31
0.0
  0
LINE
  5
5B1
  8
LAYER1
 62
    18
 10
506.845043182422
 20
107.5207490155479
 30
0.0
 11
514.845043182422
 21
107.5207490155479
 31
0.0
  0
LINE
  5
5B2
  8
LAYER1
 62
    18
 10
514.845043182422
 20
120.9707490155481
 30
0.0
 11
514.845043182422
 21
123.010749015548
 31
0.0
  0
LINE
  5
5B3
  8
LAYER1
 62
    18
 10
514.845043182422
 20
134.4207490155479
 30
0.0
 11
514.845043182422
 21
136.4607490155481
 31
0.0
  0
LINE
  5
5B4
  8
LAYER1
 62
    18
 10
514.845043182422
 20
109.5607490155479
 30
0.0
 11
506.845043182422
 21
109.5607490155479
 31
0.0
  0
LINE
  5
5B5
  8
LAYER1
 62
    18
 10
506.845043182422
 20
120.9707490155481
 30
0.0
 11
514.845043182422
 21
120.9707490155481
 31
0.0
  0
LINE
  5
5B6
  8
LAYER1
 62
    18
 10
506.845043182422
 20
109.5607490155479
 30
0.0
 11
506.845043182422
 21
120.9707490155481
 31
0.0
  0
LINE
  5
5B7
  8
LAYER1
 62
    18
 10
514.845043182422
 20
123.010749015548
 30
0.0
 11
506.845043182422
 21
123.010749015548
 31
0.0
  0
LINE
  5
5B8
  8
LAYER1
 62
    18
 10
506.845043182422
 20
123.010749015548
 30
0.0
 11
506.845043182422
 21
134.4207490155479
 31
0.0
  0
LINE
  5
5B9
  8
LAYER1
 62
    18
 10
506.845043182422
 20
134.4207490155479
 30
0.0
 11
514.845043182422
 21
134.4207490155479
 31
0.0
  0
LINE
  5
5BA
  8
LAYER1
 62
    18
 10
514.845043182422
 20
147.8707490155481
 30
0.0
 11
514.845043182422
 21
149.9107490155481
 31
0.0
  0
LINE
  5
5BB
  8
LAYER1
 62
    18
 10
514.845043182422
 20
161.3207490155479
 30
0.0
 11
514.845043182422
 21
163.3607490155479
 31
0.0
  0
LINE
  5
5BC
  8
LAYER1
 62
    18
 10
514.845043182422
 20
136.4607490155481
 30
0.0
 11
506.845043182422
 21
136.4607490155481
 31
0.0
  0
LINE
  5
5BD
  8
LAYER1
 62
    18
 10
506.845043182422
 20
147.8707490155481
 30
0.0
 11
514.845043182422
 21
147.8707490155481
 31
0.0
  0
LINE
  5
5BE
  8
LAYER1
 62
    18
 10
506.845043182422
 20
136.4607490155481
 30
0.0
 11
506.845043182422
 21
147.8707490155481
 31
0.0
  0
LINE
  5
5BF
  8
LAYER1
 62
    18
 10
514.845043182422
 20
149.9107490155481
 30
0.0
 11
506.845043182422
 21
149.9107490155481
 31
0.0
  0
LINE
  5
5C0
  8
LAYER1
 62
    18
 10
506.845043182422
 20
149.9107490155481
 30
0.0
 11
506.845043182422
 21
161.3207490155479
 31
0.0
  0
LINE
  5
5C1
  8
LAYER1
 62
    18
 10
506.845043182422
 20
161.3207490155479
 30
0.0
 11
514.845043182422
 21
161.3207490155479
 31
0.0
  0
LINE
  5
5C2
  8
LAYER1
 62
    18
 10
514.845043182422
 20
174.7707490155479
 30
0.0
 11
514.845043182422
 21
176.8107490155481
 31
0.0
  0
LINE
  5
5C3
  8
LAYER1
 62
    18
 10
514.845043182422
 20
188.2207490155479
 30
0.0
 11
514.845043182422
 21
190.2607490155478
 31
0.0
  0
LINE
  5
5C4
  8
LAYER1
 62
    18
 10
514.845043182422
 20
163.3607490155479
 30
0.0
 11
506.845043182422
 21
163.3607490155479
 31
0.0
  0
LINE
  5
5C5
  8
LAYER1
 62
    18
 10
506.845043182422
 20
174.7707490155479
 30
0.0
 11
514.845043182422
 21
174.7707490155479
 31
0.0
  0
LINE
  5
5C6
  8
LAYER1
 62
    18
 10
506.845043182422
 20
163.3607490155479
 30
0.0
 11
506.845043182422
 21
174.7707490155479
 31
0.0
  0
LINE
  5
5C7
  8
LAYER1
 62
    18
 10
514.845043182422
 20
176.8107490155481
 30
0.0
 11
506.845043182422
 21
176.8107490155481
 31
0.0
  0
LINE
  5
5C8
  8
LAYER1
 62
    18
 10
506.845043182422
 20
176.8107490155481
 30
0.0
 11
506.845043182422
 21
188.2207490155479
 31
0.0
  0
LINE
  5
5C9
  8
LAYER1
 62
    18
 10
506.845043182422
 20
188.2207490155479
 30
0.0
 11
514.845043182422
 21
188.2207490155479
 31
0.0
  0
LINE
  5
5CA
  8
LAYER1
 62
    18
 10
514.845043182422
 20
190.2607490155478
 30
0.0
 11
522.845043182422
 21
190.2607490155478
 31
0.0
  0
LINE
  5
5CB
  8
LAYER1
 62
    18
 10
514.845043182422
 20
28.86074901554804
 30
0.0
 11
514.845043182422
 21
27.84074901554806
 31
0.0
  0
LINE
  5
5CC
  8
LAYER1
 62
    18
 10
514.845043182422
 20
27.84074901554806
 30
0.0
 11
522.845043182422
 21
27.84074901554806
 31
0.0
  0
LINE
  5
5CD
  8
LAYER1
 62
    18
 10
522.845043182422
 20
27.84074901554806
 30
0.0
 11
522.845043182422
 21
190.2607490155478
 31
0.0
  0
LINE
  5
5CE
  8
LAYER1
 62
    18
 10
534.6106409719578
 20
40.27074901554808
 30
0.0
 11
534.6106409719578
 21
42.31074901554805
 31
0.0
  0
LINE
  5
5CF
  8
LAYER1
 62
    18
 10
534.6106409719578
 20
53.720749015548
 30
0.0
 11
534.6106409719578
 21
55.76074901554797
 31
0.0
  0
LINE
  5
5D0
  8
LAYER1
 62
    18
 10
534.6106409719578
 20
28.86074901554804
 30
0.0
 11
526.6106409719578
 21
28.86074901554804
 31
0.0
  0
LINE
  5
5D1
  8
LAYER1
 62
    18
 10
526.6106409719578
 20
40.27074901554808
 30
0.0
 11
534.6106409719578
 21
40.27074901554808
 31
0.0
  0
LINE
  5
5D2
  8
LAYER1
 62
    18
 10
526.6106409719578
 20
28.86074901554804
 30
0.0
 11
526.6106409719578
 21
40.27074901554808
 31
0.0
  0
LINE
  5
5D3
  8
LAYER1
 62
    18
 10
534.6106409719578
 20
42.31074901554805
 30
0.0
 11
526.6106409719578
 21
42.31074901554805
 31
0.0
  0
LINE
  5
5D4
  8
LAYER1
 62
    18
 10
526.6106409719578
 20
42.31074901554805
 30
0.0
 11
526.6106409719578
 21
53.720749015548
 31
0.0
  0
LINE
  5
5D5
  8
LAYER1
 62
    18
 10
526.6106409719578
 20
53.720749015548
 30
0.0
 11
534.6106409719578
 21
53.720749015548
 31
0.0
  0
LINE
  5
5D6
  8
LAYER1
 62
    18
 10
534.6106409719578
 20
67.17074901554801
 30
0.0
 11
534.6106409719578
 21
69.21074901554807
 31
0.0
  0
LINE
  5
5D7
  8
LAYER1
 62
    18
 10
534.6106409719578
 20
80.62074901554793
 30
0.0
 11
534.6106409719578
 21
82.66074901554799
 31
0.0
  0
LINE
  5
5D8
  8
LAYER1
 62
    18
 10
534.6106409719578
 20
55.76074901554797
 30
0.0
 11
526.6106409719578
 21
55.76074901554797
 31
0.0
  0
LINE
  5
5D9
  8
LAYER1
 62
    18
 10
526.6106409719578
 20
67.17074901554801
 30
0.0
 11
534.6106409719578
 21
67.17074901554801
 31
0.0
  0
LINE
  5
5DA
  8
LAYER1
 62
    18
 10
526.6106409719578
 20
55.76074901554797
 30
0.0
 11
526.6106409719578
 21
67.17074901554801
 31
0.0
  0
LINE
  5
5DB
  8
LAYER1
 62
    18
 10
534.6106409719578
 20
69.21074901554807
 30
0.0
 11
526.6106409719578
 21
69.21074901554807
 31
0.0
  0
LINE
  5
5DC
  8
LAYER1
 62
    18
 10
526.6106409719578
 20
69.21074901554807
 30
0.0
 11
526.6106409719578
 21
80.62074901554793
 31
0.0
  0
LINE
  5
5DD
  8
LAYER1
 62
    18
 10
526.6106409719578
 20
80.62074901554793
 30
0.0
 11
534.6106409719578
 21
80.62074901554793
 31
0.0
  0
LINE
  5
5DE
  8
LAYER1
 62
    18
 10
534.6106409719578
 20
94.07074901554803
 30
0.0
 11
534.6106409719578
 21
96.110749015548
 31
0.0
  0
LINE
  5
5DF
  8
LAYER1
 62
    18
 10
534.6106409719578
 20
107.5207490155479
 30
0.0
 11
534.6106409719578
 21
109.5607490155479
 31
0.0
  0
LINE
  5
5E0
  8
LAYER1
 62
    18
 10
534.6106409719578
 20
82.66074901554799
 30
0.0
 11
526.6106409719578
 21
82.66074901554799
 31
0.0
  0
LINE
  5
5E1
  8
LAYER1
 62
    18
 10
526.6106409719578
 20
94.07074901554803
 30
0.0
 11
534.6106409719578
 21
94.07074901554803
 31
0.0
  0
LINE
  5
5E2
  8
LAYER1
 62
    18
 10
526.6106409719578
 20
82.66074901554799
 30
0.0
 11
526.6106409719578
 21
94.07074901554803
 31
0.0
  0
LINE
  5
5E3
  8
LAYER1
 62
    18
 10
534.6106409719578
 20
96.110749015548
 30
0.0
 11
526.6106409719578
 21
96.110749015548
 31
0.0
  0
LINE
  5
5E4
  8
LAYER1
 62
    18
 10
526.6106409719578
 20
96.110749015548
 30
0.0
 11
526.6106409719578
 21
107.5207490155479
 31
0.0
  0
LINE
  5
5E5
  8
LAYER1
 62
    18
 10
526.6106409719578
 20
107.5207490155479
 30
0.0
 11
534.6106409719578
 21
107.5207490155479
 31
0.0
  0
LINE
  5
5E6
  8
LAYER1
 62
    18
 10
534.6106409719578
 20
120.9707490155481
 30
0.0
 11
534.6106409719578
 21
123.010749015548
 31
0.0
  0
LINE
  5
5E7
  8
LAYER1
 62
    18
 10
534.6106409719578
 20
134.4207490155479
 30
0.0
 11
534.6106409719578
 21
136.4607490155481
 31
0.0
  0
LINE
  5
5E8
  8
LAYER1
 62
    18
 10
534.6106409719578
 20
109.5607490155479
 30
0.0
 11
526.6106409719578
 21
109.5607490155479
 31
0.0
  0
LINE
  5
5E9
  8
LAYER1
 62
    18
 10
526.6106409719578
 20
120.9707490155481
 30
0.0
 11
534.6106409719578
 21
120.9707490155481
 31
0.0
  0
LINE
  5
5EA
  8
LAYER1
 62
    18
 10
526.6106409719578
 20
109.5607490155479
 30
0.0
 11
526.6106409719578
 21
120.9707490155481
 31
0.0
  0
LINE
  5
5EB
  8
LAYER1
 62
    18
 10
534.6106409719578
 20
123.010749015548
 30
0.0
 11
526.6106409719578
 21
123.010749015548
 31
0.0
  0
LINE
  5
5EC
  8
LAYER1
 62
    18
 10
526.6106409719578
 20
123.010749015548
 30
0.0
 11
526.6106409719578
 21
134.4207490155479
 31
0.0
  0
LINE
  5
5ED
  8
LAYER1
 62
    18
 10
526.6106409719578
 20
134.4207490155479
 30
0.0
 11
534.6106409719578
 21
134.4207490155479
 31
0.0
  0
LINE
  5
5EE
  8
LAYER1
 62
    18
 10
534.6106409719578
 20
147.8707490155481
 30
0.0
 11
534.6106409719578
 21
149.9107490155481
 31
0.0
  0
LINE
  5
5EF
  8
LAYER1
 62
    18
 10
534.6106409719578
 20
161.3207490155479
 30
0.0
 11
534.6106409719578
 21
163.3607490155479
 31
0.0
  0
LINE
  5
5F0
  8
LAYER1
 62
    18
 10
534.6106409719578
 20
136.4607490155481
 30
0.0
 11
526.6106409719578
 21
136.4607490155481
 31
0.0
  0
LINE
  5
5F1
  8
LAYER1
 62
    18
 10
526.6106409719578
 20
147.8707490155481
 30
0.0
 11
534.6106409719578
 21
147.8707490155481
 31
0.0
  0
LINE
  5
5F2
  8
LAYER1
 62
    18
 10
526.6106409719578
 20
136.4607490155481
 30
0.0
 11
526.6106409719578
 21
147.8707490155481
 31
0.0
  0
LINE
  5
5F3
  8
LAYER1
 62
    18
 10
534.6106409719578
 20
149.9107490155481
 30
0.0
 11
526.6106409719578
 21
149.9107490155481
 31
0.0
  0
LINE
  5
5F4
  8
LAYER1
 62
    18
 10
526.6106409719578
 20
149.9107490155481
 30
0.0
 11
526.6106409719578
 21
161.3207490155479
 31
0.0
  0
LINE
  5
5F5
  8
LAYER1
 62
    18
 10
526.6106409719578
 20
161.3207490155479
 30
0.0
 11
534.6106409719578
 21
161.3207490155479
 31
0.0
  0
LINE
  5
5F6
  8
LAYER1
 62
    18
 10
534.6106409719578
 20
174.7707490155479
 30
0.0
 11
534.6106409719578
 21
176.8107490155481
 31
0.0
  0
LINE
  5
5F7
  8
LAYER1
 62
    18
 10
534.6106409719578
 20
188.2207490155479
 30
0.0
 11
534.6106409719578
 21
190.2607490155478
 31
0.0
  0
LINE
  5
5F8
  8
LAYER1
 62
    18
 10
534.6106409719578
 20
163.3607490155479
 30
0.0
 11
526.6106409719578
 21
163.3607490155479
 31
0.0
  0
LINE
  5
5F9
  8
LAYER1
 62
    18
 10
526.6106409719578
 20
174.7707490155479
 30
0.0
 11
534.6106409719578
 21
174.7707490155479
 31
0.0
  0
LINE
  5
5FA
  8
LAYER1
 62
    18
 10
526.6106409719578
 20
163.3607490155479
 30
0.0
 11
526.6106409719578
 21
174.7707490155479
 31
0.0
  0
LINE
  5
5FB
  8
LAYER1
 62
    18
 10
534.6106409719578
 20
176.8107490155481
 30
0.0
 11
526.6106409719578
 21
176.8107490155481
 31
0.0
  0
LINE
  5
5FC
  8
LAYER1
 62
    18
 10
526.6106409719578
 20
176.8107490155481
 30
0.0
 11
526.6106409719578
 21
188.2207490155479
 31
0.0
  0
LINE
  5
5FD
  8
LAYER1
 62
    18
 10
526.6106409719578
 20
188.2207490155479
 30
0.0
 11
534.6106409719578
 21
188.2207490155479
 31
0.0
  0
LINE
  5
5FE
  8
LAYER1
 62
    18
 10
534.6106409719578
 20
190.2607490155478
 30
0.0
 11
542.6106409719577
 21
190.2607490155478
 31
0.0
  0
LINE
  5
5FF
  8
LAYER1
 62
    18
 10
534.6106409719578
 20
28.86074901554804
 30
0.0
 11
534.6106409719578
 21
27.84074901554806
 31
0.0
  0
LINE
  5
600
  8
LAYER1
 62
    18
 10
534.6106409719578
 20
27.84074901554806
 30
0.0
 11
542.6106409719577
 21
27.84074901554806
 31
0.0
  0
LINE
  5
601
  8
LAYER1
 62
    18
 10
542.6106409719577
 20
27.84074901554806
 30
0.0
 11
542.6106409719577
 21
190.2607490155478
 31
0.0
  0
LINE
  5
602
  8
LAYER1
 62
    18
 10
553.9056292903125
 20
40.27074901554808
 30
0.0
 11
553.9056292903125
 21
42.31074901554805
 31
0.0
  0
LINE
  5
603
  8
LAYER1
 62
    18
 10
553.9056292903125
 20
53.720749015548
 30
0.0
 11
553.9056292903125
 21
55.76074901554797
 31
0.0
  0
LINE
  5
604
  8
LAYER1
 62
    18
 10
553.9056292903125
 20
28.86074901554804
 30
0.0
 11
545.9056292903125
 21
28.86074901554804
 31
0.0
  0
LINE
  5
605
  8
LAYER1
 62
    18
 10
545.9056292903125
 20
40.27074901554808
 30
0.0
 11
553.9056292903125
 21
40.27074901554808
 31
0.0
  0
LINE
  5
606
  8
LAYER1
 62
    18
 10
545.9056292903125
 20
28.86074901554804
 30
0.0
 11
545.9056292903125
 21
40.27074901554808
 31
0.0
  0
LINE
  5
607
  8
LAYER1
 62
    18
 10
553.9056292903125
 20
42.31074901554805
 30
0.0
 11
545.9056292903125
 21
42.31074901554805
 31
0.0
  0
LINE
  5
608
  8
LAYER1
 62
    18
 10
545.9056292903125
 20
42.31074901554805
 30
0.0
 11
545.9056292903125
 21
53.720749015548
 31
0.0
  0
LINE
  5
609
  8
LAYER1
 62
    18
 10
545.9056292903125
 20
53.720749015548
 30
0.0
 11
553.9056292903125
 21
53.720749015548
 31
0.0
  0
LINE
  5
60A
  8
LAYER1
 62
    18
 10
553.9056292903125
 20
67.17074901554801
 30
0.0
 11
553.9056292903125
 21
69.21074901554807
 31
0.0
  0
LINE
  5
60B
  8
LAYER1
 62
    18
 10
553.9056292903125
 20
80.62074901554793
 30
0.0
 11
553.9056292903125
 21
82.66074901554799
 31
0.0
  0
LINE
  5
60C
  8
LAYER1
 62
    18
 10
553.9056292903125
 20
55.76074901554797
 30
0.0
 11
545.9056292903125
 21
55.76074901554797
 31
0.0
  0
LINE
  5
60D
  8
LAYER1
 62
    18
 10
545.9056292903125
 20
67.17074901554801
 30
0.0
 11
553.9056292903125
 21
67.17074901554801
 31
0.0
  0
LINE
  5
60E
  8
LAYER1
 62
    18
 10
545.9056292903125
 20
55.76074901554797
 30
0.0
 11
545.9056292903125
 21
67.17074901554801
 31
0.0
  0
LINE
  5
60F
  8
LAYER1
 62
    18
 10
553.9056292903125
 20
69.21074901554807
 30
0.0
 11
545.9056292903125
 21
69.21074901554807
 31
0.0
  0
LINE
  5
610
  8
LAYER1
 62
    18
 10
545.9056292903125
 20
69.21074901554807
 30
0.0
 11
545.9056292903125
 21
80.62074901554793
 31
0.0
  0
LINE
  5
611
  8
LAYER1
 62
    18
 10
545.9056292903125
 20
80.62074901554793
 30
0.0
 11
553.9056292903125
 21
80.62074901554793
 31
0.0
  0
LINE
  5
612
  8
LAYER1
 62
    18
 10
553.9056292903125
 20
94.07074901554803
 30
0.0
 11
553.9056292903125
 21
96.110749015548
 31
0.0
  0
LINE
  5
613
  8
LAYER1
 62
    18
 10
553.9056292903125
 20
107.5207490155479
 30
0.0
 11
553.9056292903125
 21
109.5607490155479
 31
0.0
  0
LINE
  5
614
  8
LAYER1
 62
    18
 10
553.9056292903125
 20
82.66074901554799
 30
0.0
 11
545.9056292903125
 21
82.66074901554799
 31
0.0
  0
LINE
  5
615
  8
LAYER1
 62
    18
 10
545.9056292903125
 20
94.07074901554803
 30
0.0
 11
553.9056292903125
 21
94.07074901554803
 31
0.0
  0
LINE
  5
616
  8
LAYER1
 62
    18
 10
545.9056292903125
 20
82.66074901554799
 30
0.0
 11
545.9056292903125
 21
94.07074901554803
 31
0.0
  0
LINE
  5
617
  8
LAYER1
 62
    18
 10
553.9056292903125
 20
96.110749015548
 30
0.0
 11
545.9056292903125
 21
96.110749015548
 31
0.0
  0
LINE
  5
618
  8
LAYER1
 62
    18
 10
545.9056292903125
 20
96.110749015548
 30
0.0
 11
545.9056292903125
 21
107.5207490155479
 31
0.0
  0
LINE
  5
619
  8
LAYER1
 62
    18
 10
545.9056292903125
 20
107.5207490155479
 30
0.0
 11
553.9056292903125
 21
107.5207490155479
 31
0.0
  0
LINE
  5
61A
  8
LAYER1
 62
    18
 10
553.9056292903125
 20
120.9707490155481
 30
0.0
 11
553.9056292903125
 21
123.010749015548
 31
0.0
  0
LINE
  5
61B
  8
LAYER1
 62
    18
 10
553.9056292903125
 20
134.4207490155479
 30
0.0
 11
553.9056292903125
 21
136.4607490155481
 31
0.0
  0
LINE
  5
61C
  8
LAYER1
 62
    18
 10
553.9056292903125
 20
109.5607490155479
 30
0.0
 11
545.9056292903125
 21
109.5607490155479
 31
0.0
  0
LINE
  5
61D
  8
LAYER1
 62
    18
 10
545.9056292903125
 20
120.9707490155481
 30
0.0
 11
553.9056292903125
 21
120.9707490155481
 31
0.0
  0
LINE
  5
61E
  8
LAYER1
 62
    18
 10
545.9056292903125
 20
109.5607490155479
 30
0.0
 11
545.9056292903125
 21
120.9707490155481
 31
0.0
  0
LINE
  5
61F
  8
LAYER1
 62
    18
 10
553.9056292903125
 20
123.010749015548
 30
0.0
 11
545.9056292903125
 21
123.010749015548
 31
0.0
  0
LINE
  5
620
  8
LAYER1
 62
    18
 10
545.9056292903125
 20
123.010749015548
 30
0.0
 11
545.9056292903125
 21
134.4207490155479
 31
0.0
  0
LINE
  5
621
  8
LAYER1
 62
    18
 10
545.9056292903125
 20
134.4207490155479
 30
0.0
 11
553.9056292903125
 21
134.4207490155479
 31
0.0
  0
LINE
  5
622
  8
LAYER1
 62
    18
 10
553.9056292903125
 20
147.8707490155481
 30
0.0
 11
553.9056292903125
 21
149.9107490155481
 31
0.0
  0
LINE
  5
623
  8
LAYER1
 62
    18
 10
553.9056292903125
 20
161.3207490155479
 30
0.0
 11
553.9056292903125
 21
163.3607490155479
 31
0.0
  0
LINE
  5
624
  8
LAYER1
 62
    18
 10
553.9056292903125
 20
136.4607490155481
 30
0.0
 11
545.9056292903125
 21
136.4607490155481
 31
0.0
  0
LINE
  5
625
  8
LAYER1
 62
    18
 10
545.9056292903125
 20
147.8707490155481
 30
0.0
 11
553.9056292903125
 21
147.8707490155481
 31
0.0
  0
LINE
  5
626
  8
LAYER1
 62
    18
 10
545.9056292903125
 20
136.4607490155481
 30
0.0
 11
545.9056292903125
 21
147.8707490155481
 31
0.0
  0
LINE
  5
627
  8
LAYER1
 62
    18
 10
553.9056292903125
 20
149.9107490155481
 30
0.0
 11
545.9056292903125
 21
149.9107490155481
 31
0.0
  0
LINE
  5
628
  8
LAYER1
 62
    18
 10
545.9056292903125
 20
149.9107490155481
 30
0.0
 11
545.9056292903125
 21
161.3207490155479
 31
0.0
  0
LINE
  5
629
  8
LAYER1
 62
    18
 10
545.9056292903125
 20
161.3207490155479
 30
0.0
 11
553.9056292903125
 21
161.3207490155479
 31
0.0
  0
LINE
  5
62A
  8
LAYER1
 62
    18
 10
553.9056292903125
 20
174.7707490155479
 30
0.0
 11
553.9056292903125
 21
176.8107490155481
 31
0.0
  0
LINE
  5
62B
  8
LAYER1
 62
    18
 10
553.9056292903125
 20
188.2207490155479
 30
0.0
 11
553.9056292903125
 21
190.2607490155478
 31
0.0
  0
LINE
  5
62C
  8
LAYER1
 62
    18
 10
553.9056292903125
 20
163.3607490155479
 30
0.0
 11
545.9056292903125
 21
163.3607490155479
 31
0.0
  0
LINE
  5
62D
  8
LAYER1
 62
    18
 10
545.9056292903125
 20
174.7707490155479
 30
0.0
 11
553.9056292903125
 21
174.7707490155479
 31
0.0
  0
LINE
  5
62E
  8
LAYER1
 62
    18
 10
545.9056292903125
 20
163.3607490155479
 30
0.0
 11
545.9056292903125
 21
174.7707490155479
 31
0.0
  0
LINE
  5
62F
  8
LAYER1
 62
    18
 10
553.9056292903125
 20
176.8107490155481
 30
0.0
 11
545.9056292903125
 21
176.8107490155481
 31
0.0
  0
LINE
  5
630
  8
LAYER1
 62
    18
 10
545.9056292903125
 20
176.8107490155481
 30
0.0
 11
545.9056292903125
 21
188.2207490155479
 31
0.0
  0
LINE
  5
631
  8
LAYER1
 62
    18
 10
545.9056292903125
 20
188.2207490155479
 30
0.0
 11
553.9056292903125
 21
188.2207490155479
 31
0.0
  0
LINE
  5
632
  8
LAYER1
 62
    18
 10
553.9056292903125
 20
190.2607490155478
 30
0.0
 11
561.9056292903125
 21
190.2607490155478
 31
0.0
  0
LINE
  5
633
  8
LAYER1
 62
    18
 10
553.9056292903125
 20
28.86074901554804
 30
0.0
 11
553.9056292903125
 21
27.84074901554806
 31
0.0
  0
LINE
  5
634
  8
LAYER1
 62
    18
 10
553.9056292903125
 20
27.84074901554806
 30
0.0
 11
561.9056292903125
 21
27.84074901554806
 31
0.0
  0
LINE
  5
635
  8
LAYER1
 62
    18
 10
561.9056292903125
 20
27.84074901554806
 30
0.0
 11
561.9056292903125
 21
190.2607490155478
 31
0.0
  0
LINE
  5
636
  8
LAYER1
 62
    18
 10
573.2324152680143
 20
40.27074901554808
 30
0.0
 11
573.2324152680143
 21
42.31074901554805
 31
0.0
  0
LINE
  5
637
  8
LAYER1
 62
    18
 10
573.2324152680143
 20
53.720749015548
 30
0.0
 11
573.2324152680143
 21
55.76074901554797
 31
0.0
  0
LINE
  5
638
  8
LAYER1
 62
    18
 10
573.2324152680143
 20
28.86074901554804
 30
0.0
 11
565.2324152680143
 21
28.86074901554804
 31
0.0
  0
LINE
  5
639
  8
LAYER1
 62
    18
 10
565.2324152680143
 20
40.27074901554808
 30
0.0
 11
573.2324152680143
 21
40.27074901554808
 31
0.0
  0
LINE
  5
63A
  8
LAYER1
 62
    18
 10
565.2324152680143
 20
28.86074901554804
 30
0.0
 11
565.2324152680143
 21
40.27074901554808
 31
0.0
  0
LINE
  5
63B
  8
LAYER1
 62
    18
 10
573.2324152680143
 20
42.31074901554805
 30
0.0
 11
565.2324152680143
 21
42.31074901554805
 31
0.0
  0
LINE
  5
63C
  8
LAYER1
 62
    18
 10
565.2324152680143
 20
42.31074901554805
 30
0.0
 11
565.2324152680143
 21
53.720749015548
 31
0.0
  0
LINE
  5
63D
  8
LAYER1
 62
    18
 10
565.2324152680143
 20
53.720749015548
 30
0.0
 11
573.2324152680143
 21
53.720749015548
 31
0.0
  0
LINE
  5
63E
  8
LAYER1
 62
    18
 10
573.2324152680143
 20
67.17074901554801
 30
0.0
 11
573.2324152680143
 21
69.21074901554807
 31
0.0
  0
LINE
  5
63F
  8
LAYER1
 62
    18
 10
573.2324152680143
 20
80.62074901554793
 30
0.0
 11
573.2324152680143
 21
82.66074901554799
 31
0.0
  0
LINE
  5
640
  8
LAYER1
 62
    18
 10
573.2324152680143
 20
55.76074901554797
 30
0.0
 11
565.2324152680143
 21
55.76074901554797
 31
0.0
  0
LINE
  5
641
  8
LAYER1
 62
    18
 10
565.2324152680143
 20
67.17074901554801
 30
0.0
 11
573.2324152680143
 21
67.17074901554801
 31
0.0
  0
LINE
  5
642
  8
LAYER1
 62
    18
 10
565.2324152680143
 20
55.76074901554797
 30
0.0
 11
565.2324152680143
 21
67.17074901554801
 31
0.0
  0
LINE
  5
643
  8
LAYER1
 62
    18
 10
573.2324152680143
 20
69.21074901554807
 30
0.0
 11
565.2324152680143
 21
69.21074901554807
 31
0.0
  0
LINE
  5
644
  8
LAYER1
 62
    18
 10
565.2324152680143
 20
69.21074901554807
 30
0.0
 11
565.2324152680143
 21
80.62074901554793
 31
0.0
  0
LINE
  5
645
  8
LAYER1
 62
    18
 10
565.2324152680143
 20
80.62074901554793
 30
0.0
 11
573.2324152680143
 21
80.62074901554793
 31
0.0
  0
LINE
  5
646
  8
LAYER1
 62
    18
 10
573.2324152680143
 20
94.07074901554803
 30
0.0
 11
573.2324152680143
 21
96.110749015548
 31
0.0
  0
LINE
  5
647
  8
LAYER1
 62
    18
 10
573.2324152680143
 20
107.5207490155479
 30
0.0
 11
573.2324152680143
 21
109.5607490155479
 31
0.0
  0
LINE
  5
648
  8
LAYER1
 62
    18
 10
573.2324152680143
 20
82.66074901554799
 30
0.0
 11
565.2324152680143
 21
82.66074901554799
 31
0.0
  0
LINE
  5
649
  8
LAYER1
 62
    18
 10
565.2324152680143
 20
94.07074901554803
 30
0.0
 11
573.2324152680143
 21
94.07074901554803
 31
0.0
  0
LINE
  5
64A
  8
LAYER1
 62
    18
 10
565.2324152680143
 20
82.66074901554799
 30
0.0
 11
565.2324152680143
 21
94.07074901554803
 31
0.0
  0
LINE
  5
64B
  8
LAYER1
 62
    18
 10
573.2324152680143
 20
96.110749015548
 30
0.0
 11
565.2324152680143
 21
96.110749015548
 31
0.0
  0
LINE
  5
64C
  8
LAYER1
 62
    18
 10
565.2324152680143
 20
96.110749015548
 30
0.0
 11
565.2324152680143
 21
107.5207490155479
 31
0.0
  0
LINE
  5
64D
  8
LAYER1
 62
    18
 10
565.2324152680143
 20
107.5207490155479
 30
0.0
 11
573.2324152680143
 21
107.5207490155479
 31
0.0
  0
LINE
  5
64E
  8
LAYER1
 62
    18
 10
573.2324152680143
 20
120.9707490155481
 30
0.0
 11
573.2324152680143
 21
123.010749015548
 31
0.0
  0
LINE
  5
64F
  8
LAYER1
 62
    18
 10
573.2324152680143
 20
134.4207490155479
 30
0.0
 11
573.2324152680143
 21
136.4607490155481
 31
0.0
  0
LINE
  5
650
  8
LAYER1
 62
    18
 10
573.2324152680143
 20
109.5607490155479
 30
0.0
 11
565.2324152680143
 21
109.5607490155479
 31
0.0
  0
LINE
  5
651
  8
LAYER1
 62
    18
 10
565.2324152680143
 20
120.9707490155481
 30
0.0
 11
573.2324152680143
 21
120.9707490155481
 31
0.0
  0
LINE
  5
652
  8
LAYER1
 62
    18
 10
565.2324152680143
 20
109.5607490155479
 30
0.0
 11
565.2324152680143
 21
120.9707490155481
 31
0.0
  0
LINE
  5
653
  8
LAYER1
 62
    18
 10
573.2324152680143
 20
123.010749015548
 30
0.0
 11
565.2324152680143
 21
123.010749015548
 31
0.0
  0
LINE
  5
654
  8
LAYER1
 62
    18
 10
565.2324152680143
 20
123.010749015548
 30
0.0
 11
565.2324152680143
 21
134.4207490155479
 31
0.0
  0
LINE
  5
655
  8
LAYER1
 62
    18
 10
565.2324152680143
 20
134.4207490155479
 30
0.0
 11
573.2324152680143
 21
134.4207490155479
 31
0.0
  0
LINE
  5
656
  8
LAYER1
 62
    18
 10
573.2324152680143
 20
147.8707490155481
 30
0.0
 11
573.2324152680143
 21
149.9107490155481
 31
0.0
  0
LINE
  5
657
  8
LAYER1
 62
    18
 10
573.2324152680143
 20
161.3207490155479
 30
0.0
 11
573.2324152680143
 21
163.3607490155479
 31
0.0
  0
LINE
  5
658
  8
LAYER1
 62
    18
 10
573.2324152680143
 20
136.4607490155481
 30
0.0
 11
565.2324152680143
 21
136.4607490155481
 31
0.0
  0
LINE
  5
659
  8
LAYER1
 62
    18
 10
565.2324152680143
 20
147.8707490155481
 30
0.0
 11
573.2324152680143
 21
147.8707490155481
 31
0.0
  0
LINE
  5
65A
  8
LAYER1
 62
    18
 10
565.2324152680143
 20
136.4607490155481
 30
0.0
 11
565.2324152680143
 21
147.8707490155481
 31
0.0
  0
LINE
  5
65B
  8
LAYER1
 62
    18
 10
573.2324152680143
 20
149.9107490155481
 30
0.0
 11
565.2324152680143
 21
149.9107490155481
 31
0.0
  0
LINE
  5
65C
  8
LAYER1
 62
    18
 10
565.2324152680143
 20
149.9107490155481
 30
0.0
 11
565.2324152680143
 21
161.3207490155479
 31
0.0
  0
LINE
  5
65D
  8
LAYER1
 62
    18
 10
565.2324152680143
 20
161.3207490155479
 30
0.0
 11
573.2324152680143
 21
161.3207490155479
 31
0.0
  0
LINE
  5
65E
  8
LAYER1
 62
    18
 10
573.2324152680143
 20
174.7707490155479
 30
0.0
 11
573.2324152680143
 21
176.8107490155481
 31
0.0
  0
LINE
  5
65F
  8
LAYER1
 62
    18
 10
573.2324152680143
 20
188.2207490155479
 30
0.0
 11
573.2324152680143
 21
190.2607490155478
 31
0.0
  0
LINE
  5
660
  8
LAYER1
 62
    18
 10
573.2324152680143
 20
163.3607490155479
 30
0.0
 11
565.2324152680143
 21
163.3607490155479
 31
0.0
  0
LINE
  5
661
  8
LAYER1
 62
    18
 10
565.2324152680143
 20
174.7707490155479
 30
0.0
 11
573.2324152680143
 21
174.7707490155479
 31
0.0
  0
LINE
  5
662
  8
LAYER1
 62
    18
 10
565.2324152680143
 20
163.3607490155479
 30
0.0
 11
565.2324152680143
 21
174.7707490155479
 31
0.0
  0
LINE
  5
663
  8
LAYER1
 62
    18
 10
573.2324152680143
 20
176.8107490155481
 30
0.0
 11
565.2324152680143
 21
176.8107490155481
 31
0.0
  0
LINE
  5
664
  8
LAYER1
 62
    18
 10
565.2324152680143
 20
176.8107490155481
 30
0.0
 11
565.2324152680143
 21
188.2207490155479
 31
0.0
  0
LINE
  5
665
  8
LAYER1
 62
    18
 10
565.2324152680143
 20
188.2207490155479
 30
0.0
 11
573.2324152680143
 21
188.2207490155479
 31
0.0
  0
LINE
  5
666
  8
LAYER1
 62
    18
 10
573.2324152680143
 20
190.2607490155478
 30
0.0
 11
581.2324152680143
 21
190.2607490155478
 31
0.0
  0
LINE
  5
667
  8
LAYER1
 62
    18
 10
573.2324152680143
 20
28.86074901554804
 30
0.0
 11
573.2324152680143
 21
27.84074901554806
 31
0.0
  0
LINE
  5
668
  8
LAYER1
 62
    18
 10
573.2324152680143
 20
27.84074901554806
 30
0.0
 11
581.2324152680143
 21
27.84074901554806
 31
0.0
  0
LINE
  5
669
  8
LAYER1
 62
    18
 10
581.2324152680143
 20
27.84074901554806
 30
0.0
 11
581.2324152680143
 21
190.2607490155478
 31
0.0
  0
LINE
  5
66A
  8
LAYER1
 62
    18
 10
592.527403586369
 20
40.27074901554808
 30
0.0
 11
592.527403586369
 21
42.31074901554805
 31
0.0
  0
LINE
  5
66B
  8
LAYER1
 62
    18
 10
592.527403586369
 20
53.720749015548
 30
0.0
 11
592.527403586369
 21
55.76074901554797
 31
0.0
  0
LINE
  5
66C
  8
LAYER1
 62
    18
 10
592.527403586369
 20
28.86074901554804
 30
0.0
 11
584.527403586369
 21
28.86074901554804
 31
0.0
  0
LINE
  5
66D
  8
LAYER1
 62
    18
 10
584.527403586369
 20
40.27074901554808
 30
0.0
 11
592.527403586369
 21
40.27074901554808
 31
0.0
  0
LINE
  5
66E
  8
LAYER1
 62
    18
 10
584.527403586369
 20
28.86074901554804
 30
0.0
 11
584.527403586369
 21
40.27074901554808
 31
0.0
  0
LINE
  5
66F
  8
LAYER1
 62
    18
 10
592.527403586369
 20
42.31074901554805
 30
0.0
 11
584.527403586369
 21
42.31074901554805
 31
0.0
  0
LINE
  5
670
  8
LAYER1
 62
    18
 10
584.527403586369
 20
42.31074901554805
 30
0.0
 11
584.527403586369
 21
53.720749015548
 31
0.0
  0
LINE
  5
671
  8
LAYER1
 62
    18
 10
584.527403586369
 20
53.720749015548
 30
0.0
 11
592.527403586369
 21
53.720749015548
 31
0.0
  0
LINE
  5
672
  8
LAYER1
 62
    18
 10
592.527403586369
 20
67.17074901554801
 30
0.0
 11
592.527403586369
 21
69.21074901554807
 31
0.0
  0
LINE
  5
673
  8
LAYER1
 62
    18
 10
592.527403586369
 20
80.62074901554793
 30
0.0
 11
592.527403586369
 21
82.66074901554799
 31
0.0
  0
LINE
  5
674
  8
LAYER1
 62
    18
 10
592.527403586369
 20
55.76074901554797
 30
0.0
 11
584.527403586369
 21
55.76074901554797
 31
0.0
  0
LINE
  5
675
  8
LAYER1
 62
    18
 10
584.527403586369
 20
67.17074901554801
 30
0.0
 11
592.527403586369
 21
67.17074901554801
 31
0.0
  0
LINE
  5
676
  8
LAYER1
 62
    18
 10
584.527403586369
 20
55.76074901554797
 30
0.0
 11
584.527403586369
 21
67.17074901554801
 31
0.0
  0
LINE
  5
677
  8
LAYER1
 62
    18
 10
592.527403586369
 20
69.21074901554807
 30
0.0
 11
584.527403586369
 21
69.21074901554807
 31
0.0
  0
LINE
  5
678
  8
LAYER1
 62
    18
 10
584.527403586369
 20
69.21074901554807
 30
0.0
 11
584.527403586369
 21
80.62074901554793
 31
0.0
  0
LINE
  5
679
  8
LAYER1
 62
    18
 10
584.527403586369
 20
80.62074901554793
 30
0.0
 11
592.527403586369
 21
80.62074901554793
 31
0.0
  0
LINE
  5
67A
  8
LAYER1
 62
    18
 10
592.527403586369
 20
94.07074901554803
 30
0.0
 11
592.527403586369
 21
96.110749015548
 31
0.0
  0
LINE
  5
67B
  8
LAYER1
 62
    18
 10
592.527403586369
 20
107.5207490155479
 30
0.0
 11
592.527403586369
 21
109.5607490155479
 31
0.0
  0
LINE
  5
67C
  8
LAYER1
 62
    18
 10
592.527403586369
 20
82.66074901554799
 30
0.0
 11
584.527403586369
 21
82.66074901554799
 31
0.0
  0
LINE
  5
67D
  8
LAYER1
 62
    18
 10
584.527403586369
 20
94.07074901554803
 30
0.0
 11
592.527403586369
 21
94.07074901554803
 31
0.0
  0
LINE
  5
67E
  8
LAYER1
 62
    18
 10
584.527403586369
 20
82.66074901554799
 30
0.0
 11
584.527403586369
 21
94.07074901554803
 31
0.0
  0
LINE
  5
67F
  8
LAYER1
 62
    18
 10
592.527403586369
 20
96.110749015548
 30
0.0
 11
584.527403586369
 21
96.110749015548
 31
0.0
  0
LINE
  5
680
  8
LAYER1
 62
    18
 10
584.527403586369
 20
96.110749015548
 30
0.0
 11
584.527403586369
 21
107.5207490155479
 31
0.0
  0
LINE
  5
681
  8
LAYER1
 62
    18
 10
584.527403586369
 20
107.5207490155479
 30
0.0
 11
592.527403586369
 21
107.5207490155479
 31
0.0
  0
LINE
  5
682
  8
LAYER1
 62
    18
 10
592.527403586369
 20
120.9707490155481
 30
0.0
 11
592.527403586369
 21
123.010749015548
 31
0.0
  0
LINE
  5
683
  8
LAYER1
 62
    18
 10
592.527403586369
 20
134.4207490155479
 30
0.0
 11
592.527403586369
 21
136.4607490155481
 31
0.0
  0
LINE
  5
684
  8
LAYER1
 62
    18
 10
592.527403586369
 20
109.5607490155479
 30
0.0
 11
584.527403586369
 21
109.5607490155479
 31
0.0
  0
LINE
  5
685
  8
LAYER1
 62
    18
 10
584.527403586369
 20
120.9707490155481
 30
0.0
 11
592.527403586369
 21
120.9707490155481
 31
0.0
  0
LINE
  5
686
  8
LAYER1
 62
    18
 10
584.527403586369
 20
109.5607490155479
 30
0.0
 11
584.527403586369
 21
120.9707490155481
 31
0.0
  0
LINE
  5
687
  8
LAYER1
 62
    18
 10
592.527403586369
 20
123.010749015548
 30
0.0
 11
584.527403586369
 21
123.010749015548
 31
0.0
  0
LINE
  5
688
  8
LAYER1
 62
    18
 10
584.527403586369
 20
123.010749015548
 30
0.0
 11
584.527403586369
 21
134.4207490155479
 31
0.0
  0
LINE
  5
689
  8
LAYER1
 62
    18
 10
584.527403586369
 20
134.4207490155479
 30
0.0
 11
592.527403586369
 21
134.4207490155479
 31
0.0
  0
LINE
  5
68A
  8
LAYER1
 62
    18
 10
592.527403586369
 20
147.8707490155481
 30
0.0
 11
592.527403586369
 21
149.9107490155481
 31
0.0
  0
LINE
  5
68B
  8
LAYER1
 62
    18
 10
592.527403586369
 20
161.3207490155479
 30
0.0
 11
592.527403586369
 21
163.3607490155479
 31
0.0
  0
LINE
  5
68C
  8
LAYER1
 62
    18
 10
592.527403586369
 20
136.4607490155481
 30
0.0
 11
584.527403586369
 21
136.4607490155481
 31
0.0
  0
LINE
  5
68D
  8
LAYER1
 62
    18
 10
584.527403586369
 20
147.8707490155481
 30
0.0
 11
592.527403586369
 21
147.8707490155481
 31
0.0
  0
LINE
  5
68E
  8
LAYER1
 62
    18
 10
584.527403586369
 20
136.4607490155481
 30
0.0
 11
584.527403586369
 21
147.8707490155481
 31
0.0
  0
LINE
  5
68F
  8
LAYER1
 62
    18
 10
592.527403586369
 20
149.9107490155481
 30
0.0
 11
584.527403586369
 21
149.9107490155481
 31
0.0
  0
LINE
  5
690
  8
LAYER1
 62
    18
 10
584.527403586369
 20
149.9107490155481
 30
0.0
 11
584.527403586369
 21
161.3207490155479
 31
0.0
  0
LINE
  5
691
  8
LAYER1
 62
    18
 10
584.527403586369
 20
161.3207490155479
 30
0.0
 11
592.527403586369
 21
161.3207490155479
 31
0.0
  0
LINE
  5
692
  8
LAYER1
 62
    18
 10
592.527403586369
 20
174.7707490155479
 30
0.0
 11
592.527403586369
 21
176.8107490155481
 31
0.0
  0
LINE
  5
693
  8
LAYER1
 62
    18
 10
592.527403586369
 20
188.2207490155479
 30
0.0
 11
592.527403586369
 21
190.2607490155478
 31
0.0
  0
LINE
  5
694
  8
LAYER1
 62
    18
 10
592.527403586369
 20
163.3607490155479
 30
0.0
 11
584.527403586369
 21
163.3607490155479
 31
0.0
  0
LINE
  5
695
  8
LAYER1
 62
    18
 10
584.527403586369
 20
174.7707490155479
 30
0.0
 11
592.527403586369
 21
174.7707490155479
 31
0.0
  0
LINE
  5
696
  8
LAYER1
 62
    18
 10
584.527403586369
 20
163.3607490155479
 30
0.0
 11
584.527403586369
 21
174.7707490155479
 31
0.0
  0
LINE
  5
697
  8
LAYER1
 62
    18
 10
592.527403586369
 20
176.8107490155481
 30
0.0
 11
584.527403586369
 21
176.8107490155481
 31
0.0
  0
LINE
  5
698
  8
LAYER1
 62
    18
 10
584.527403586369
 20
176.8107490155481
 30
0.0
 11
584.527403586369
 21
188.2207490155479
 31
0.0
  0
LINE
  5
699
  8
LAYER1
 62
    18
 10
584.527403586369
 20
188.2207490155479
 30
0.0
 11
592.527403586369
 21
188.2207490155479
 31
0.0
  0
LINE
  5
69A
  8
LAYER1
 62
    18
 10
592.527403586369
 20
190.2607490155478
 30
0.0
 11
600.527403586369
 21
190.2607490155478
 31
0.0
  0
LINE
  5
69B
  8
LAYER1
 62
    18
 10
592.527403586369
 20
28.86074901554804
 30
0.0
 11
592.527403586369
 21
27.84074901554806
 31
0.0
  0
LINE
  5
69C
  8
LAYER1
 62
    18
 10
592.527403586369
 20
27.84074901554806
 30
0.0
 11
600.527403586369
 21
27.84074901554806
 31
0.0
  0
LINE
  5
69D
  8
LAYER1
 62
    18
 10
600.527403586369
 20
27.84074901554806
 30
0.0
 11
600.527403586369
 21
190.2607490155478
 31
0.0
  0
LINE
  5
69E
  8
LAYER1
 62
    18
 10
612.2930013759047
 20
40.27074901554808
 30
0.0
 11
612.2930013759047
 21
42.31074901554805
 31
0.0
  0
LINE
  5
69F
  8
LAYER1
 62
    18
 10
612.2930013759047
 20
53.720749015548
 30
0.0
 11
612.2930013759047
 21
55.76074901554797
 31
0.0
  0
LINE
  5
6A0
  8
LAYER1
 62
    18
 10
612.2930013759047
 20
28.86074901554804
 30
0.0
 11
604.2930013759047
 21
28.86074901554804
 31
0.0
  0
LINE
  5
6A1
  8
LAYER1
 62
    18
 10
604.2930013759047
 20
40.27074901554808
 30
0.0
 11
612.2930013759047
 21
40.27074901554808
 31
0.0
  0
LINE
  5
6A2
  8
LAYER1
 62
    18
 10
604.2930013759047
 20
28.86074901554804
 30
0.0
 11
604.2930013759047
 21
40.27074901554808
 31
0.0
  0
LINE
  5
6A3
  8
LAYER1
 62
    18
 10
612.2930013759047
 20
42.31074901554805
 30
0.0
 11
604.2930013759047
 21
42.31074901554805
 31
0.0
  0
LINE
  5
6A4
  8
LAYER1
 62
    18
 10
604.2930013759047
 20
42.31074901554805
 30
0.0
 11
604.2930013759047
 21
53.720749015548
 31
0.0
  0
LINE
  5
6A5
  8
LAYER1
 62
    18
 10
604.2930013759047
 20
53.720749015548
 30
0.0
 11
612.2930013759047
 21
53.720749015548
 31
0.0
  0
LINE
  5
6A6
  8
LAYER1
 62
    18
 10
612.2930013759047
 20
67.17074901554801
 30
0.0
 11
612.2930013759047
 21
69.21074901554807
 31
0.0
  0
LINE
  5
6A7
  8
LAYER1
 62
    18
 10
612.2930013759047
 20
80.62074901554793
 30
0.0
 11
612.2930013759047
 21
82.66074901554799
 31
0.0
  0
LINE
  5
6A8
  8
LAYER1
 62
    18
 10
612.2930013759047
 20
55.76074901554797
 30
0.0
 11
604.2930013759047
 21
55.76074901554797
 31
0.0
  0
LINE
  5
6A9
  8
LAYER1
 62
    18
 10
604.2930013759047
 20
67.17074901554801
 30
0.0
 11
612.2930013759047
 21
67.17074901554801
 31
0.0
  0
LINE
  5
6AA
  8
LAYER1
 62
    18
 10
604.2930013759047
 20
55.76074901554797
 30
0.0
 11
604.2930013759047
 21
67.17074901554801
 31
0.0
  0
LINE
  5
6AB
  8
LAYER1
 62
    18
 10
612.2930013759047
 20
69.21074901554807
 30
0.0
 11
604.2930013759047
 21
69.21074901554807
 31
0.0
  0
LINE
  5
6AC
  8
LAYER1
 62
    18
 10
604.2930013759047
 20
69.21074901554807
 30
0.0
 11
604.2930013759047
 21
80.62074901554793
 31
0.0
  0
LINE
  5
6AD
  8
LAYER1
 62
    18
 10
604.2930013759047
 20
80.62074901554793
 30
0.0
 11
612.2930013759047
 21
80.62074901554793
 31
0.0
  0
LINE
  5
6AE
  8
LAYER1
 62
    18
 10
612.2930013759047
 20
94.07074901554803
 30
0.0
 11
612.2930013759047
 21
96.110749015548
 31
0.0
  0
LINE
  5
6AF
  8
LAYER1
 62
    18
 10
612.2930013759047
 20
107.5207490155479
 30
0.0
 11
612.2930013759047
 21
109.5607490155479
 31
0.0
  0
LINE
  5
6B0
  8
LAYER1
 62
    18
 10
612.2930013759047
 20
82.66074901554799
 30
0.0
 11
604.2930013759047
 21
82.66074901554799
 31
0.0
  0
LINE
  5
6B1
  8
LAYER1
 62
    18
 10
604.2930013759047
 20
94.07074901554803
 30
0.0
 11
612.2930013759047
 21
94.07074901554803
 31
0.0
  0
LINE
  5
6B2
  8
LAYER1
 62
    18
 10
604.2930013759047
 20
82.66074901554799
 30
0.0
 11
604.2930013759047
 21
94.07074901554803
 31
0.0
  0
LINE
  5
6B3
  8
LAYER1
 62
    18
 10
612.2930013759047
 20
96.110749015548
 30
0.0
 11
604.2930013759047
 21
96.110749015548
 31
0.0
  0
LINE
  5
6B4
  8
LAYER1
 62
    18
 10
604.2930013759047
 20
96.110749015548
 30
0.0
 11
604.2930013759047
 21
107.5207490155479
 31
0.0
  0
LINE
  5
6B5
  8
LAYER1
 62
    18
 10
604.2930013759047
 20
107.5207490155479
 30
0.0
 11
612.2930013759047
 21
107.5207490155479
 31
0.0
  0
LINE
  5
6B6
  8
LAYER1
 62
    18
 10
612.2930013759047
 20
120.9707490155481
 30
0.0
 11
612.2930013759047
 21
123.010749015548
 31
0.0
  0
LINE
  5
6B7
  8
LAYER1
 62
    18
 10
612.2930013759047
 20
134.4207490155479
 30
0.0
 11
612.2930013759047
 21
136.4607490155481
 31
0.0
  0
LINE
  5
6B8
  8
LAYER1
 62
    18
 10
612.2930013759047
 20
109.5607490155479
 30
0.0
 11
604.2930013759047
 21
109.5607490155479
 31
0.0
  0
LINE
  5
6B9
  8
LAYER1
 62
    18
 10
604.2930013759047
 20
120.9707490155481
 30
0.0
 11
612.2930013759047
 21
120.9707490155481
 31
0.0
  0
LINE
  5
6BA
  8
LAYER1
 62
    18
 10
604.2930013759047
 20
109.5607490155479
 30
0.0
 11
604.2930013759047
 21
120.9707490155481
 31
0.0
  0
LINE
  5
6BB
  8
LAYER1
 62
    18
 10
612.2930013759047
 20
123.010749015548
 30
0.0
 11
604.2930013759047
 21
123.010749015548
 31
0.0
  0
LINE
  5
6BC
  8
LAYER1
 62
    18
 10
604.2930013759047
 20
123.010749015548
 30
0.0
 11
604.2930013759047
 21
134.4207490155479
 31
0.0
  0
LINE
  5
6BD
  8
LAYER1
 62
    18
 10
604.2930013759047
 20
134.4207490155479
 30
0.0
 11
612.2930013759047
 21
134.4207490155479
 31
0.0
  0
LINE
  5
6BE
  8
LAYER1
 62
    18
 10
612.2930013759047
 20
147.8707490155481
 30
0.0
 11
612.2930013759047
 21
149.9107490155481
 31
0.0
  0
LINE
  5
6BF
  8
LAYER1
 62
    18
 10
612.2930013759047
 20
161.3207490155479
 30
0.0
 11
612.2930013759047
 21
163.3607490155479
 31
0.0
  0
LINE
  5
6C0
  8
LAYER1
 62
    18
 10
612.2930013759047
 20
136.4607490155481
 30
0.0
 11
604.2930013759047
 21
136.4607490155481
 31
0.0
  0
LINE
  5
6C1
  8
LAYER1
 62
    18
 10
604.2930013759047
 20
147.8707490155481
 30
0.0
 11
612.2930013759047
 21
147.8707490155481
 31
0.0
  0
LINE
  5
6C2
  8
LAYER1
 62
    18
 10
604.2930013759047
 20
136.4607490155481
 30
0.0
 11
604.2930013759047
 21
147.8707490155481
 31
0.0
  0
LINE
  5
6C3
  8
LAYER1
 62
    18
 10
612.2930013759047
 20
149.9107490155481
 30
0.0
 11
604.2930013759047
 21
149.9107490155481
 31
0.0
  0
LINE
  5
6C4
  8
LAYER1
 62
    18
 10
604.2930013759047
 20
149.9107490155481
 30
0.0
 11
604.2930013759047
 21
161.3207490155479
 31
0.0
  0
LINE
  5
6C5
  8
LAYER1
 62
    18
 10
604.2930013759047
 20
161.3207490155479
 30
0.0
 11
612.2930013759047
 21
161.3207490155479
 31
0.0
  0
LINE
  5
6C6
  8
LAYER1
 62
    18
 10
612.2930013759047
 20
174.7707490155479
 30
0.0
 11
612.2930013759047
 21
176.8107490155481
 31
0.0
  0
LINE
  5
6C7
  8
LAYER1
 62
    18
 10
612.2930013759047
 20
188.2207490155479
 30
0.0
 11
612.2930013759047
 21
190.2607490155478
 31
0.0
  0
LINE
  5
6C8
  8
LAYER1
 62
    18
 10
612.2930013759047
 20
163.3607490155479
 30
0.0
 11
604.2930013759047
 21
163.3607490155479
 31
0.0
  0
LINE
  5
6C9
  8
LAYER1
 62
    18
 10
604.2930013759047
 20
174.7707490155479
 30
0.0
 11
612.2930013759047
 21
174.7707490155479
 31
0.0
  0
LINE
  5
6CA
  8
LAYER1
 62
    18
 10
604.2930013759047
 20
163.3607490155479
 30
0.0
 11
604.2930013759047
 21
174.7707490155479
 31
0.0
  0
LINE
  5
6CB
  8
LAYER1
 62
    18
 10
612.2930013759047
 20
176.8107490155481
 30
0.0
 11
604.2930013759047
 21
176.8107490155481
 31
0.0
  0
LINE
  5
6CC
  8
LAYER1
 62
    18
 10
604.2930013759047
 20
176.8107490155481
 30
0.0
 11
604.2930013759047
 21
188.2207490155479
 31
0.0
  0
LINE
  5
6CD
  8
LAYER1
 62
    18
 10
604.2930013759047
 20
188.2207490155479
 30
0.0
 11
612.2930013759047
 21
188.2207490155479
 31
0.0
  0
LINE
  5
6CE
  8
LAYER1
 62
    18
 10
612.2930013759047
 20
190.2607490155478
 30
0.0
 11
620.2930013759047
 21
190.2607490155478
 31
0.0
  0
LINE
  5
6CF
  8
LAYER1
 62
    18
 10
612.2930013759047
 20
28.86074901554804
 30
0.0
 11
612.2930013759047
 21
27.84074901554806
 31
0.0
  0
LINE
  5
6D0
  8
LAYER1
 62
    18
 10
612.2930013759047
 20
27.84074901554806
 30
0.0
 11
620.2930013759047
 21
27.84074901554806
 31
0.0
  0
LINE
  5
6D1
  8
LAYER1
 62
    18
 10
620.2930013759047
 20
27.84074901554806
 30
0.0
 11
620.2930013759047
 21
190.2607490155478
 31
0.0
  0
LINE
  5
6D2
  8
LAYER1
 62
    18
 10
401.996922966772
 20
14.85496608756168
 30
0.0
 11
404.0369229667718
 21
14.85496608756163
 31
0.0
  0
LINE
  5
6D3
  8
LAYER1
 62
    18
 10
415.4469229667718
 20
14.85496608756168
 30
0.0
 11
417.4869229667717
 21
14.85496608756172
 31
0.0
  0
LINE
  5
6D4
  8
LAYER1
 62
    18
 10
390.5869229667719
 20
14.85496608756159
 30
0.0
 11
390.5869229667718
 21
22.85496608756166
 31
0.0
  0
LINE
  5
6D5
  8
LAYER1
 62
    18
 10
401.9969229667718
 20
22.85496608756185
 30
0.0
 11
401.996922966772
 21
14.85496608756168
 31
0.0
  0
LINE
  5
6D6
  8
LAYER1
 62
    18
 10
390.5869229667718
 20
22.85496608756166
 30
0.0
 11
401.9969229667718
 21
22.85496608756185
 31
0.0
  0
LINE
  5
6D7
  8
LAYER1
 62
    18
 10
404.0369229667718
 20
14.85496608756163
 30
0.0
 11
404.0369229667717
 21
22.85496608756166
 31
0.0
  0
LINE
  5
6D8
  8
LAYER1
 62
    18
 10
404.0369229667717
 20
22.85496608756166
 30
0.0
 11
415.4469229667719
 21
22.85496608756157
 31
0.0
  0
LINE
  5
6D9
  8
LAYER1
 62
    18
 10
415.4469229667719
 20
22.85496608756157
 30
0.0
 11
415.4469229667718
 21
14.85496608756168
 31
0.0
  0
LINE
  5
6DA
  8
LAYER1
 62
    18
 10
428.8969229667719
 20
14.85496608756159
 30
0.0
 11
430.9369229667716
 21
14.85496608756159
 31
0.0
  0
LINE
  5
6DB
  8
LAYER1
 62
    18
 10
442.3469229667715
 20
14.85496608756168
 30
0.0
 11
444.3869229667715
 21
14.85496608756136
 31
0.0
  0
LINE
  5
6DC
  8
LAYER1
 62
    18
 10
417.4869229667717
 20
14.85496608756172
 30
0.0
 11
417.4869229667715
 21
22.85496608756166
 31
0.0
  0
LINE
  5
6DD
  8
LAYER1
 62
    18
 10
428.8969229667719
 20
22.85496608756139
 30
0.0
 11
428.8969229667719
 21
14.85496608756159
 31
0.0
  0
LINE
  5
6DE
  8
LAYER1
 62
    18
 10
417.4869229667715
 20
22.85496608756166
 30
0.0
 11
428.8969229667719
 21
22.85496608756139
 31
0.0
  0
LINE
  5
6DF
  8
LAYER1
 62
    18
 10
430.9369229667716
 20
14.85496608756159
 30
0.0
 11
430.9369229667719
 21
22.85496608756166
 31
0.0
  0
LINE
  5
6E0
  8
LAYER1
 62
    18
 10
430.9369229667719
 20
22.85496608756166
 30
0.0
 11
442.3469229667717
 21
22.85496608756166
 31
0.0
  0
LINE
  5
6E1
  8
LAYER1
 62
    18
 10
442.3469229667717
 20
22.85496608756166
 30
0.0
 11
442.3469229667715
 21
14.85496608756168
 31
0.0
  0
LINE
  5
6E2
  8
LAYER1
 62
    18
 10
455.7969229667719
 20
14.85496608756177
 30
0.0
 11
457.8369229667717
 21
14.85496608756168
 31
0.0
  0
LINE
  5
6E3
  8
LAYER1
 62
    18
 10
469.2469229667715
 20
14.85496608756154
 30
0.0
 11
471.2869229667717
 21
14.85496608756154
 31
0.0
  0
LINE
  5
6E4
  8
LAYER1
 62
    18
 10
444.3869229667715
 20
14.85496608756136
 30
0.0
 11
444.3869229667717
 21
22.85496608756166
 31
0.0
  0
LINE
  5
6E5
  8
LAYER1
 62
    18
 10
455.7969229667719
 20
22.85496608756166
 30
0.0
 11
455.7969229667719
 21
14.85496608756177
 31
0.0
  0
LINE
  5
6E6
  8
LAYER1
 62
    18
 10
444.3869229667717
 20
22.85496608756166
 30
0.0
 11
455.7969229667719
 21
22.85496608756166
 31
0.0
  0
LINE
  5
6E7
  8
LAYER1
 62
    18
 10
457.8369229667717
 20
14.85496608756168
 30
0.0
 11
457.8369229667717
 21
22.85496608756157
 31
0.0
  0
LINE
  5
6E8
  8
LAYER1
 62
    18
 10
457.8369229667717
 20
22.85496608756157
 30
0.0
 11
469.2469229667714
 21
22.85496608756175
 31
0.0
  0
LINE
  5
6E9
  8
LAYER1
 62
    18
 10
469.2469229667714
 20
22.85496608756175
 30
0.0
 11
469.2469229667715
 21
14.85496608756154
 31
0.0
  0
LINE
  5
6EA
  8
LAYER1
 62
    18
 10
482.6969229667718
 20
14.85496608756145
 30
0.0
 11
484.7369229667717
 21
14.85496608756168
 31
0.0
  0
LINE
  5
6EB
  8
LAYER1
 62
    18
 10
496.1469229667716
 20
14.85496608756168
 30
0.0
 11
498.1869229667719
 21
14.85496608756172
 31
0.0
  0
LINE
  5
6EC
  8
LAYER1
 62
    18
 10
471.2869229667717
 20
14.85496608756154
 30
0.0
 11
471.2869229667715
 21
22.85496608756185
 31
0.0
  0
LINE
  5
6ED
  8
LAYER1
 62
    18
 10
482.6969229667716
 20
22.85496608756175
 30
0.0
 11
482.6969229667718
 21
14.85496608756145
 31
0.0
  0
LINE
  5
6EE
  8
LAYER1
 62
    18
 10
471.2869229667715
 20
22.85496608756185
 30
0.0
 11
482.6969229667716
 21
22.85496608756175
 31
0.0
  0
LINE
  5
6EF
  8
LAYER1
 62
    18
 10
484.7369229667717
 20
14.85496608756168
 30
0.0
 11
484.7369229667719
 21
22.85496608756166
 31
0.0
  0
LINE
  5
6F0
  8
LAYER1
 62
    18
 10
484.7369229667719
 20
22.85496608756166
 30
0.0
 11
496.1469229667716
 21
22.85496608756166
 31
0.0
  0
LINE
  5
6F1
  8
LAYER1
 62
    18
 10
496.1469229667716
 20
22.85496608756166
 30
0.0
 11
496.1469229667716
 21
14.85496608756168
 31
0.0
  0
LINE
  5
6F2
  8
LAYER1
 62
    18
 10
509.5969229667717
 20
14.85496608756154
 30
0.0
 11
511.6369229667717
 21
14.85496608756154
 31
0.0
  0
LINE
  5
6F3
  8
LAYER1
 62
    18
 10
523.0469229667717
 20
14.85496608756154
 30
0.0
 11
525.0869229667716
 21
14.85496608756177
 31
0.0
  0
LINE
  5
6F4
  8
LAYER1
 62
    18
 10
498.1869229667719
 20
14.85496608756172
 30
0.0
 11
498.1869229667719
 21
22.85496608756157
 31
0.0
  0
LINE
  5
6F5
  8
LAYER1
 62
    18
 10
509.596922966772
 20
22.85496608756166
 30
0.0
 11
509.5969229667717
 21
14.85496608756154
 31
0.0
  0
LINE
  5
6F6
  8
LAYER1
 62
    18
 10
498.1869229667719
 20
22.85496608756157
 30
0.0
 11
509.596922966772
 21
22.85496608756166
 31
0.0
  0
LINE
  5
6F7
  8
LAYER1
 62
    18
 10
511.6369229667717
 20
14.85496608756154
 30
0.0
 11
511.6369229667717
 21
22.85496608756157
 31
0.0
  0
LINE
  5
6F8
  8
LAYER1
 62
    18
 10
511.6369229667717
 20
22.85496608756157
 30
0.0
 11
523.0469229667714
 21
22.85496608756148
 31
0.0
  0
LINE
  5
6F9
  8
LAYER1
 62
    18
 10
523.0469229667714
 20
22.85496608756148
 30
0.0
 11
523.0469229667717
 21
14.85496608756154
 31
0.0
  0
LINE
  5
6FA
  8
LAYER1
 62
    18
 10
536.4969229667718
 20
14.85496608756145
 30
0.0
 11
538.5369229667716
 21
14.85496608756168
 31
0.0
  0
LINE
  5
6FB
  8
LAYER1
 62
    18
 10
549.9469229667716
 20
14.85496608756186
 30
0.0
 11
551.9869229667714
 21
14.85496608756159
 31
0.0
  0
LINE
  5
6FC
  8
LAYER1
 62
    18
 10
525.0869229667716
 20
14.85496608756177
 30
0.0
 11
525.0869229667717
 21
22.85496608756166
 31
0.0
  0
LINE
  5
6FD
  8
LAYER1
 62
    18
 10
536.4969229667714
 20
22.85496608756175
 30
0.0
 11
536.4969229667718
 21
14.85496608756145
 31
0.0
  0
LINE
  5
6FE
  8
LAYER1
 62
    18
 10
525.0869229667717
 20
22.85496608756166
 30
0.0
 11
536.4969229667714
 21
22.85496608756175
 31
0.0
  0
LINE
  5
6FF
  8
LAYER1
 62
    18
 10
538.5369229667716
 20
14.85496608756168
 30
0.0
 11
538.5369229667717
 21
22.85496608756148
 31
0.0
  0
LINE
  5
700
  8
LAYER1
 62
    18
 10
538.5369229667717
 20
22.85496608756148
 30
0.0
 11
549.9469229667716
 21
22.85496608756148
 31
0.0
  0
LINE
  5
701
  8
LAYER1
 62
    18
 10
549.9469229667716
 20
22.85496608756148
 30
0.0
 11
549.9469229667716
 21
14.85496608756186
 31
0.0
  0
LINE
  5
702
  8
LAYER1
 62
    18
 10
551.9869229667714
 20
14.85496608756159
 30
0.0
 11
551.9869229667714
 21
6.854966087561692
 31
0.0
  0
LINE
  5
703
  8
LAYER1
 62
    18
 10
390.5869229667719
 20
14.85496608756159
 30
0.0
 11
389.5669229667718
 21
14.85496608756177
 31
0.0
  0
LINE
  5
704
  8
LAYER1
 62
    18
 10
389.5669229667718
 20
14.85496608756177
 30
0.0
 11
389.5669229667718
 21
6.854966087561783
 31
0.0
  0
LINE
  5
705
  8
LAYER1
 62
    18
 10
389.5669229667718
 20
6.854966087561783
 30
0.0
 11
551.9869229667714
 21
6.854966087561692
 31
0.0
  0
ENDSEC
  0
EOF
