  0
SECTION
  2
HEADER
  9
$ACADVER
  1
AC1012
  9
$DWGCODEPAGE
  3
ascii
  9
$INSBASE
 10
0.0
 20
0.0
 30
0.0
  9
$EXTMIN
 10
1.000000000000000E+20
 20
1.000000000000000E+20
 30
1.000000000000000E+20
  9
$EXTMAX
 10
-1.000000000000000E+20
 20
-1.000000000000000E+20
 30
-1.000000000000000E+20
  9
$LIMMIN
 10
0.0
 20
0.0
  9
$LIMMAX
 10
12.0
 20
9.0
  9
$ORTHOMODE
 70
     0
  9
$REGENMODE
 70
     1
  9
$FILLMODE
 70
     1
  9
$QTEXTMODE
 70
     0
  9
$MIRRTEXT
 70
     1
  9
$DRAGMODE
 70
     2
  9
$LTSCALE
 40
1.0
  9
$OSMODE
 70
    37
  9
$ATTMODE
 70
     1
  9
$TEXTSIZE
 40
0.2
  9
$TRACEWID
 40
0.05
  9
$TEXTSTYLE
  7
STANDARD
  9
$CLAYER
  8
0
  9
$CELTYPE
  6
BYLAYER
  9
$CECOLOR
 62
   256
  9
$CELTSCALE
 40
1.0
  9
$DELOBJ
 70
     1
  9
$DISPSILH
 70
     0
  9
$DIMSCALE
 40
1.0
  9
$DIMASZ
 40
0.18
  9
$DIMEXO
 40
0.0625
  9
$DIMDLI
 40
0.38
  9
$DIMRND
 40
0.0
  9
$DIMDLE
 40
0.0
  9
$DIMEXE
 40
0.18
  9
$DIMTP
 40
0.0
  9
$DIMTM
 40
0.0
  9
$DIMTXT
 40
0.18
  9
$DIMCEN
 40
0.09
  9
$DIMTSZ
 40
0.0
  9
$DIMTOL
 70
     0
  9
$DIMLIM
 70
     0
  9
$DIMTIH
 70
     1
  9
$DIMTOH
 70
     1
  9
$DIMSE1
 70
     0
  9
$DIMSE2
 70
     0
  9
$DIMTAD
 70
     0
  9
$DIMZIN
 70
     0
  9
$DIMBLK
  1

  9
$DIMASO
 70
     1
  9
$DIMSHO
 70
     1
  9
$DIMPOST
  1

  9
$DIMAPOST
  1

  9
$DIMALT
 70
     0
  9
$DIMALTD
 70
     2
  9
$DIMALTF
 40
25.4
  9
$DIMLFAC
 40
1.0
  9
$DIMTOFL
 70
     0
  9
$DIMTVP
 40
0.0
  9
$DIMTIX
 70
     0
  9
$DIMSOXD
 70
     0
  9
$DIMSAH
 70
     0
  9
$DIMBLK1
  1

  9
$DIMBLK2
  1

  9
$DIMSTYLE
  2
STANDARD
  9
$DIMCLRD
 70
     0
  9
$DIMCLRE
 70
     0
  9
$DIMCLRT
 70
     0
  9
$DIMTFAC
 40
1.0
  9
$DIMGAP
 40
0.09
  9
$DIMJUST
 70
     0
  9
$DIMSD1
 70
     0
  9
$DIMSD2
 70
     0
  9
$DIMTOLJ
 70
     1
  9
$DIMTZIN
 70
     0
  9
$DIMALTZ
 70
     0
  9
$DIMALTTZ
 70
     0
  9
$DIMFIT
 70
     3
  9
$DIMUPT
 70
     0
  9
$DIMUNIT
 70
     2
  9
$DIMDEC
 70
     4
  9
$DIMTDEC
 70
     4
  9
$DIMALTU
 70
     2
  9
$DIMALTTD
 70
     2
  9
$DIMTXSTY
  7
STANDARD
  9
$DIMAUNIT
 70
     0
  9
$LUNITS
 70
     2
  9
$LUPREC
 70
     4
  9
$SKETCHINC
 40
0.1
  9
$FILLETRAD
 40
0.5
  9
$AUNITS
 70
     0
  9
$AUPREC
 70
     0
  9
$MENU
  1
.
  9
$ELEVATION
 40
0.0
  9
$PELEVATION
 40
0.0
  9
$THICKNESS
 40
0.0
  9
$LIMCHECK
 70
     0
  9
$CHAMFERA
 40
0.5
  9
$CHAMFERB
 40
0.5
  9
$CHAMFERC
 40
1.0
  9
$CHAMFERD
 40
0.0
  9
$SKPOLY
 70
     0
  9
$TDCREATE
 40
2454693.840451389
  9
$TDUPDATE
 40
2454693.8404514
  9
$TDINDWG
 40
0.0000000116
  9
$TDUSRTIMER
 40
0.0000000116
  9
$USRTIMER
 70
     1
  9
$ANGBASE
 50
0.0
  9
$ANGDIR
 70
     0
  9
$PDMODE
 70
     0
  9
$PDSIZE
 40
0.0
  9
$PLINEWID
 40
0.0
  9
$COORDS
 70
     1
  9
$SPLFRAME
 70
     0
  9
$SPLINETYPE
 70
     6
  9
$SPLINESEGS
 70
     8
  9
$ATTDIA
 70
     0
  9
$ATTREQ
 70
     1
  9
$HANDLING
 70
     1
  9
$HANDSEED
  5
EA
  9
$SURFTAB1
 70
     6
  9
$SURFTAB2
 70
     6
  9
$SURFTYPE
 70
     6
  9
$SURFU
 70
     6
  9
$SURFV
 70
     6
  9
$UCSNAME
  2

  9
$UCSORG
 10
0.0
 20
0.0
 30
0.0
  9
$UCSXDIR
 10
1.0
 20
0.0
 30
0.0
  9
$UCSYDIR
 10
0.0
 20
1.0
 30
0.0
  9
$PUCSNAME
  2

  9
$PUCSORG
 10
0.0
 20
0.0
 30
0.0
  9
$PUCSXDIR
 10
1.0
 20
0.0
 30
0.0
  9
$PUCSYDIR
 10
0.0
 20
1.0
 30
0.0
  9
$USERI1
 70
     0
  9
$USERI2
 70
     0
  9
$USERI3
 70
     0
  9
$USERI4
 70
     0
  9
$USERI5
 70
     0
  9
$USERR1
 40
0.0
  9
$USERR2
 40
0.0
  9
$USERR3
 40
0.0
  9
$USERR4
 40
0.0
  9
$USERR5
 40
0.0
  9
$WORLDVIEW
 70
     1
  9
$SHADEDGE
 70
     3
  9
$SHADEDIF
 70
    70
  9
$TILEMODE
 70
     1
  9
$MAXACTVP
 70
    64
  9
$PINSBASE
 10
0.0
 20
0.0
 30
0.0
  9
$PLIMCHECK
 70
     0
  9
$PEXTMIN
 10
1.000000000000000E+20
 20
1.000000000000000E+20
 30
1.000000000000000E+20
  9
$PEXTMAX
 10
-1.000000000000000E+20
 20
-1.000000000000000E+20
 30
-1.000000000000000E+20
  9
$PLIMMIN
 10
0.0
 20
0.0
  9
$PLIMMAX
 10
12.0
 20
9.0
  9
$UNITMODE
 70
     0
  9
$VISRETAIN
 70
     1
  9
$PLINEGEN
 70
     0
  9
$PSLTSCALE
 70
     1
  9
$TREEDEPTH
 70
  3020
  9
$PICKSTYLE
 70
     1
  9
$CMLSTYLE
  2
STANDARD
  9
$CMLJUST
 70
     0
  9
$CMLSCALE
 40
1.0
  9
$SAVEIMAGES
 70
     1
  0
ENDSEC
  0
SECTION
  2
CLASSES
  0
CLASS
  1
ACDBDICTIONARYWDFLT
  2
AcDbDictionaryWithDefault
  3
ObjectDBX Classes
 90
    32768
280
     0
281
     0
  0
CLASS
  1
VISUALSTYLE
  2
AcDbVisualStyle
  3
ObjectDBX Classes
 90
     4095
280
     0
281
     0
  0
CLASS
  1
XRECORD
  2
AcDbXrecord
  3
AutoCAD 2000
 90
    32768
280
     0
281
     0
  0
CLASS
  1
LWPOLYLINE
  2
AcDbPolyline
  3
AutoCAD 2000
 90
    32768
280
     0
281
     1
  0
CLASS
  1
HATCH
  2
AcDbHatch
  3
AutoCAD 2000
 90
    32768
280
     0
281
     1
  0
CLASS
  1
ACDBPLACEHOLDER
  2
AcDbPlaceHolder
  3
ObjectDBX Classes
 90
        0
280
     0
281
     0
  0
CLASS
  1
LAYOUT
  2
AcDbLayout
  3
ObjectDBX Classes
 90
        0
280
     0
281
     0
  0
ENDSEC
  0
SECTION
  2
TABLES
  0
TABLE
  2
VPORT
  5
8
330
0
100
AcDbSymbolTable
 70
     1
  0
VPORT
  5
29
330
8
100
AcDbSymbolTableRecord
100
AcDbViewportTableRecord
  2
*ACTIVE
 70
     0
 10
0.0
 20
0.0
 11
1.0
 21
1.0
 12
0.0
 22
0.0
 13
0.0
 23
0.0
 14
0.5
 24
0.5
 15
0.5
 25
0.5
 16
0.0
 26
0.0
 36
1.0
 17
8.269009766103594
 27
0.0006890195515923
 37
0.0
 40
11.90051142845531
 41
2.403103407547393
 42
50.0
 43
0.0
 44
0.0
 50
0.0
 51
0.0
 71
     0
 72
   100
 73
     1
 74
     3
 75
     0
 76
     0
 77
     0
 78
     0
  0
ENDTAB
  0
TABLE
  2
LTYPE
  5
5
330
0
100
AcDbSymbolTable
 70
     1
  0
LTYPE
  5
14
330
5
100
AcDbSymbolTableRecord
100
AcDbLinetypeTableRecord
  2
BYBLOCK
 70
     0
  3

 72
    65
 73
     0
 40
0.0
  0
LTYPE
  5
15
330
5
100
AcDbSymbolTableRecord
100
AcDbLinetypeTableRecord
  2
BYLAYER
 70
     0
  3

 72
    65
 73
     0
 40
0.0
  0
LTYPE
  5
16
330
5
100
AcDbSymbolTableRecord
100
AcDbLinetypeTableRecord
  2
CONTINUOUS
 70
     0
  3
Solid line
 72
    65
 73
     0
 40
0.0
  0
ENDTAB
  0
TABLE
  2
LAYER
  5
2
330
0
100
AcDbSymbolTable
 70
     2
  0
LAYER
  5
10
330
2
100
AcDbSymbolTableRecord
100
AcDbLayerTableRecord
  2
0
 70
     0
 62
     7
  6
CONTINUOUS
  0
LAYER
  5
3B
330
2
100
AcDbSymbolTableRecord
100
AcDbLayerTableRecord
  2
EBENE_1
 70
     0
 62
     7
  6
CONTINUOUS
  0
ENDTAB
  0
TABLE
  2
STYLE
  5
3
330
0
100
AcDbSymbolTable
 70
     1
  0
STYLE
  5
11
330
3
100
AcDbSymbolTableRecord
100
AcDbTextStyleTableRecord
  2
STANDARD
 70
     0
 40
0.0
 41
1.0
 50
0.0
 71
     0
 42
0.2
  3
txt
  4

  0
ENDTAB
  0
TABLE
  2
VIEW
  5
6
330
0
100
AcDbSymbolTable
 70
     0
  0
ENDTAB
  0
TABLE
  2
UCS
  5
7
330
0
100
AcDbSymbolTable
 70
     0
  0
ENDTAB
  0
TABLE
  2
APPID
  5
9
330
0
100
AcDbSymbolTable
 70
     1
  0
APPID
  5
12
330
9
100
AcDbSymbolTableRecord
100
AcDbRegAppTableRecord
  2
ACAD
 70
     0
  0
ENDTAB
  0
TABLE
  2
DIMSTYLE
  5
A
330
0
100
AcDbSymbolTable
 70
     1
  0
DIMSTYLE
105
27
330
A
100
AcDbSymbolTableRecord
100
AcDbDimStyleTableRecord
  2
STANDARD
 70
     0
  3

  4

  5

  6

  7

 40
1.0
 41
0.18
 42
0.0625
 43
0.38
 44
0.18
 45
0.0
 46
0.0
 47
0.0
 48
0.0
140
0.18
141
0.09
142
0.0
143
25.4
144
1.0
145
0.0
146
1.0
147
0.09
 71
     0
 72
     0
 73
     1
 74
     1
 75
     0
 76
     0
 77
     0
 78
     0
170
     0
171
     2
172
     0
173
     0
174
     0
175
     0
176
     0
177
     0
178
     0
270
     2
271
     4
272
     4
273
     2
274
     2
340
11
275
     0
280
     0
281
     0
282
     0
283
     1
284
     0
285
     0
286
     0
287
     3
288
     0
  0
ENDTAB
  0
TABLE
  2
BLOCK_RECORD
  5
1
330
0
100
AcDbSymbolTable
 70
     1
  0
BLOCK_RECORD
  5
1F
330
1
100
AcDbSymbolTableRecord
100
AcDbBlockTableRecord
  2
*MODEL_SPACE
  0
BLOCK_RECORD
  5
1B
330
1
100
AcDbSymbolTableRecord
100
AcDbBlockTableRecord
  2
*PAPER_SPACE
  0
ENDTAB
  0
ENDSEC
  0
SECTION
  2
BLOCKS
  0
BLOCK
  5
20
330
1F
100
AcDbEntity
  8
0
100
AcDbBlockBegin
  2
*MODEL_SPACE
 70
     0
 71
     0
 10
0.0
 20
0.0
 30
0.0
  3
*MODEL_SPACE
  1

  0
ENDBLK
  5
21
330
1F
100
AcDbEntity
  8
0
100
AcDbBlockEnd
  0
BLOCK
  5
1C
330
1B
100
AcDbEntity
 67
     1
  8
0
100
AcDbBlockBegin
  2
*PAPER_SPACE
 70
     0
 71
     0
 10
0.0
 20
0.0
 30
0.0
  3
*PAPER_SPACE
  1

  0
ENDBLK
  5
1D
330
1B
100
AcDbEntity
 67
     1
  8
0
100
AcDbBlockEnd
  0
ENDSEC
  0
SECTION
  2
ENTITIES
  0
SPLINE
  5
3C
330
1F
100
AcDbEntity
  8
EBENE_1
 62
   250
100
AcDbSpline
210
0.0
220
0.0
230
1.0
 70
    11
 71
     3
 72
   389
 73
   385
 74
     0
 42
0.0000000001
 43
0.0000000001
 40
0.0
 40
0.0
 40
0.0
 40
0.0
 40
1.0
 40
1.0
 40
1.0
 40
2.0
 40
2.0
 40
2.0
 40
3.0
 40
3.0
 40
3.0
 40
4.0
 40
4.0
 40
4.0
 40
5.0
 40
5.0
 40
5.0
 40
6.0
 40
6.0
 40
6.0
 40
7.0
 40
7.0
 40
7.0
 40
8.0
 40
8.0
 40
8.0
 40
9.0
 40
9.0
 40
9.0
 40
10.0
 40
10.0
 40
10.0
 40
11.0
 40
11.0
 40
11.0
 40
12.0
 40
12.0
 40
12.0
 40
13.0
 40
13.0
 40
13.0
 40
14.0
 40
14.0
 40
14.0
 40
15.0
 40
15.0
 40
15.0
 40
16.0
 40
16.0
 40
16.0
 40
17.0
 40
17.0
 40
17.0
 40
18.0
 40
18.0
 40
18.0
 40
19.0
 40
19.0
 40
19.0
 40
20.0
 40
20.0
 40
20.0
 40
21.0
 40
21.0
 40
21.0
 40
22.0
 40
22.0
 40
22.0
 40
23.0
 40
23.0
 40
23.0
 40
24.0
 40
24.0
 40
24.0
 40
25.0
 40
25.0
 40
25.0
 40
26.0
 40
26.0
 40
26.0
 40
27.0
 40
27.0
 40
27.0
 40
28.0
 40
28.0
 40
28.0
 40
29.0
 40
29.0
 40
29.0
 40
30.0
 40
30.0
 40
30.0
 40
31.0
 40
31.0
 40
31.0
 40
32.0
 40
32.0
 40
32.0
 40
33.0
 40
33.0
 40
33.0
 40
34.0
 40
34.0
 40
34.0
 40
35.0
 40
35.0
 40
35.0
 40
36.0
 40
36.0
 40
36.0
 40
37.0
 40
37.0
 40
37.0
 40
38.0
 40
38.0
 40
38.0
 40
39.0
 40
39.0
 40
39.0
 40
40.0
 40
40.0
 40
40.0
 40
41.0
 40
41.0
 40
41.0
 40
42.0
 40
42.0
 40
42.0
 40
43.0
 40
43.0
 40
43.0
 40
44.0
 40
44.0
 40
44.0
 40
45.0
 40
45.0
 40
45.0
 40
46.0
 40
46.0
 40
46.0
 40
47.0
 40
47.0
 40
47.0
 40
48.0
 40
48.0
 40
48.0
 40
49.0
 40
49.0
 40
49.0
 40
50.0
 40
50.0
 40
50.0
 40
51.0
 40
51.0
 40
51.0
 40
52.0
 40
52.0
 40
52.0
 40
53.0
 40
53.0
 40
53.0
 40
54.0
 40
54.0
 40
54.0
 40
55.0
 40
55.0
 40
55.0
 40
56.0
 40
56.0
 40
56.0
 40
57.0
 40
57.0
 40
57.0
 40
58.0
 40
58.0
 40
58.0
 40
59.0
 40
59.0
 40
59.0
 40
60.0
 40
60.0
 40
60.0
 40
61.0
 40
61.0
 40
61.0
 40
62.0
 40
62.0
 40
62.0
 40
63.0
 40
63.0
 40
63.0
 40
64.0
 40
64.0
 40
64.0
 40
65.0
 40
65.0
 40
65.0
 40
66.0
 40
66.0
 40
66.0
 40
67.0
 40
67.0
 40
67.0
 40
68.0
 40
68.0
 40
68.0
 40
69.0
 40
69.0
 40
69.0
 40
70.0
 40
70.0
 40
70.0
 40
71.0
 40
71.0
 40
71.0
 40
72.0
 40
72.0
 40
72.0
 40
73.0
 40
73.0
 40
73.0
 40
74.0
 40
74.0
 40
74.0
 40
75.0
 40
75.0
 40
75.0
 40
76.0
 40
76.0
 40
76.0
 40
77.0
 40
77.0
 40
77.0
 40
78.0
 40
78.0
 40
78.0
 40
79.0
 40
79.0
 40
79.0
 40
80.0
 40
80.0
 40
80.0
 40
81.0
 40
81.0
 40
81.0
 40
82.0
 40
82.0
 40
82.0
 40
83.0
 40
83.0
 40
83.0
 40
84.0
 40
84.0
 40
84.0
 40
85.0
 40
85.0
 40
85.0
 40
86.0
 40
86.0
 40
86.0
 40
87.0
 40
87.0
 40
87.0
 40
88.0
 40
88.0
 40
88.0
 40
89.0
 40
89.0
 40
89.0
 40
90.0
 40
90.0
 40
90.0
 40
91.0
 40
91.0
 40
91.0
 40
92.0
 40
92.0
 40
92.0
 40
93.0
 40
93.0
 40
93.0
 40
94.0
 40
94.0
 40
94.0
 40
95.0
 40
95.0
 40
95.0
 40
96.0
 40
96.0
 40
96.0
 40
97.0
 40
97.0
 40
97.0
 40
98.0
 40
98.0
 40
98.0
 40
99.0
 40
99.0
 40
99.0
 40
100.0
 40
100.0
 40
100.0
 40
101.0
 40
101.0
 40
101.0
 40
102.0
 40
102.0
 40
102.0
 40
103.0
 40
103.0
 40
103.0
 40
104.0
 40
104.0
 40
104.0
 40
105.0
 40
105.0
 40
105.0
 40
106.0
 40
106.0
 40
106.0
 40
107.0
 40
107.0
 40
107.0
 40
108.0
 40
108.0
 40
108.0
 40
109.0
 40
109.0
 40
109.0
 40
110.0
 40
110.0
 40
110.0
 40
111.0
 40
111.0
 40
111.0
 40
112.0
 40
112.0
 40
112.0
 40
113.0
 40
113.0
 40
113.0
 40
114.0
 40
114.0
 40
114.0
 40
115.0
 40
115.0
 40
115.0
 40
116.0
 40
116.0
 40
116.0
 40
117.0
 40
117.0
 40
117.0
 40
118.0
 40
118.0
 40
118.0
 40
119.0
 40
119.0
 40
119.0
 40
120.0
 40
120.0
 40
120.0
 40
121.0
 40
121.0
 40
121.0
 40
122.0
 40
122.0
 40
122.0
 40
123.0
 40
123.0
 40
123.0
 40
124.0
 40
124.0
 40
124.0
 40
125.0
 40
125.0
 40
125.0
 40
126.0
 40
126.0
 40
126.0
 40
127.0
 40
127.0
 40
127.0
 40
128.0
 40
128.0
 40
128.0
 40
128.0
 10
0.4130672211796064
 20
-4.405935522657203
 30
0.0
 10
0.4130672211796064
 20
-4.405935522657203
 30
0.0
 10
-0.2349556670929872
 20
-4.405935522657203
 30
0.0
 10
-0.2349556670929872
 20
-4.405935522657203
 30
0.0
 10
-0.2349556670929872
 20
-4.405935522657203
 30
0.0
 10
-0.2349556670929872
 20
-3.228401108985898
 30
0.0
 10
-0.2349556670929872
 20
-3.228401108985898
 30
0.0
 10
-0.2349556670929872
 20
-3.228401108985898
 30
0.0
 10
-0.2349556670929872
 20
-3.056146221087814
 30
0.0
 10
-0.2349556670929872
 20
-3.056146221087814
 30
0.0
 10
-0.2349556670929872
 20
-3.056146221087814
 30
0.0
 10
-0.3841284000127282
 20
-3.141584645485264
 30
0.0
 10
-0.3841284000127282
 20
-3.141584645485264
 30
0.0
 10
-0.3841284000127282
 20
-3.141584645485264
 30
0.0
 10
-1.366670280583402
 20
-3.701068521378242
 30
0.0
 10
-1.366670280583402
 20
-3.701068521378242
 30
0.0
 10
-1.366670280583402
 20
-3.701068521378242
 30
0.0
 10
-1.366670280583402
 20
-3.084051512927303
 30
0.0
 10
-1.366670280583402
 20
-3.084051512927303
 30
0.0
 10
-1.366670280583402
 20
-3.084051512927303
 30
0.0
 10
-0.2859431139108202
 20
-2.475302739095473
 30
0.0
 10
-0.2859431139108202
 20
-2.475302739095473
 30
0.0
 10
-0.2859431139108202
 20
-2.475302739095473
 30
0.0
 10
-0.2349556670929872
 20
-2.446363917928595
 30
0.0
 10
-0.2349556670929872
 20
-2.446363917928595
 30
0.0
 10
-0.2349556670929872
 20
-2.446363917928595
 30
0.0
 10
-0.2349556670929872
 20
-2.388141765819042
 30
0.0
 10
-0.2349556670929872
 20
-2.388141765819042
 30
0.0
 10
-0.2349556670929872
 20
-2.388141765819042
 30
0.0
 10
-0.2349556670929872
 20
-0.7251930780509355
 30
0.0
 10
-0.2349556670929872
 20
-0.7251930780509355
 30
0.0
 10
-0.2349556670929872
 20
-0.7251930780509355
 30
0.0
 10
-0.2349556670929872
 20
-0.5515601510496663
 30
0.0
 10
-0.2349556670929872
 20
-0.5515601510496663
 30
0.0
 10
-0.2349556670929872
 20
-0.5515601510496663
 30
0.0
 10
-0.3848174195643206
 20
-0.6390656341018932
 30
0.0
 10
-0.3848174195643206
 20
-0.6390656341018932
 30
0.0
 10
-0.3848174195643206
 20
-0.6390656341018932
 30
0.0
 10
-1.856563181765554
 20
-1.494138897627984
 30
0.0
 10
-1.856563181765554
 20
-1.494138897627984
 30
0.0
 10
-1.856563181765554
 20
-1.494138897627984
 30
0.0
 10
-1.908928667686572
 20
-1.524111248122251
 30
0.0
 10
-1.908928667686572
 20
-1.524111248122251
 30
0.0
 10
-1.908928667686572
 20
-1.524111248122251
 30
0.0
 10
-1.906172589480202
 20
-1.584400458886581
 30
0.0
 10
-1.906172589480202
 20
-1.584400458886581
 30
0.0
 10
-1.906172589480202
 20
-1.584400458886581
 30
0.0
 10
-1.857252201317146
 20
-2.742297815337504
 30
0.0
 10
-1.857252201317146
 20
-2.742297815337504
 30
0.0
 10
-1.857252201317146
 20
-2.742297815337504
 30
0.0
 10
-2.398132549317131
 20
-3.058213279742591
 30
0.0
 10
-2.398132549317131
 20
-3.058213279742591
 30
0.0
 10
-2.398132549317131
 20
-3.058213279742591
 30
0.0
 10
-2.441885290843245
 20
-2.00263532670313
 30
0.0
 10
-2.441885290843245
 20
-2.00263532670313
 30
0.0
 10
-2.441885290843245
 20
-2.00263532670313
 30
0.0
 10
-2.449119996134964
 20
-1.837270634320968
 30
0.0
 10
-2.449119996134964
 20
-1.837270634320968
 30
0.0
 10
-2.449119996134964
 20
-1.837270634320968
 30
0.0
 10
-2.592091553090374
 20
-1.920642000063641
 30
0.0
 10
-2.592091553090374
 20
-1.920642000063641
 30
0.0
 10
-2.592091553090374
 20
-1.920642000063641
 30
0.0
 10
-3.573255394557863
 20
-2.490116659454709
 30
0.0
 10
-3.573255394557863
 20
-2.490116659454709
 30
0.0
 10
-3.573255394557863
 20
-2.490116659454709
 30
0.0
 10
-3.885725761204988
 20
-1.942690625714596
 30
0.0
 10
-3.885725761204988
 20
-1.942690625714596
 30
0.0
 10
-3.885725761204988
 20
-1.942690625714596
 30
0.0
 10
-2.868732903054698
 20
-1.352200869999963
 30
0.0
 10
-2.868732903054698
 20
-1.352200869999963
 30
0.0
 10
-2.868732903054698
 20
-1.352200869999963
 30
0.0
 10
-2.719904679910753
 20
-1.266073426050921
 30
0.0
 10
-2.719904679910753
 20
-1.266073426050921
 30
0.0
 10
-2.719904679910753
 20
-1.266073426050921
 30
0.0
 10
-2.868732903054698
 20
-1.179945982101878
 30
0.0
 10
-2.868732903054698
 20
-1.179945982101878
 30
0.0
 10
-2.868732903054698
 20
-1.179945982101878
 30
0.0
 10
-3.84335105878206
 20
-0.6097823031592189
 30
0.0
 10
-3.84335105878206
 20
-0.6097823031592189
 30
0.0
 10
-3.84335105878206
 20
-0.6097823031592189
 30
0.0
 10
-3.288001300198636
 20
-0.2835315454802469
 30
0.0
 10
-3.288001300198636
 20
-0.2835315454802469
 30
0.0
 10
-3.288001300198636
 20
-0.2835315454802469
 30
0.0
 10
-2.214853348593569
 20
-0.9143289449630321
 30
0.0
 10
-2.214853348593569
 20
-0.9143289449630321
 30
0.0
 10
-2.214853348593569
 20
-0.9143289449630321
 30
0.0
 10
-2.163865901775737
 20
-0.9436122759057065
 30
0.0
 10
-2.163865901775737
 20
-0.9436122759057065
 30
0.0
 10
-2.163865901775737
 20
-0.9436122759057065
 30
0.0
 10
-2.113567474509496
 20
-0.9143289449630321
 30
0.0
 10
-2.113567474509496
 20
-0.9143289449630321
 30
0.0
 10
-2.113567474509496
 20
-0.9143289449630321
 30
0.0
 10
-0.6866079831617645
 20
-0.0861274439490422
 30
0.0
 10
-0.6866079831617645
 20
-0.0861274439490422
 30
0.0
 10
-0.6866079831617645
 20
-0.0861274439490422
 30
0.0
 10
-0.5377797600178196
 20
0.0
 30
0.0
 10
-0.5377797600178196
 20
0.0
 30
0.0
 10
-0.5377797600178196
 20
0.0
 30
0.0
 10
-0.6866079831617645
 20
0.0861274439490422
 30
0.0
 10
-0.6866079831617645
 20
0.0861274439490422
 30
0.0
 10
-0.6866079831617645
 20
0.0861274439490422
 30
0.0
 10
-2.113567474509496
 20
0.9150179645146245
 30
0.0
 10
-2.113567474509496
 20
0.9150179645146245
 30
0.0
 10
-2.113567474509496
 20
0.9150179645146245
 30
0.0
 10
-2.163865901775737
 20
0.9443012954572988
 30
0.0
 10
-2.163865901775737
 20
0.9443012954572988
 30
0.0
 10
-2.163865901775737
 20
0.9443012954572988
 30
0.0
 10
-2.214853348593569
 20
0.9150179645146245
 30
0.0
 10
-2.214853348593569
 20
0.9150179645146245
 30
0.0
 10
-2.214853348593569
 20
0.9150179645146245
 30
0.0
 10
-3.288001300198636
 20
0.2842205650318393
 30
0.0
 10
-3.288001300198636
 20
0.2842205650318393
 30
0.0
 10
-3.288001300198636
 20
0.2842205650318393
 30
0.0
 10
-3.84335105878206
 20
0.6104713227108112
 30
0.0
 10
-3.84335105878206
 20
0.6104713227108112
 30
0.0
 10
-3.84335105878206
 20
0.6104713227108112
 30
0.0
 10
-2.868732903054698
 20
1.180635001653471
 30
0.0
 10
-2.868732903054698
 20
1.180635001653471
 30
0.0
 10
-2.868732903054698
 20
1.180635001653471
 30
0.0
 10
-2.719904679910753
 20
1.266762445602513
 30
0.0
 10
-2.719904679910753
 20
1.266762445602513
 30
0.0
 10
-2.719904679910753
 20
1.266762445602513
 30
0.0
 10
-2.868732903054698
 20
1.353234399327351
 30
0.0
 10
-2.868732903054698
 20
1.353234399327351
 30
0.0
 10
-2.868732903054698
 20
1.353234399327351
 30
0.0
 10
-3.885725761204988
 20
1.943379645266188
 30
0.0
 10
-3.885725761204988
 20
1.943379645266188
 30
0.0
 10
-3.885725761204988
 20
1.943379645266188
 30
0.0
 10
-3.573255394557863
 20
2.490805679006301
 30
0.0
 10
-3.573255394557863
 20
2.490805679006301
 30
0.0
 10
-3.573255394557863
 20
2.490805679006301
 30
0.0
 10
-2.592091553090374
 20
1.921331019615234
 30
0.0
 10
-2.592091553090374
 20
1.921331019615234
 30
0.0
 10
-2.592091553090374
 20
1.921331019615234
 30
0.0
 10
-2.449119996134964
 20
1.837959653872561
 30
0.0
 10
-2.449119996134964
 20
1.837959653872561
 30
0.0
 10
-2.449119996134964
 20
1.837959653872561
 30
0.0
 10
-2.441885290843245
 20
2.003324346254722
 30
0.0
 10
-2.441885290843245
 20
2.003324346254722
 30
0.0
 10
-2.441885290843245
 20
2.003324346254722
 30
0.0
 10
-2.398132549317131
 20
3.058213279742591
 30
0.0
 10
-2.398132549317131
 20
3.058213279742591
 30
0.0
 10
-2.398132549317131
 20
3.058213279742591
 30
0.0
 10
-1.857252201317146
 20
2.742297815337504
 30
0.0
 10
-1.857252201317146
 20
2.742297815337504
 30
0.0
 10
-1.857252201317146
 20
2.742297815337504
 30
0.0
 10
-1.906172589480202
 20
1.584400458886581
 30
0.0
 10
-1.906172589480202
 20
1.584400458886581
 30
0.0
 10
-1.906172589480202
 20
1.584400458886581
 30
0.0
 10
-1.908928667686572
 20
1.524111248122251
 30
0.0
 10
-1.908928667686572
 20
1.524111248122251
 30
0.0
 10
-1.908928667686572
 20
1.524111248122251
 30
0.0
 10
-1.856563181765554
 20
1.494138897627984
 30
0.0
 10
-1.856563181765554
 20
1.494138897627984
 30
0.0
 10
-1.856563181765554
 20
1.494138897627984
 30
0.0
 10
-0.3848174195643206
 20
0.6397546536534855
 30
0.0
 10
-0.3848174195643206
 20
0.6397546536534855
 30
0.0
 10
-0.3848174195643206
 20
0.6397546536534855
 30
0.0
 10
-0.2349556670929872
 20
0.5522491706012587
 30
0.0
 10
-0.2349556670929872
 20
0.5522491706012587
 30
0.0
 10
-0.2349556670929872
 20
0.5522491706012587
 30
0.0
 10
-0.2349556670929872
 20
0.7262266073783239
 30
0.0
 10
-0.2349556670929872
 20
0.7262266073783239
 30
0.0
 10
-0.2349556670929872
 20
0.7262266073783239
 30
0.0
 10
-0.2349556670929872
 20
2.38745274626745
 30
0.0
 10
-0.2349556670929872
 20
2.38745274626745
 30
0.0
 10
-0.2349556670929872
 20
2.38745274626745
 30
0.0
 10
-0.2349556670929872
 20
2.445674898377002
 30
0.0
 10
-0.2349556670929872
 20
2.445674898377002
 30
0.0
 10
-0.2349556670929872
 20
2.445674898377002
 30
0.0
 10
-0.2859431139108202
 20
2.474613719543881
 30
0.0
 10
-0.2859431139108202
 20
2.474613719543881
 30
0.0
 10
-0.2859431139108202
 20
2.474613719543881
 30
0.0
 10
-1.366670280583402
 20
3.083362493375711
 30
0.0
 10
-1.366670280583402
 20
3.083362493375711
 30
0.0
 10
-1.366670280583402
 20
3.083362493375711
 30
0.0
 10
-1.366670280583402
 20
3.701068521378242
 30
0.0
 10
-1.366670280583402
 20
3.701068521378242
 30
0.0
 10
-1.366670280583402
 20
3.701068521378242
 30
0.0
 10
-0.3841284000127282
 20
3.141584645485264
 30
0.0
 10
-0.3841284000127282
 20
3.141584645485264
 30
0.0
 10
-0.3841284000127282
 20
3.141584645485264
 30
0.0
 10
-0.2349556670929872
 20
3.056146221087814
 30
0.0
 10
-0.2349556670929872
 20
3.056146221087814
 30
0.0
 10
-0.2349556670929872
 20
3.056146221087814
 30
0.0
 10
-0.2349556670929872
 20
3.228401108985898
 30
0.0
 10
-0.2349556670929872
 20
3.228401108985898
 30
0.0
 10
-0.2349556670929872
 20
3.228401108985898
 30
0.0
 10
-0.2349556670929872
 20
4.406624542208796
 30
0.0
 10
-0.2349556670929872
 20
4.406624542208796
 30
0.0
 10
-0.2349556670929872
 20
4.406624542208796
 30
0.0
 10
0.4130672211796064
 20
4.406624542208796
 30
0.0
 10
0.4130672211796064
 20
4.406624542208796
 30
0.0
 10
0.4130672211796064
 20
4.406624542208796
 30
0.0
 10
0.4130672211796064
 20
3.228401108985898
 30
0.0
 10
0.4130672211796064
 20
3.228401108985898
 30
0.0
 10
0.4130672211796064
 20
3.228401108985898
 30
0.0
 10
0.4130672211796064
 20
3.055457201536222
 30
0.0
 10
0.4130672211796064
 20
3.055457201536222
 30
0.0
 10
0.4130672211796064
 20
3.055457201536222
 30
0.0
 10
0.5625844638751437
 20
3.141584645485264
 30
0.0
 10
0.5625844638751437
 20
3.141584645485264
 30
0.0
 10
0.5625844638751437
 20
3.141584645485264
 30
0.0
 10
1.53858065870569
 20
3.702446560481427
 30
0.0
 10
1.53858065870569
 20
3.702446560481427
 30
0.0
 10
1.53858065870569
 20
3.702446560481427
 30
0.0
 10
1.53858065870569
 20
3.085085042254692
 30
0.0
 10
1.53858065870569
 20
3.085085042254692
 30
0.0
 10
1.53858065870569
 20
3.085085042254692
 30
0.0
 10
0.4633656484458471
 20
2.474613719543881
 30
0.0
 10
0.4633656484458471
 20
2.474613719543881
 30
0.0
 10
0.4633656484458471
 20
2.474613719543881
 30
0.0
 10
0.4130672211796064
 20
2.445674898377002
 30
0.0
 10
0.4130672211796064
 20
2.445674898377002
 30
0.0
 10
0.4130672211796064
 20
2.445674898377002
 30
0.0
 10
0.4130672211796064
 20
2.38745274626745
 30
0.0
 10
0.4130672211796064
 20
2.38745274626745
 30
0.0
 10
0.4130672211796064
 20
2.38745274626745
 30
0.0
 10
0.4130672211796064
 20
0.7262266073783239
 30
0.0
 10
0.4130672211796064
 20
0.7262266073783239
 30
0.0
 10
0.4130672211796064
 20
0.7262266073783239
 30
0.0
 10
0.4130672211796064
 20
0.5522491706012587
 30
0.0
 10
0.4130672211796064
 20
0.5522491706012587
 30
0.0
 10
0.4130672211796064
 20
0.5522491706012587
 30
0.0
 10
0.5632734834267361
 20
0.6397546536534855
 30
0.0
 10
0.5632734834267361
 20
0.6397546536534855
 30
0.0
 10
0.5632734834267361
 20
0.6397546536534855
 30
0.0
 10
2.035019245627969
 20
1.494138897627984
 30
0.0
 10
2.035019245627969
 20
1.494138897627984
 30
0.0
 10
2.035019245627969
 20
1.494138897627984
 30
0.0
 10
2.087384731548987
 20
1.524111248122251
 30
0.0
 10
2.087384731548987
 20
1.524111248122251
 30
0.0
 10
2.087384731548987
 20
1.524111248122251
 30
0.0
 10
2.084284143566821
 20
1.584400458886581
 30
0.0
 10
2.084284143566821
 20
1.584400458886581
 30
0.0
 10
2.084284143566821
 20
1.584400458886581
 30
0.0
 10
2.036397284731154
 20
2.742297815337504
 30
0.0
 10
2.036397284731154
 20
2.742297815337504
 30
0.0
 10
2.036397284731154
 20
2.742297815337504
 30
0.0
 10
2.576588613179547
 20
3.058213279742591
 30
0.0
 10
2.576588613179547
 20
3.058213279742591
 30
0.0
 10
2.576588613179547
 20
3.058213279742591
 30
0.0
 10
2.62034135470566
 20
2.003324346254722
 30
0.0
 10
2.62034135470566
 20
2.003324346254722
 30
0.0
 10
2.62034135470566
 20
2.003324346254722
 30
0.0
 10
2.626542530669991
 20
1.837959653872561
 30
0.0
 10
2.626542530669991
 20
1.837959653872561
 30
0.0
 10
2.626542530669991
 20
1.837959653872561
 30
0.0
 10
2.770203107176994
 20
1.921331019615234
 30
0.0
 10
2.770203107176994
 20
1.921331019615234
 30
0.0
 10
2.770203107176994
 20
1.921331019615234
 30
0.0
 10
3.751366948644483
 20
2.490805679006301
 30
0.0
 10
3.751366948644483
 20
2.490805679006301
 30
0.0
 10
3.751366948644483
 20
2.490805679006301
 30
0.0
 10
4.063837315291607
 20
1.943379645266188
 30
0.0
 10
4.063837315291607
 20
1.943379645266188
 30
0.0
 10
4.063837315291607
 20
1.943379645266188
 30
0.0
 10
3.04753347669291
 20
1.353234399327351
 30
0.0
 10
3.04753347669291
 20
1.353234399327351
 30
0.0
 10
3.04753347669291
 20
1.353234399327351
 30
0.0
 10
2.899738782876353
 20
1.266762445602513
 30
0.0
 10
2.899738782876353
 20
1.266762445602513
 30
0.0
 10
2.899738782876353
 20
1.266762445602513
 30
0.0
 10
3.04753347669291
 20
1.180635001653471
 30
0.0
 10
3.04753347669291
 20
1.180635001653471
 30
0.0
 10
3.04753347669291
 20
1.180635001653471
 30
0.0
 10
4.021462612868679
 20
0.6104713227108112
 30
0.0
 10
4.021462612868679
 20
0.6104713227108112
 30
0.0
 10
4.021462612868679
 20
0.6104713227108112
 30
0.0
 10
3.466457364061051
 20
0.2842205650318393
 30
0.0
 10
3.466457364061051
 20
0.2842205650318393
 30
0.0
 10
3.466457364061051
 20
0.2842205650318393
 30
0.0
 10
2.393309412455985
 20
0.9150179645146245
 30
0.0
 10
2.393309412455985
 20
0.9150179645146245
 30
0.0
 10
2.393309412455985
 20
0.9150179645146245
 30
0.0
 10
2.342321965638152
 20
0.9443012954572988
 30
0.0
 10
2.342321965638152
 20
0.9443012954572988
 30
0.0
 10
2.342321965638152
 20
0.9443012954572988
 30
0.0
 10
2.292023538371911
 20
0.9150179645146245
 30
0.0
 10
2.292023538371911
 20
0.9150179645146245
 30
0.0
 10
2.292023538371911
 20
0.9150179645146245
 30
0.0
 10
0.8654085567999762
 20
0.0861274439490422
 30
0.0
 10
0.8654085567999762
 20
0.0861274439490422
 30
0.0
 10
0.8654085567999762
 20
0.0861274439490422
 30
0.0
 10
0.7169248434318274
 20
0.0
 30
0.0
 10
0.7169248434318274
 20
0.0
 30
0.0
 10
0.7169248434318274
 20
0.0
 30
0.0
 10
0.8654085567999762
 20
-0.0861274439490422
 30
0.0
 10
0.8654085567999762
 20
-0.0861274439490422
 30
0.0
 10
0.8654085567999762
 20
-0.0861274439490422
 30
0.0
 10
2.292023538371911
 20
-0.9143289449630321
 30
0.0
 10
2.292023538371911
 20
-0.9143289449630321
 30
0.0
 10
2.292023538371911
 20
-0.9143289449630321
 30
0.0
 10
2.342321965638152
 20
-0.9436122759057065
 30
0.0
 10
2.342321965638152
 20
-0.9436122759057065
 30
0.0
 10
2.342321965638152
 20
-0.9436122759057065
 30
0.0
 10
2.393309412455985
 20
-0.9143289449630321
 30
0.0
 10
2.393309412455985
 20
-0.9143289449630321
 30
0.0
 10
2.393309412455985
 20
-0.9143289449630321
 30
0.0
 10
3.466457364061051
 20
-0.2835315454802469
 30
0.0
 10
3.466457364061051
 20
-0.2835315454802469
 30
0.0
 10
3.466457364061051
 20
-0.2835315454802469
 30
0.0
 10
4.021462612868679
 20
-0.6097823031592189
 30
0.0
 10
4.021462612868679
 20
-0.6097823031592189
 30
0.0
 10
4.021462612868679
 20
-0.6097823031592189
 30
0.0
 10
3.04753347669291
 20
-1.179945982101878
 30
0.0
 10
3.04753347669291
 20
-1.179945982101878
 30
0.0
 10
3.04753347669291
 20
-1.179945982101878
 30
0.0
 10
2.899738782876353
 20
-1.266073426050921
 30
0.0
 10
2.899738782876353
 20
-1.266073426050921
 30
0.0
 10
2.899738782876353
 20
-1.266073426050921
 30
0.0
 10
3.04753347669291
 20
-1.352200869999963
 30
0.0
 10
3.04753347669291
 20
-1.352200869999963
 30
0.0
 10
3.04753347669291
 20
-1.352200869999963
 30
0.0
 10
4.063837315291607
 20
-1.942690625714596
 30
0.0
 10
4.063837315291607
 20
-1.942690625714596
 30
0.0
 10
4.063837315291607
 20
-1.942690625714596
 30
0.0
 10
3.751366948644483
 20
-2.490116659454709
 30
0.0
 10
3.751366948644483
 20
-2.490116659454709
 30
0.0
 10
3.751366948644483
 20
-2.490116659454709
 30
0.0
 10
2.770203107176994
 20
-1.920642000063641
 30
0.0
 10
2.770203107176994
 20
-1.920642000063641
 30
0.0
 10
2.770203107176994
 20
-1.920642000063641
 30
0.0
 10
2.626542530669991
 20
-1.837270634320968
 30
0.0
 10
2.626542530669991
 20
-1.837270634320968
 30
0.0
 10
2.626542530669991
 20
-1.837270634320968
 30
0.0
 10
2.62034135470566
 20
-2.00263532670313
 30
0.0
 10
2.62034135470566
 20
-2.00263532670313
 30
0.0
 10
2.62034135470566
 20
-2.00263532670313
 30
0.0
 10
2.576588613179547
 20
-3.058213279742591
 30
0.0
 10
2.576588613179547
 20
-3.058213279742591
 30
0.0
 10
2.576588613179547
 20
-3.058213279742591
 30
0.0
 10
2.036397284731154
 20
-2.742297815337504
 30
0.0
 10
2.036397284731154
 20
-2.742297815337504
 30
0.0
 10
2.036397284731154
 20
-2.742297815337504
 30
0.0
 10
2.084284143566821
 20
-1.584400458886581
 30
0.0
 10
2.084284143566821
 20
-1.584400458886581
 30
0.0
 10
2.084284143566821
 20
-1.584400458886581
 30
0.0
 10
2.087384731548987
 20
-1.524111248122251
 30
0.0
 10
2.087384731548987
 20
-1.524111248122251
 30
0.0
 10
2.087384731548987
 20
-1.524111248122251
 30
0.0
 10
2.035019245627969
 20
-1.494138897627984
 30
0.0
 10
2.035019245627969
 20
-1.494138897627984
 30
0.0
 10
2.035019245627969
 20
-1.494138897627984
 30
0.0
 10
0.5632734834267361
 20
-0.6390656341018932
 30
0.0
 10
0.5632734834267361
 20
-0.6390656341018932
 30
0.0
 10
0.5632734834267361
 20
-0.6390656341018932
 30
0.0
 10
0.4130672211796064
 20
-0.5515601510496663
 30
0.0
 10
0.4130672211796064
 20
-0.5515601510496663
 30
0.0
 10
0.4130672211796064
 20
-0.5515601510496663
 30
0.0
 10
0.4130672211796064
 20
-0.7251930780509355
 30
0.0
 10
0.4130672211796064
 20
-0.7251930780509355
 30
0.0
 10
0.4130672211796064
 20
-0.7251930780509355
 30
0.0
 10
0.4130672211796064
 20
-2.38745274626745
 30
0.0
 10
0.4130672211796064
 20
-2.38745274626745
 30
0.0
 10
0.4130672211796064
 20
-2.38745274626745
 30
0.0
 10
0.4130672211796064
 20
-2.445674898377002
 30
0.0
 10
0.4130672211796064
 20
-2.445674898377002
 30
0.0
 10
0.4130672211796064
 20
-2.445674898377002
 30
0.0
 10
0.4633656484458471
 20
-2.474269209768085
 30
0.0
 10
0.4633656484458471
 20
-2.474269209768085
 30
0.0
 10
0.4633656484458471
 20
-2.474269209768085
 30
0.0
 10
1.53858065870569
 20
-3.084051512927303
 30
0.0
 10
1.53858065870569
 20
-3.084051512927303
 30
0.0
 10
1.53858065870569
 20
-3.084051512927303
 30
0.0
 10
1.53858065870569
 20
-3.701068521378242
 30
0.0
 10
1.53858065870569
 20
-3.701068521378242
 30
0.0
 10
1.53858065870569
 20
-3.701068521378242
 30
0.0
 10
0.5625844638751437
 20
-3.140206606382079
 30
0.0
 10
0.5625844638751437
 20
-3.140206606382079
 30
0.0
 10
0.5625844638751437
 20
-3.140206606382079
 30
0.0
 10
0.4130672211796064
 20
-3.054079162433037
 30
0.0
 10
0.4130672211796064
 20
-3.054079162433037
 30
0.0
 10
0.4130672211796064
 20
-3.054079162433037
 30
0.0
 10
0.4130672211796064
 20
-3.227023069882713
 30
0.0
 10
0.4130672211796064
 20
-3.227023069882713
 30
0.0
 10
0.4130672211796064
 20
-3.227023069882713
 30
0.0
 10
0.4130672211796064
 20
-4.405935522657203
 30
0.0
 10
0.4130672211796064
 20
-4.405935522657203
 30
0.0
 10
0.4130672211796064
 20
-4.405935522657203
 30
0.0
 10
0.4130672211796064
 20
-4.405935522657203
 30
0.0
 10
0.4130672211796064
 20
-4.405935522657203
 30
0.0
 10
0.4130672211796064
 20
-4.405935522657203
 30
0.0
 10
0.4130672211796064
 20
-4.405935522657203
 30
0.0
 10
0.4130672211796064
 20
-4.405935522657203
 30
0.0
  0
SPLINE
  5
3D
330
1F
100
AcDbEntity
  8
EBENE_1
 62
   250
100
AcDbSpline
210
0.0
220
0.0
230
1.0
 70
    11
 71
     3
 72
   215
 73
   211
 74
     0
 42
0.0000000001
 43
0.0000000001
 40
0.0
 40
0.0
 40
0.0
 40
0.0
 40
1.0
 40
1.0
 40
1.0
 40
2.0
 40
2.0
 40
2.0
 40
3.0
 40
3.0
 40
3.0
 40
4.0
 40
4.0
 40
4.0
 40
5.0
 40
5.0
 40
5.0
 40
6.0
 40
6.0
 40
6.0
 40
7.0
 40
7.0
 40
7.0
 40
8.0
 40
8.0
 40
8.0
 40
9.0
 40
9.0
 40
9.0
 40
10.0
 40
10.0
 40
10.0
 40
11.0
 40
11.0
 40
11.0
 40
12.0
 40
12.0
 40
12.0
 40
13.0
 40
13.0
 40
13.0
 40
14.0
 40
14.0
 40
14.0
 40
15.0
 40
15.0
 40
15.0
 40
16.0
 40
16.0
 40
16.0
 40
17.0
 40
17.0
 40
17.0
 40
18.0
 40
18.0
 40
18.0
 40
19.0
 40
19.0
 40
19.0
 40
20.0
 40
20.0
 40
20.0
 40
21.0
 40
21.0
 40
21.0
 40
22.0
 40
22.0
 40
22.0
 40
23.0
 40
23.0
 40
23.0
 40
24.0
 40
24.0
 40
24.0
 40
25.0
 40
25.0
 40
25.0
 40
26.0
 40
26.0
 40
26.0
 40
27.0
 40
27.0
 40
27.0
 40
28.0
 40
28.0
 40
28.0
 40
29.0
 40
29.0
 40
29.0
 40
30.0
 40
30.0
 40
30.0
 40
31.0
 40
31.0
 40
31.0
 40
32.0
 40
32.0
 40
32.0
 40
33.0
 40
33.0
 40
33.0
 40
34.0
 40
34.0
 40
34.0
 40
35.0
 40
35.0
 40
35.0
 40
36.0
 40
36.0
 40
36.0
 40
37.0
 40
37.0
 40
37.0
 40
38.0
 40
38.0
 40
38.0
 40
39.0
 40
39.0
 40
39.0
 40
40.0
 40
40.0
 40
40.0
 40
41.0
 40
41.0
 40
41.0
 40
42.0
 40
42.0
 40
42.0
 40
43.0
 40
43.0
 40
43.0
 40
44.0
 40
44.0
 40
44.0
 40
45.0
 40
45.0
 40
45.0
 40
46.0
 40
46.0
 40
46.0
 40
47.0
 40
47.0
 40
47.0
 40
48.0
 40
48.0
 40
48.0
 40
49.0
 40
49.0
 40
49.0
 40
50.0
 40
50.0
 40
50.0
 40
51.0
 40
51.0
 40
51.0
 40
52.0
 40
52.0
 40
52.0
 40
53.0
 40
53.0
 40
53.0
 40
54.0
 40
54.0
 40
54.0
 40
55.0
 40
55.0
 40
55.0
 40
56.0
 40
56.0
 40
56.0
 40
57.0
 40
57.0
 40
57.0
 40
58.0
 40
58.0
 40
58.0
 40
59.0
 40
59.0
 40
59.0
 40
60.0
 40
60.0
 40
60.0
 40
61.0
 40
61.0
 40
61.0
 40
62.0
 40
62.0
 40
62.0
 40
63.0
 40
63.0
 40
63.0
 40
64.0
 40
64.0
 40
64.0
 40
65.0
 40
65.0
 40
65.0
 40
66.0
 40
66.0
 40
66.0
 40
67.0
 40
67.0
 40
67.0
 40
68.0
 40
68.0
 40
68.0
 40
69.0
 40
69.0
 40
69.0
 40
70.0
 40
70.0
 40
70.0
 40
70.0
 10
11.04016027516403
 20
-2.912141134805015
 30
0.0
 10
11.04016027516403
 20
-2.912141134805015
 30
0.0
 10
10.45173757810417
 20
-2.912141134805015
 30
0.0
 10
10.45173757810417
 20
-2.912141134805015
 30
0.0
 10
10.45173757810417
 20
-2.912141134805015
 30
0.0
 10
9.862970371268517
 20
-2.912141134805015
 30
0.0
 10
9.862970371268517
 20
-2.912141134805015
 30
0.0
 10
9.862970371268517
 20
-2.912141134805015
 30
0.0
 10
9.274203164432866
 20
-2.912141134805015
 30
0.0
 10
9.274203164432866
 20
-2.912141134805015
 30
0.0
 10
9.274203164432866
 20
-2.912141134805015
 30
0.0
 10
8.685780467373009
 20
-2.912141134805015
 30
0.0
 10
8.685780467373009
 20
-2.912141134805015
 30
0.0
 10
8.685780467373009
 20
-2.912141134805015
 30
0.0
 10
8.649606940914412
 20
-2.909385056598646
 30
0.0
 10
8.649606940914412
 20
-2.909385056598646
 30
0.0
 10
8.649606940914412
 20
-2.909385056598646
 30
0.0
 10
8.5786379271004
 20
-2.891470548257245
 30
0.0
 10
8.5786379271004
 20
-2.891470548257245
 30
0.0
 10
8.5786379271004
 20
-2.891470548257245
 30
0.0
 10
8.50939146216537
 20
-2.844617218748966
 30
0.0
 10
8.50939146216537
 20
-2.844617218748966
 30
0.0
 10
8.50939146216537
 20
-2.844617218748966
 30
0.0
 10
8.478041072567919
 20
-2.754011147714574
 30
0.0
 10
8.478041072567919
 20
-2.754011147714574
 30
0.0
 10
8.478041072567919
 20
-2.754011147714574
 30
0.0
 10
8.4797636214469
 20
-2.728517424305657
 30
0.0
 10
8.4797636214469
 20
-2.728517424305657
 30
0.0
 10
8.4797636214469
 20
-2.728517424305657
 30
0.0
 10
8.492165973375561
 20
-2.693377427174448
 30
0.0
 10
8.492165973375561
 20
-2.693377427174448
 30
0.0
 10
8.492165973375561
 20
-2.693377427174448
 30
0.0
 10
8.52558342162779
 20
-2.655825861612666
 30
0.0
 10
8.52558342162779
 20
-2.655825861612666
 30
0.0
 10
8.52558342162779
 20
-2.655825861612666
 30
0.0
 10
8.590695769253266
 20
-2.62481998179101
 30
0.0
 10
8.590695769253266
 20
-2.62481998179101
 30
0.0
 10
8.590695769253266
 20
-2.62481998179101
 30
0.0
 10
8.78913340011186
 20
-2.543171164927319
 30
0.0
 10
8.78913340011186
 20
-2.543171164927319
 30
0.0
 10
8.78913340011186
 20
-2.543171164927319
 30
0.0
 10
8.894897901281283
 20
-2.443607839722226
 30
0.0
 10
8.894897901281283
 20
-2.443607839722226
 30
0.0
 10
8.894897901281283
 20
-2.443607839722226
 30
0.0
 10
8.937272603704212
 20
-2.304425890300573
 30
0.0
 10
8.937272603704212
 20
-2.304425890300573
 30
0.0
 10
8.937272603704212
 20
-2.304425890300573
 30
0.0
 10
8.944162799220136
 20
-2.103921200787203
 30
0.0
 10
8.944162799220136
 20
-2.103921200787203
 30
0.0
 10
8.944162799220136
 20
-2.103921200787203
 30
0.0
 10
8.944162799220136
 20
-1.007691094203794
 30
0.0
 10
8.944162799220136
 20
-1.007691094203794
 30
0.0
 10
8.944162799220136
 20
-1.007691094203794
 30
0.0
 10
8.944162799220136
 20
0.0881945026038192
 30
0.0
 10
8.944162799220136
 20
0.0881945026038192
 30
0.0
 10
8.944162799220136
 20
0.0881945026038192
 30
0.0
 10
8.944162799220136
 20
1.184080099411432
 30
0.0
 10
8.944162799220136
 20
1.184080099411432
 30
0.0
 10
8.944162799220136
 20
1.184080099411432
 30
0.0
 10
8.944162799220136
 20
2.280310205994842
 30
0.0
 10
8.944162799220136
 20
2.280310205994842
 30
0.0
 10
8.944162799220136
 20
2.280310205994842
 30
0.0
 10
8.937272603704212
 20
2.494595286540059
 30
0.0
 10
8.937272603704212
 20
2.494595286540059
 30
0.0
 10
8.937272603704212
 20
2.494595286540059
 30
0.0
 10
8.89524241105708
 20
2.640667431477634
 30
0.0
 10
8.89524241105708
 20
2.640667431477634
 30
0.0
 10
8.89524241105708
 20
2.640667431477634
 30
0.0
 10
8.789477909887657
 20
2.743331344664893
 30
0.0
 10
8.789477909887657
 20
2.743331344664893
 30
0.0
 10
8.789477909887657
 20
2.743331344664893
 30
0.0
 10
8.59138478880486
 20
2.825324671304381
 30
0.0
 10
8.59138478880486
 20
2.825324671304381
 30
0.0
 10
8.59138478880486
 20
2.825324671304381
 30
0.0
 10
8.525927931403587
 20
2.856675060901832
 30
0.0
 10
8.525927931403587
 20
2.856675060901832
 30
0.0
 10
8.525927931403587
 20
2.856675060901832
 30
0.0
 10
8.492165973375561
 20
2.893882116687818
 30
0.0
 10
8.492165973375561
 20
2.893882116687818
 30
0.0
 10
8.492165973375561
 20
2.893882116687818
 30
0.0
 10
8.4797636214469
 20
2.929022113819027
 30
0.0
 10
8.4797636214469
 20
2.929022113819027
 30
0.0
 10
8.4797636214469
 20
2.929022113819027
 30
0.0
 10
8.478041072567919
 20
2.954171327452148
 30
0.0
 10
8.478041072567919
 20
2.954171327452148
 30
0.0
 10
8.478041072567919
 20
2.954171327452148
 30
0.0
 10
8.50939146216537
 20
3.045121908262336
 30
0.0
 10
8.50939146216537
 20
3.045121908262336
 30
0.0
 10
8.50939146216537
 20
3.045121908262336
 30
0.0
 10
8.5786379271004
 20
3.091975237770615
 30
0.0
 10
8.5786379271004
 20
3.091975237770615
 30
0.0
 10
8.5786379271004
 20
3.091975237770615
 30
0.0
 10
8.649606940914412
 20
3.109889746112016
 30
0.0
 10
8.649606940914412
 20
3.109889746112016
 30
0.0
 10
8.649606940914412
 20
3.109889746112016
 30
0.0
 10
8.685780467373009
 20
3.112645824318386
 30
0.0
 10
8.685780467373009
 20
3.112645824318386
 30
0.0
 10
8.685780467373009
 20
3.112645824318386
 30
0.0
 10
9.274203164432866
 20
3.112645824318386
 30
0.0
 10
9.274203164432866
 20
3.112645824318386
 30
0.0
 10
9.274203164432866
 20
3.112645824318386
 30
0.0
 10
9.862970371268517
 20
3.112645824318386
 30
0.0
 10
9.862970371268517
 20
3.112645824318386
 30
0.0
 10
9.862970371268517
 20
3.112645824318386
 30
0.0
 10
10.45173757810417
 20
3.112645824318386
 30
0.0
 10
10.45173757810417
 20
3.112645824318386
 30
0.0
 10
10.45173757810417
 20
3.112645824318386
 30
0.0
 10
11.04016027516403
 20
3.112645824318386
 30
0.0
 10
11.04016027516403
 20
3.112645824318386
 30
0.0
 10
11.04016027516403
 20
3.112645824318386
 30
0.0
 10
11.07667831139842
 20
3.109889746112016
 30
0.0
 10
11.07667831139842
 20
3.109889746112016
 30
0.0
 10
11.07667831139842
 20
3.109889746112016
 30
0.0
 10
11.14764732521243
 20
3.091975237770615
 30
0.0
 10
11.14764732521243
 20
3.091975237770615
 30
0.0
 10
11.14764732521243
 20
3.091975237770615
 30
0.0
 10
11.21723829992326
 20
3.045121908262336
 30
0.0
 10
11.21723829992326
 20
3.045121908262336
 30
0.0
 10
11.21723829992326
 20
3.045121908262336
 30
0.0
 10
11.24858868952071
 20
2.954171327452148
 30
0.0
 10
11.24858868952071
 20
2.954171327452148
 30
0.0
 10
11.24858868952071
 20
2.954171327452148
 30
0.0
 10
11.24686614064173
 20
2.929022113819027
 30
0.0
 10
11.24686614064173
 20
2.929022113819027
 30
0.0
 10
11.24686614064173
 20
2.929022113819027
 30
0.0
 10
11.23446378871307
 20
2.893882116687818
 30
0.0
 10
11.23446378871307
 20
2.893882116687818
 30
0.0
 10
11.23446378871307
 20
2.893882116687818
 30
0.0
 10
11.20104634046084
 20
2.856675060901832
 30
0.0
 10
11.20104634046084
 20
2.856675060901832
 30
0.0
 10
11.20104634046084
 20
2.856675060901832
 30
0.0
 10
11.13593399283536
 20
2.825324671304381
 30
0.0
 10
11.13593399283536
 20
2.825324671304381
 30
0.0
 10
11.13593399283536
 20
2.825324671304381
 30
0.0
 10
10.93818538152836
 20
2.743675854440689
 30
0.0
 10
10.93818538152836
 20
2.743675854440689
 30
0.0
 10
10.93818538152836
 20
2.743675854440689
 30
0.0
 10
10.83242088035894
 20
2.644112529235596
 30
0.0
 10
10.83242088035894
 20
2.644112529235596
 30
0.0
 10
10.83242088035894
 20
2.644112529235596
 30
0.0
 10
10.7903906877118
 20
2.505619599365536
 30
0.0
 10
10.7903906877118
 20
2.505619599365536
 30
0.0
 10
10.7903906877118
 20
2.505619599365536
 30
0.0
 10
10.78315598242009
 20
2.305803929403758
 30
0.0
 10
10.78315598242009
 20
2.305803929403758
 30
0.0
 10
10.78315598242009
 20
2.305803929403758
 30
0.0
 10
10.78315598242009
 20
1.209573822820349
 30
0.0
 10
10.78315598242009
 20
1.209573822820349
 30
0.0
 10
10.78315598242009
 20
1.209573822820349
 30
0.0
 10
10.78315598242009
 20
0.1129992064611434
 30
0.0
 10
10.78315598242009
 20
0.1129992064611434
 30
0.0
 10
10.78315598242009
 20
0.1129992064611434
 30
0.0
 10
10.78315598242009
 20
-0.983575409898062
 30
0.0
 10
10.78315598242009
 20
-0.983575409898062
 30
0.0
 10
10.78315598242009
 20
-0.983575409898062
 30
0.0
 10
10.78315598242009
 20
-2.080150026257268
 30
0.0
 10
10.78315598242009
 20
-2.080150026257268
 30
0.0
 10
10.78315598242009
 20
-2.080150026257268
 30
0.0
 10
10.7907351974876
 20
-2.292023538371911
 30
0.0
 10
10.7907351974876
 20
-2.292023538371911
 30
0.0
 10
10.7907351974876
 20
-2.292023538371911
 30
0.0
 10
10.83276539013473
 20
-2.438784702861079
 30
0.0
 10
10.83276539013473
 20
-2.438784702861079
 30
0.0
 10
10.83276539013473
 20
-2.438784702861079
 30
0.0
 10
10.93818538152836
 20
-2.54213763559993
 30
0.0
 10
10.93818538152836
 20
-2.54213763559993
 30
0.0
 10
10.93818538152836
 20
-2.54213763559993
 30
0.0
 10
11.13524497328377
 20
-2.62481998179101
 30
0.0
 10
11.13524497328377
 20
-2.62481998179101
 30
0.0
 10
11.13524497328377
 20
-2.62481998179101
 30
0.0
 10
11.20070183068504
 20
-2.655825861612666
 30
0.0
 10
11.20070183068504
 20
-2.655825861612666
 30
0.0
 10
11.20070183068504
 20
-2.655825861612666
 30
0.0
 10
11.23446378871307
 20
-2.693377427174448
 30
0.0
 10
11.23446378871307
 20
-2.693377427174448
 30
0.0
 10
11.23446378871307
 20
-2.693377427174448
 30
0.0
 10
11.24686614064173
 20
-2.728517424305657
 30
0.0
 10
11.24686614064173
 20
-2.728517424305657
 30
0.0
 10
11.24686614064173
 20
-2.728517424305657
 30
0.0
 10
11.24858868952071
 20
-2.754011147714574
 30
0.0
 10
11.24858868952071
 20
-2.754011147714574
 30
0.0
 10
11.24858868952071
 20
-2.754011147714574
 30
0.0
 10
11.21723829992326
 20
-2.844617218748966
 30
0.0
 10
11.21723829992326
 20
-2.844617218748966
 30
0.0
 10
11.21723829992326
 20
-2.844617218748966
 30
0.0
 10
11.14764732521243
 20
-2.891470548257245
 30
0.0
 10
11.14764732521243
 20
-2.891470548257245
 30
0.0
 10
11.14764732521243
 20
-2.891470548257245
 30
0.0
 10
11.07667831139842
 20
-2.909385056598646
 30
0.0
 10
11.07667831139842
 20
-2.909385056598646
 30
0.0
 10
11.07667831139842
 20
-2.909385056598646
 30
0.0
 10
11.04016027516403
 20
-2.912141134805015
 30
0.0
 10
11.04016027516403
 20
-2.912141134805015
 30
0.0
 10
11.04016027516403
 20
-2.912141134805015
 30
0.0
 10
11.04016027516403
 20
-2.912141134805015
 30
0.0
 10
11.04016027516403
 20
-2.912141134805015
 30
0.0
 10
11.04016027516403
 20
-2.912141134805015
 30
0.0
 10
11.04016027516403
 20
-2.912141134805015
 30
0.0
 10
11.04016027516403
 20
-2.912141134805015
 30
0.0
 10
11.04016027516403
 20
-2.912141134805015
 30
0.0
 10
11.04016027516403
 20
-2.912141134805015
 30
0.0
 10
11.04016027516403
 20
-2.912141134805015
 30
0.0
 10
11.04016027516403
 20
-2.912141134805015
 30
0.0
 10
11.04016027516403
 20
-2.912141134805015
 30
0.0
 10
11.04016027516403
 20
-2.912141134805015
 30
0.0
 10
11.04016027516403
 20
-2.912141134805015
 30
0.0
 10
11.04016027516403
 20
-2.912141134805015
 30
0.0
 10
11.04016027516403
 20
-2.912141134805015
 30
0.0
 10
11.04016027516403
 20
-2.912141134805015
 30
0.0
 10
11.04016027516403
 20
-2.912141134805015
 30
0.0
 10
11.04016027516403
 20
-2.912141134805015
 30
0.0
  0
SPLINE
  5
3E
330
1F
100
AcDbEntity
  8
EBENE_1
 62
   250
100
AcDbSpline
210
0.0
220
0.0
230
1.0
 70
    11
 71
     3
 72
    80
 73
    76
 74
     0
 42
0.0000000001
 43
0.0000000001
 40
0.0
 40
0.0
 40
0.0
 40
0.0
 40
1.0
 40
1.0
 40
1.0
 40
2.0
 40
2.0
 40
2.0
 40
3.0
 40
3.0
 40
3.0
 40
4.0
 40
4.0
 40
4.0
 40
5.0
 40
5.0
 40
5.0
 40
6.0
 40
6.0
 40
6.0
 40
7.0
 40
7.0
 40
7.0
 40
8.0
 40
8.0
 40
8.0
 40
9.0
 40
9.0
 40
9.0
 40
10.0
 40
10.0
 40
10.0
 40
11.0
 40
11.0
 40
11.0
 40
12.0
 40
12.0
 40
12.0
 40
13.0
 40
13.0
 40
13.0
 40
14.0
 40
14.0
 40
14.0
 40
15.0
 40
15.0
 40
15.0
 40
16.0
 40
16.0
 40
16.0
 40
17.0
 40
17.0
 40
17.0
 40
18.0
 40
18.0
 40
18.0
 40
19.0
 40
19.0
 40
19.0
 40
20.0
 40
20.0
 40
20.0
 40
21.0
 40
21.0
 40
21.0
 40
22.0
 40
22.0
 40
22.0
 40
23.0
 40
23.0
 40
23.0
 40
24.0
 40
24.0
 40
24.0
 40
25.0
 40
25.0
 40
25.0
 40
25.0
 10
15.07781484749513
 20
-3.035475634540044
 30
0.0
 10
15.07781484749513
 20
-3.035475634540044
 30
0.0
 10
15.07781484749513
 20
-2.960027993640683
 30
0.0
 10
15.07781484749513
 20
-2.960027993640683
 30
0.0
 10
15.07781484749513
 20
-2.960027993640683
 30
0.0
 10
15.07781484749513
 20
-2.884580352741322
 30
0.0
 10
15.07781484749513
 20
-2.884580352741322
 30
0.0
 10
15.07781484749513
 20
-2.884580352741322
 30
0.0
 10
15.07781484749513
 20
-2.808788202066165
 30
0.0
 10
15.07781484749513
 20
-2.808788202066165
 30
0.0
 10
15.07781484749513
 20
-2.808788202066165
 30
0.0
 10
15.07781484749513
 20
-2.732996051391007
 30
0.0
 10
15.07781484749513
 20
-2.732996051391007
 30
0.0
 10
15.07781484749513
 20
-2.732996051391007
 30
0.0
 10
15.55048225988747
 20
-2.551783909322223
 30
0.0
 10
15.55048225988747
 20
-2.551783909322223
 30
0.0
 10
15.55048225988747
 20
-2.551783909322223
 30
0.0
 10
15.94460144339829
 20
-2.277554127788472
 30
0.0
 10
15.94460144339829
 20
-2.277554127788472
 30
0.0
 10
15.94460144339829
 20
-2.277554127788472
 30
0.0
 10
16.24570298744414
 20
-1.923398078270011
 30
0.0
 10
16.24570298744414
 20
-1.923398078270011
 30
0.0
 10
16.24570298744414
 20
-1.923398078270011
 30
0.0
 10
16.43862846188999
 20
-1.501029093143908
 30
0.0
 10
16.43862846188999
 20
-1.501029093143908
 30
0.0
 10
16.43862846188999
 20
-1.501029093143908
 30
0.0
 10
16.47583551767598
 20
-1.40732243412735
 30
0.0
 10
16.47583551767598
 20
-1.40732243412735
 30
0.0
 10
16.47583551767598
 20
-1.40732243412735
 30
0.0
 10
16.51235355391037
 20
-1.34703322336302
 30
0.0
 10
16.51235355391037
 20
-1.34703322336302
 30
0.0
 10
16.51235355391037
 20
-1.34703322336302
 30
0.0
 10
16.55713982476388
 20
-1.314993814213977
 30
0.0
 10
16.55713982476388
 20
-1.314993814213977
 30
0.0
 10
16.55713982476388
 20
-1.314993814213977
 30
0.0
 10
16.6174290355282
 20
-1.30569205026748
 30
0.0
 10
16.6174290355282
 20
-1.30569205026748
 30
0.0
 10
16.6174290355282
 20
-1.30569205026748
 30
0.0
 10
16.68460844180846
 20
-1.321539499954104
 30
0.0
 10
16.68460844180846
 20
-1.321539499954104
 30
0.0
 10
16.68460844180846
 20
-1.321539499954104
 30
0.0
 10
16.73146177131674
 20
-1.36322518282544
 30
0.0
 10
16.73146177131674
 20
-1.36322518282544
 30
0.0
 10
16.73146177131674
 20
-1.36322518282544
 30
0.0
 10
16.75833353382884
 20
-1.421791844710789
 30
0.0
 10
16.75833353382884
 20
-1.421791844710789
 30
0.0
 10
16.75833353382884
 20
-1.421791844710789
 30
0.0
 10
16.76729078799954
 20
-1.488971250991042
 30
0.0
 10
16.76729078799954
 20
-1.488971250991042
 30
0.0
 10
16.76729078799954
 20
-1.488971250991042
 30
0.0
 10
16.60674923247852
 20
-1.975763564191028
 30
0.0
 10
16.60674923247852
 20
-1.975763564191028
 30
0.0
 10
16.60674923247852
 20
-1.975763564191028
 30
0.0
 10
16.20918495120974
 20
-2.469446072906938
 30
0.0
 10
16.20918495120974
 20
-2.469446072906938
 30
0.0
 10
16.20918495120974
 20
-2.469446072906938
 30
0.0
 10
15.66830460320976
 20
-2.859431139108201
 30
0.0
 10
15.66830460320976
 20
-2.859431139108201
 30
0.0
 10
15.66830460320976
 20
-2.859431139108201
 30
0.0
 10
15.07781484749513
 20
-3.035475634540044
 30
0.0
 10
15.07781484749513
 20
-3.035475634540044
 30
0.0
 10
15.07781484749513
 20
-3.035475634540044
 30
0.0
 10
15.07781484749513
 20
-3.035475634540044
 30
0.0
 10
15.07781484749513
 20
-3.035475634540044
 30
0.0
 10
15.07781484749513
 20
-3.035475634540044
 30
0.0
 10
15.07781484749513
 20
-3.035475634540044
 30
0.0
 10
15.07781484749513
 20
-3.035475634540044
 30
0.0
 10
15.07781484749513
 20
-3.035475634540044
 30
0.0
 10
15.07781484749513
 20
-3.035475634540044
 30
0.0
 10
15.07781484749513
 20
-3.035475634540044
 30
0.0
 10
15.07781484749513
 20
-3.035475634540044
 30
0.0
 10
15.07781484749513
 20
-3.035475634540044
 30
0.0
 10
15.07781484749513
 20
-3.035475634540044
 30
0.0
 10
15.07781484749513
 20
-3.035475634540044
 30
0.0
 10
15.07781484749513
 20
-3.035475634540044
 30
0.0
 10
15.07781484749513
 20
-3.035475634540044
 30
0.0
  0
SPLINE
  5
3F
330
1F
100
AcDbEntity
  8
EBENE_1
 62
   250
100
AcDbSpline
210
0.0
220
0.0
230
1.0
 70
    11
 71
     3
 72
   104
 73
   100
 74
     0
 42
0.0000000001
 43
0.0000000001
 40
0.0
 40
0.0
 40
0.0
 40
0.0
 40
1.0
 40
1.0
 40
1.0
 40
2.0
 40
2.0
 40
2.0
 40
3.0
 40
3.0
 40
3.0
 40
4.0
 40
4.0
 40
4.0
 40
5.0
 40
5.0
 40
5.0
 40
6.0
 40
6.0
 40
6.0
 40
7.0
 40
7.0
 40
7.0
 40
8.0
 40
8.0
 40
8.0
 40
9.0
 40
9.0
 40
9.0
 40
10.0
 40
10.0
 40
10.0
 40
11.0
 40
11.0
 40
11.0
 40
12.0
 40
12.0
 40
12.0
 40
13.0
 40
13.0
 40
13.0
 40
14.0
 40
14.0
 40
14.0
 40
15.0
 40
15.0
 40
15.0
 40
16.0
 40
16.0
 40
16.0
 40
17.0
 40
17.0
 40
17.0
 40
18.0
 40
18.0
 40
18.0
 40
19.0
 40
19.0
 40
19.0
 40
20.0
 40
20.0
 40
20.0
 40
21.0
 40
21.0
 40
21.0
 40
22.0
 40
22.0
 40
22.0
 40
23.0
 40
23.0
 40
23.0
 40
24.0
 40
24.0
 40
24.0
 40
25.0
 40
25.0
 40
25.0
 40
26.0
 40
26.0
 40
26.0
 40
27.0
 40
27.0
 40
27.0
 40
28.0
 40
28.0
 40
28.0
 40
29.0
 40
29.0
 40
29.0
 40
30.0
 40
30.0
 40
30.0
 40
31.0
 40
31.0
 40
31.0
 40
32.0
 40
32.0
 40
32.0
 40
33.0
 40
33.0
 40
33.0
 40
33.0
 10
14.50386156101871
 20
-3.032719556333674
 30
0.0
 10
14.50386156101871
 20
-3.032719556333674
 30
0.0
 10
13.33804047972447
 20
-2.722316248341326
 30
0.0
 10
13.33804047972447
 20
-2.722316248341326
 30
0.0
 10
13.33804047972447
 20
-2.722316248341326
 30
0.0
 10
12.56633858194106
 20
-2.018482776389753
 30
0.0
 10
12.56633858194106
 20
-2.018482776389753
 30
0.0
 10
12.56633858194106
 20
-2.018482776389753
 30
0.0
 10
12.13914645995381
 20
-1.064879716985958
 30
0.0
 10
12.13914645995381
 20
-1.064879716985958
 30
0.0
 10
12.13914645995381
 20
-1.064879716985958
 30
0.0
 10
12.00754372559967
 20
-0.0075792150675157
 30
0.0
 10
12.00754372559967
 20
-0.0075792150675157
 30
0.0
 10
12.00754372559967
 20
-0.0075792150675157
 30
0.0
 10
12.18668880901368
 20
1.260561269638182
 30
0.0
 10
12.18668880901368
 20
1.260561269638182
 30
0.0
 10
12.18668880901368
 20
1.260561269638182
 30
0.0
 10
12.69380719898564
 20
2.262051187877645
 30
0.0
 10
12.69380719898564
 20
2.262051187877645
 30
0.0
 10
12.69380719898564
 20
2.262051187877645
 30
0.0
 10
13.48204556600727
 20
2.938323877765524
 30
0.0
 10
13.48204556600727
 20
2.938323877765524
 30
0.0
 10
13.48204556600727
 20
2.938323877765524
 30
0.0
 10
14.50386156101871
 20
3.231501696968064
 30
0.0
 10
14.50386156101871
 20
3.231501696968064
 30
0.0
 10
14.50386156101871
 20
3.231501696968064
 30
0.0
 10
14.50386156101871
 20
3.156398565844499
 30
0.0
 10
14.50386156101871
 20
3.156398565844499
 30
0.0
 10
14.50386156101871
 20
3.156398565844499
 30
0.0
 10
14.50386156101871
 20
3.081295434720934
 30
0.0
 10
14.50386156101871
 20
3.081295434720934
 30
0.0
 10
14.50386156101871
 20
3.081295434720934
 30
0.0
 10
14.50386156101871
 20
3.006192303597369
 30
0.0
 10
14.50386156101871
 20
3.006192303597369
 30
0.0
 10
14.50386156101871
 20
3.006192303597369
 30
0.0
 10
14.50386156101871
 20
2.931433682249601
 30
0.0
 10
14.50386156101871
 20
2.931433682249601
 30
0.0
 10
14.50386156101871
 20
2.931433682249601
 30
0.0
 10
14.27717412854483
 20
2.815678397582088
 30
0.0
 10
14.27717412854483
 20
2.815678397582088
 30
0.0
 10
14.27717412854483
 20
2.815678397582088
 30
0.0
 10
14.11043139705948
 20
2.631021157755341
 30
0.0
 10
14.11043139705948
 20
2.631021157755341
 30
0.0
 10
14.11043139705948
 20
2.631021157755341
 30
0.0
 10
14.00707846432063
 20
2.384352158285285
 30
0.0
 10
14.00707846432063
 20
2.384352158285285
 30
0.0
 10
14.00707846432063
 20
2.384352158285285
 30
0.0
 10
13.97159395741363
 20
2.080494536033064
 30
0.0
 10
13.97159395741363
 20
2.080494536033064
 30
0.0
 10
13.97159395741363
 20
2.080494536033064
 30
0.0
 10
13.97159395741363
 20
1.094507557704429
 30
0.0
 10
13.97159395741363
 20
1.094507557704429
 30
0.0
 10
13.97159395741363
 20
1.094507557704429
 30
0.0
 10
13.97159395741363
 20
0.1085205793757932
 30
0.0
 10
13.97159395741363
 20
0.1085205793757932
 30
0.0
 10
13.97159395741363
 20
0.1085205793757932
 30
0.0
 10
13.97159395741363
 20
-0.8774663989528421
 30
0.0
 10
13.97159395741363
 20
-0.8774663989528421
 30
0.0
 10
13.97159395741363
 20
-0.8774663989528421
 30
0.0
 10
13.97159395741363
 20
-1.863453377281477
 30
0.0
 10
13.97159395741363
 20
-1.863453377281477
 30
0.0
 10
13.97159395741363
 20
-1.863453377281477
 30
0.0
 10
14.00707846432063
 20
-2.165932960430514
 30
0.0
 10
14.00707846432063
 20
-2.165932960430514
 30
0.0
 10
14.00707846432063
 20
-2.165932960430514
 30
0.0
 10
14.11043139705948
 20
-2.41535803810694
 30
0.0
 10
14.11043139705948
 20
-2.41535803810694
 30
0.0
 10
14.11043139705948
 20
-2.41535803810694
 30
0.0
 10
14.27717412854483
 20
-2.605182924570629
 30
0.0
 10
14.27717412854483
 20
-2.605182924570629
 30
0.0
 10
14.27717412854483
 20
-2.605182924570629
 30
0.0
 10
14.50386156101871
 20
-2.728861934081453
 30
0.0
 10
14.50386156101871
 20
-2.728861934081453
 30
0.0
 10
14.50386156101871
 20
-2.728861934081453
 30
0.0
 10
14.50386156101871
 20
-2.80465408475661
 30
0.0
 10
14.50386156101871
 20
-2.80465408475661
 30
0.0
 10
14.50386156101871
 20
-2.80465408475661
 30
0.0
 10
14.50386156101871
 20
-2.880790745207564
 30
0.0
 10
14.50386156101871
 20
-2.880790745207564
 30
0.0
 10
14.50386156101871
 20
-2.880790745207564
 30
0.0
 10
14.50386156101871
 20
-2.956927405658517
 30
0.0
 10
14.50386156101871
 20
-2.956927405658517
 30
0.0
 10
14.50386156101871
 20
-2.956927405658517
 30
0.0
 10
14.50386156101871
 20
-3.032719556333674
 30
0.0
 10
14.50386156101871
 20
-3.032719556333674
 30
0.0
 10
14.50386156101871
 20
-3.032719556333674
 30
0.0
 10
14.50386156101871
 20
-3.032719556333674
 30
0.0
 10
14.50386156101871
 20
-3.032719556333674
 30
0.0
 10
14.50386156101871
 20
-3.032719556333674
 30
0.0
 10
14.50386156101871
 20
-3.032719556333674
 30
0.0
 10
14.50386156101871
 20
-3.032719556333674
 30
0.0
 10
14.50386156101871
 20
-3.032719556333674
 30
0.0
 10
14.50386156101871
 20
-3.032719556333674
 30
0.0
 10
14.50386156101871
 20
-3.032719556333674
 30
0.0
 10
14.50386156101871
 20
-3.032719556333674
 30
0.0
 10
14.50386156101871
 20
-3.032719556333674
 30
0.0
 10
14.50386156101871
 20
-3.032719556333674
 30
0.0
 10
14.50386156101871
 20
-3.032719556333674
 30
0.0
 10
14.50386156101871
 20
-3.032719556333674
 30
0.0
 10
14.50386156101871
 20
-3.032719556333674
 30
0.0
  0
SPLINE
  5
40
330
1F
100
AcDbEntity
  8
EBENE_1
 62
   250
100
AcDbSpline
210
0.0
220
0.0
230
1.0
 70
    11
 71
     3
 72
   140
 73
   136
 74
     0
 42
0.0000000001
 43
0.0000000001
 40
0.0
 40
0.0
 40
0.0
 40
0.0
 40
1.0
 40
1.0
 40
1.0
 40
2.0
 40
2.0
 40
2.0
 40
3.0
 40
3.0
 40
3.0
 40
4.0
 40
4.0
 40
4.0
 40
5.0
 40
5.0
 40
5.0
 40
6.0
 40
6.0
 40
6.0
 40
7.0
 40
7.0
 40
7.0
 40
8.0
 40
8.0
 40
8.0
 40
9.0
 40
9.0
 40
9.0
 40
10.0
 40
10.0
 40
10.0
 40
11.0
 40
11.0
 40
11.0
 40
12.0
 40
12.0
 40
12.0
 40
13.0
 40
13.0
 40
13.0
 40
14.0
 40
14.0
 40
14.0
 40
15.0
 40
15.0
 40
15.0
 40
16.0
 40
16.0
 40
16.0
 40
17.0
 40
17.0
 40
17.0
 40
18.0
 40
18.0
 40
18.0
 40
19.0
 40
19.0
 40
19.0
 40
20.0
 40
20.0
 40
20.0
 40
21.0
 40
21.0
 40
21.0
 40
22.0
 40
22.0
 40
22.0
 40
23.0
 40
23.0
 40
23.0
 40
24.0
 40
24.0
 40
24.0
 40
25.0
 40
25.0
 40
25.0
 40
26.0
 40
26.0
 40
26.0
 40
27.0
 40
27.0
 40
27.0
 40
28.0
 40
28.0
 40
28.0
 40
29.0
 40
29.0
 40
29.0
 40
30.0
 40
30.0
 40
30.0
 40
31.0
 40
31.0
 40
31.0
 40
32.0
 40
32.0
 40
32.0
 40
33.0
 40
33.0
 40
33.0
 40
34.0
 40
34.0
 40
34.0
 40
35.0
 40
35.0
 40
35.0
 40
36.0
 40
36.0
 40
36.0
 40
37.0
 40
37.0
 40
37.0
 40
38.0
 40
38.0
 40
38.0
 40
39.0
 40
39.0
 40
39.0
 40
40.0
 40
40.0
 40
40.0
 40
41.0
 40
41.0
 40
41.0
 40
42.0
 40
42.0
 40
42.0
 40
43.0
 40
43.0
 40
43.0
 40
44.0
 40
44.0
 40
44.0
 40
45.0
 40
45.0
 40
45.0
 40
45.0
 10
16.59227982189508
 20
0.9077832592229049
 30
0.0
 10
16.59227982189508
 20
0.9077832592229049
 30
0.0
 10
16.49926218243012
 20
0.9325879630802291
 30
0.0
 10
16.49926218243012
 20
0.9325879630802291
 30
0.0
 10
16.49926218243012
 20
0.9325879630802291
 30
0.0
 10
16.43725042278681
 20
0.9925326640687624
 30
0.0
 10
16.43725042278681
 20
0.9925326640687624
 30
0.0
 10
16.43725042278681
 20
0.9925326640687624
 30
0.0
 10
16.40073238655241
 20
1.065224226761754
 30
0.0
 10
16.40073238655241
 20
1.065224226761754
 30
0.0
 10
16.40073238655241
 20
1.065224226761754
 30
0.0
 10
16.38247336843522
 20
1.127580496180861
 30
0.0
 10
16.38247336843522
 20
1.127580496180861
 30
0.0
 10
16.38247336843522
 20
1.127580496180861
 30
0.0
 10
16.27739788681739
 20
1.514809484175754
 30
0.0
 10
16.27739788681739
 20
1.514809484175754
 30
0.0
 10
16.27739788681739
 20
1.514809484175754
 30
0.0
 10
16.04829888591293
 20
2.047077087780835
 30
0.0
 10
16.04829888591293
 20
2.047077087780835
 30
0.0
 10
16.04829888591293
 20
2.047077087780835
 30
0.0
 10
15.66003636859065
 20
2.569698417663624
 30
0.0
 10
15.66003636859065
 20
2.569698417663624
 30
0.0
 10
15.66003636859065
 20
2.569698417663624
 30
0.0
 10
15.07781484749513
 20
2.928333094267435
 30
0.0
 10
15.07781484749513
 20
2.928333094267435
 30
0.0
 10
15.07781484749513
 20
2.928333094267435
 30
0.0
 10
15.07781484749513
 20
3.002402696063612
 30
0.0
 10
15.07781484749513
 20
3.002402696063612
 30
0.0
 10
15.07781484749513
 20
3.002402696063612
 30
0.0
 10
15.07781484749513
 20
3.076127788083991
 30
0.0
 10
15.07781484749513
 20
3.076127788083991
 30
0.0
 10
15.07781484749513
 20
3.076127788083991
 30
0.0
 10
15.07781484749513
 20
3.150197389880168
 30
0.0
 10
15.07781484749513
 20
3.150197389880168
 30
0.0
 10
15.07781484749513
 20
3.150197389880168
 30
0.0
 10
15.07781484749513
 20
3.224266991676344
 30
0.0
 10
15.07781484749513
 20
3.224266991676344
 30
0.0
 10
15.07781484749513
 20
3.224266991676344
 30
0.0
 10
15.19770424947219
 20
3.195328170509466
 30
0.0
 10
15.19770424947219
 20
3.195328170509466
 30
0.0
 10
15.19770424947219
 20
3.195328170509466
 30
0.0
 10
15.33068502292951
 20
3.154676016965518
 30
0.0
 10
15.33068502292951
 20
3.154676016965518
 30
0.0
 10
15.33068502292951
 20
3.154676016965518
 30
0.0
 10
15.46917795279957
 20
3.107133667905647
 30
0.0
 10
15.46917795279957
 20
3.107133667905647
 30
0.0
 10
15.46917795279957
 20
3.107133667905647
 30
0.0
 10
15.60732637289384
 20
3.056835240639406
 30
0.0
 10
15.60732637289384
 20
3.056835240639406
 30
0.0
 10
15.60732637289384
 20
3.056835240639406
 30
0.0
 10
15.76890145774224
 20
2.998613088529853
 30
0.0
 10
15.76890145774224
 20
2.998613088529853
 30
0.0
 10
15.76890145774224
 20
2.998613088529853
 30
0.0
 10
15.91497360267982
 20
2.950037210142594
 30
0.0
 10
15.91497360267982
 20
2.950037210142594
 30
0.0
 10
15.91497360267982
 20
2.950037210142594
 30
0.0
 10
16.04106418062121
 20
2.916964271666162
 30
0.0
 10
16.04106418062121
 20
2.916964271666162
 30
0.0
 10
16.04106418062121
 20
2.916964271666162
 30
0.0
 10
16.14303907425688
 20
2.9045619197375
 30
0.0
 10
16.14303907425688
 20
2.9045619197375
 30
0.0
 10
16.14303907425688
 20
2.9045619197375
 30
0.0
 10
16.25948337847598
 20
2.920064859648327
 30
0.0
 10
16.25948337847598
 20
2.920064859648327
 30
0.0
 10
16.25948337847598
 20
2.920064859648327
 30
0.0
 10
16.34561082242503
 20
2.963817601174441
 30
0.0
 10
16.34561082242503
 20
2.963817601174441
 30
0.0
 10
16.34561082242503
 20
2.963817601174441
 30
0.0
 10
16.40900062117152
 20
3.03134151723049
 30
0.0
 10
16.40900062117152
 20
3.03134151723049
 30
0.0
 10
16.40900062117152
 20
3.03134151723049
 30
0.0
 10
16.45861002888617
 20
3.119536019834309
 30
0.0
 10
16.45861002888617
 20
3.119536019834309
 30
0.0
 10
16.45861002888617
 20
3.119536019834309
 30
0.0
 10
16.49133845758681
 20
3.179825230598639
 30
0.0
 10
16.49133845758681
 20
3.179825230598639
 30
0.0
 10
16.49133845758681
 20
3.179825230598639
 30
0.0
 10
16.52268884718426
 20
3.21565424728144
 30
0.0
 10
16.52268884718426
 20
3.21565424728144
 30
0.0
 10
16.52268884718426
 20
3.21565424728144
 30
0.0
 10
16.5550727661091
 20
3.232879736071248
 30
0.0
 10
16.5550727661091
 20
3.232879736071248
 30
0.0
 10
16.5550727661091
 20
3.232879736071248
 30
0.0
 10
16.59227982189508
 20
3.237358363156599
 30
0.0
 10
16.59227982189508
 20
3.237358363156599
 30
0.0
 10
16.59227982189508
 20
3.237358363156599
 30
0.0
 10
16.63741060252438
 20
3.233913265398637
 30
0.0
 10
16.63741060252438
 20
3.233913265398637
 30
0.0
 10
16.63741060252438
 20
3.233913265398637
 30
0.0
 10
16.69253216665177
 20
3.212209149523478
 30
0.0
 10
16.69253216665177
 20
3.212209149523478
 30
0.0
 10
16.69253216665177
 20
3.212209149523478
 30
0.0
 10
16.73904098638425
 20
3.152953468086537
 30
0.0
 10
16.73904098638425
 20
3.152953468086537
 30
0.0
 10
16.73904098638425
 20
3.152953468086537
 30
0.0
 10
16.75902255338043
 20
3.037542693194821
 30
0.0
 10
16.75902255338043
 20
3.037542693194821
 30
0.0
 10
16.75902255338043
 20
3.037542693194821
 30
0.0
 10
16.75902255338043
 20
2.554884497304388
 30
0.0
 10
16.75902255338043
 20
2.554884497304388
 30
0.0
 10
16.75902255338043
 20
2.554884497304388
 30
0.0
 10
16.75902255338043
 20
2.072226301413956
 30
0.0
 10
16.75902255338043
 20
2.072226301413956
 30
0.0
 10
16.75902255338043
 20
2.072226301413956
 30
0.0
 10
16.75902255338043
 20
1.589223595747727
 30
0.0
 10
16.75902255338043
 20
1.589223595747727
 30
0.0
 10
16.75902255338043
 20
1.589223595747727
 30
0.0
 10
16.75902255338043
 20
1.106565399857294
 30
0.0
 10
16.75902255338043
 20
1.106565399857294
 30
0.0
 10
16.75902255338043
 20
1.106565399857294
 30
0.0
 10
16.73904098638425
 20
0.991499134741374
 30
0.0
 10
16.73904098638425
 20
0.991499134741374
 30
0.0
 10
16.73904098638425
 20
0.991499134741374
 30
0.0
 10
16.69253216665177
 20
0.9325879630802291
 30
0.0
 10
16.69253216665177
 20
0.9325879630802291
 30
0.0
 10
16.69253216665177
 20
0.9325879630802291
 30
0.0
 10
16.63741060252438
 20
0.9105393374292743
 30
0.0
 10
16.63741060252438
 20
0.9105393374292743
 30
0.0
 10
16.63741060252438
 20
0.9105393374292743
 30
0.0
 10
16.59227982189508
 20
0.9077832592229049
 30
0.0
 10
16.59227982189508
 20
0.9077832592229049
 30
0.0
 10
16.59227982189508
 20
0.9077832592229049
 30
0.0
 10
16.59227982189508
 20
0.9077832592229049
 30
0.0
 10
16.59227982189508
 20
0.9077832592229049
 30
0.0
 10
16.59227982189508
 20
0.9077832592229049
 30
0.0
 10
16.59227982189508
 20
0.9077832592229049
 30
0.0
 10
16.59227982189508
 20
0.9077832592229049
 30
0.0
 10
16.59227982189508
 20
0.9077832592229049
 30
0.0
 10
16.59227982189508
 20
0.9077832592229049
 30
0.0
 10
16.59227982189508
 20
0.9077832592229049
 30
0.0
 10
16.59227982189508
 20
0.9077832592229049
 30
0.0
 10
16.59227982189508
 20
0.9077832592229049
 30
0.0
 10
16.59227982189508
 20
0.9077832592229049
 30
0.0
 10
16.59227982189508
 20
0.9077832592229049
 30
0.0
 10
16.59227982189508
 20
0.9077832592229049
 30
0.0
 10
16.59227982189508
 20
0.9077832592229049
 30
0.0
  0
SPLINE
  5
41
330
1F
100
AcDbEntity
  8
EBENE_1
 62
   250
100
AcDbSpline
210
0.0
220
0.0
230
1.0
 70
    11
 71
     3
 72
   104
 73
   100
 74
     0
 42
0.0000000001
 43
0.0000000001
 40
0.0
 40
0.0
 40
0.0
 40
0.0
 40
1.0
 40
1.0
 40
1.0
 40
2.0
 40
2.0
 40
2.0
 40
3.0
 40
3.0
 40
3.0
 40
4.0
 40
4.0
 40
4.0
 40
5.0
 40
5.0
 40
5.0
 40
6.0
 40
6.0
 40
6.0
 40
7.0
 40
7.0
 40
7.0
 40
8.0
 40
8.0
 40
8.0
 40
9.0
 40
9.0
 40
9.0
 40
10.0
 40
10.0
 40
10.0
 40
11.0
 40
11.0
 40
11.0
 40
12.0
 40
12.0
 40
12.0
 40
13.0
 40
13.0
 40
13.0
 40
14.0
 40
14.0
 40
14.0
 40
15.0
 40
15.0
 40
15.0
 40
16.0
 40
16.0
 40
16.0
 40
17.0
 40
17.0
 40
17.0
 40
18.0
 40
18.0
 40
18.0
 40
19.0
 40
19.0
 40
19.0
 40
20.0
 40
20.0
 40
20.0
 40
21.0
 40
21.0
 40
21.0
 40
22.0
 40
22.0
 40
22.0
 40
23.0
 40
23.0
 40
23.0
 40
24.0
 40
24.0
 40
24.0
 40
25.0
 40
25.0
 40
25.0
 40
26.0
 40
26.0
 40
26.0
 40
27.0
 40
27.0
 40
27.0
 40
28.0
 40
28.0
 40
28.0
 40
29.0
 40
29.0
 40
29.0
 40
30.0
 40
30.0
 40
30.0
 40
31.0
 40
31.0
 40
31.0
 40
32.0
 40
32.0
 40
32.0
 40
33.0
 40
33.0
 40
33.0
 40
33.0
 10
22.18746309060066
 20
-2.912141134805015
 30
0.0
 10
22.18746309060066
 20
-2.912141134805015
 30
0.0
 10
21.75854841973443
 20
-2.912141134805015
 30
0.0
 10
21.75854841973443
 20
-2.912141134805015
 30
0.0
 10
21.75854841973443
 20
-2.912141134805015
 30
0.0
 10
21.329978258644
 20
-2.912141134805015
 30
0.0
 10
21.329978258644
 20
-2.912141134805015
 30
0.0
 10
21.329978258644
 20
-2.912141134805015
 30
0.0
 10
20.90140809755356
 20
-2.912141134805015
 30
0.0
 10
20.90140809755356
 20
-2.912141134805015
 30
0.0
 10
20.90140809755356
 20
-2.912141134805015
 30
0.0
 10
20.47283793646313
 20
-2.912141134805015
 30
0.0
 10
20.47283793646313
 20
-2.912141134805015
 30
0.0
 10
20.47283793646313
 20
-2.912141134805015
 30
0.0
 10
20.47283793646313
 20
-2.837727023233043
 30
0.0
 10
20.47283793646313
 20
-2.837727023233043
 30
0.0
 10
20.47283793646313
 20
-2.837727023233043
 30
0.0
 10
20.47283793646313
 20
-2.763657421436867
 30
0.0
 10
20.47283793646313
 20
-2.763657421436867
 30
0.0
 10
20.47283793646313
 20
-2.763657421436867
 30
0.0
 10
20.47283793646313
 20
-2.68958781964069
 30
0.0
 10
20.47283793646313
 20
-2.68958781964069
 30
0.0
 10
20.47283793646313
 20
-2.68958781964069
 30
0.0
 10
20.47283793646313
 20
-2.615173708068718
 30
0.0
 10
20.47283793646313
 20
-2.615173708068718
 30
0.0
 10
20.47283793646313
 20
-2.615173708068718
 30
0.0
 10
20.93792613378796
 20
-2.466000975148976
 30
0.0
 10
20.93792613378796
 20
-2.466000975148976
 30
0.0
 10
20.93792613378796
 20
-2.466000975148976
 30
0.0
 10
21.33755747371151
 20
-2.197627859803761
 30
0.0
 10
21.33755747371151
 20
-2.197627859803761
 30
0.0
 10
21.33755747371151
 20
-2.197627859803761
 30
0.0
 10
21.65760705542615
 20
-1.822456713961733
 30
0.0
 10
21.65760705542615
 20
-1.822456713961733
 30
0.0
 10
21.65760705542615
 20
-1.822456713961733
 30
0.0
 10
21.88222742924526
 20
-1.353923418878944
 30
0.0
 10
21.88222742924526
 20
-1.353923418878944
 30
0.0
 10
21.88222742924526
 20
-1.353923418878944
 30
0.0
 10
21.92563566099557
 20
-1.265384406499328
 30
0.0
 10
21.92563566099557
 20
-1.265384406499328
 30
0.0
 10
21.92563566099557
 20
-1.265384406499328
 30
0.0
 10
21.96249820700577
 20
-1.206817744613979
 30
0.0
 10
21.96249820700577
 20
-1.206817744613979
 30
0.0
 10
21.96249820700577
 20
-1.206817744613979
 30
0.0
 10
22.00004977256755
 20
-1.17443382568914
 30
0.0
 10
22.00004977256755
 20
-1.17443382568914
 30
0.0
 10
22.00004977256755
 20
-1.17443382568914
 30
0.0
 10
22.04518055319684
 20
-1.164098532415255
 30
0.0
 10
22.04518055319684
 20
-1.164098532415255
 30
0.0
 10
22.04518055319684
 20
-1.164098532415255
 30
0.0
 10
22.07963153077646
 20
-1.166510100845828
 30
0.0
 10
22.07963153077646
 20
-1.166510100845828
 30
0.0
 10
22.07963153077646
 20
-1.166510100845828
 30
0.0
 10
22.10925937149493
 20
-1.173055786585955
 30
0.0
 10
22.10925937149493
 20
-1.173055786585955
 30
0.0
 10
22.10925937149493
 20
-1.173055786585955
 30
0.0
 10
22.13337505580066
 20
-1.18339107985984
 30
0.0
 10
22.13337505580066
 20
-1.18339107985984
 30
0.0
 10
22.13337505580066
 20
-1.18339107985984
 30
0.0
 10
22.15232309346945
 20
-1.197860490443279
 30
0.0
 10
22.15232309346945
 20
-1.197860490443279
 30
0.0
 10
22.15232309346945
 20
-1.197860490443279
 30
0.0
 10
22.17402720934461
 20
-1.232311468022896
 30
0.0
 10
22.17402720934461
 20
-1.232311468022896
 30
0.0
 10
22.17402720934461
 20
-1.232311468022896
 30
0.0
 10
22.1843625026185
 20
-1.272274602015252
 30
0.0
 10
22.1843625026185
 20
-1.272274602015252
 30
0.0
 10
22.1843625026185
 20
-1.272274602015252
 30
0.0
 10
22.18780760037646
 20
-1.309826167577034
 30
0.0
 10
22.18780760037646
 20
-1.309826167577034
 30
0.0
 10
22.18780760037646
 20
-1.309826167577034
 30
0.0
 10
22.18746309060066
 20
-1.336697930089135
 30
0.0
 10
22.18746309060066
 20
-1.336697930089135
 30
0.0
 10
22.18746309060066
 20
-1.336697930089135
 30
0.0
 10
22.18746309060066
 20
-1.730472603824156
 30
0.0
 10
22.18746309060066
 20
-1.730472603824156
 30
0.0
 10
22.18746309060066
 20
-1.730472603824156
 30
0.0
 10
22.18746309060066
 20
-2.124247277559177
 30
0.0
 10
22.18746309060066
 20
-2.124247277559177
 30
0.0
 10
22.18746309060066
 20
-2.124247277559177
 30
0.0
 10
22.18746309060066
 20
-2.518021951294198
 30
0.0
 10
22.18746309060066
 20
-2.518021951294198
 30
0.0
 10
22.18746309060066
 20
-2.518021951294198
 30
0.0
 10
22.18746309060066
 20
-2.912141134805015
 30
0.0
 10
22.18746309060066
 20
-2.912141134805015
 30
0.0
 10
22.18746309060066
 20
-2.912141134805015
 30
0.0
 10
22.18746309060066
 20
-2.912141134805015
 30
0.0
 10
22.18746309060066
 20
-2.912141134805015
 30
0.0
 10
22.18746309060066
 20
-2.912141134805015
 30
0.0
 10
22.18746309060066
 20
-2.912141134805015
 30
0.0
 10
22.18746309060066
 20
-2.912141134805015
 30
0.0
 10
22.18746309060066
 20
-2.912141134805015
 30
0.0
 10
22.18746309060066
 20
-2.912141134805015
 30
0.0
 10
22.18746309060066
 20
-2.912141134805015
 30
0.0
 10
22.18746309060066
 20
-2.912141134805015
 30
0.0
 10
22.18746309060066
 20
-2.912141134805015
 30
0.0
 10
22.18746309060066
 20
-2.912141134805015
 30
0.0
 10
22.18746309060066
 20
-2.912141134805015
 30
0.0
 10
22.18746309060066
 20
-2.912141134805015
 30
0.0
 10
22.18746309060066
 20
-2.912141134805015
 30
0.0
  0
SPLINE
  5
42
330
1F
100
AcDbEntity
  8
EBENE_1
 62
   250
100
AcDbSpline
210
0.0
220
0.0
230
1.0
 70
    11
 71
     3
 72
   140
 73
   136
 74
     0
 42
0.0000000001
 43
0.0000000001
 40
0.0
 40
0.0
 40
0.0
 40
0.0
 40
1.0
 40
1.0
 40
1.0
 40
2.0
 40
2.0
 40
2.0
 40
3.0
 40
3.0
 40
3.0
 40
4.0
 40
4.0
 40
4.0
 40
5.0
 40
5.0
 40
5.0
 40
6.0
 40
6.0
 40
6.0
 40
7.0
 40
7.0
 40
7.0
 40
8.0
 40
8.0
 40
8.0
 40
9.0
 40
9.0
 40
9.0
 40
10.0
 40
10.0
 40
10.0
 40
11.0
 40
11.0
 40
11.0
 40
12.0
 40
12.0
 40
12.0
 40
13.0
 40
13.0
 40
13.0
 40
14.0
 40
14.0
 40
14.0
 40
15.0
 40
15.0
 40
15.0
 40
16.0
 40
16.0
 40
16.0
 40
17.0
 40
17.0
 40
17.0
 40
18.0
 40
18.0
 40
18.0
 40
19.0
 40
19.0
 40
19.0
 40
20.0
 40
20.0
 40
20.0
 40
21.0
 40
21.0
 40
21.0
 40
22.0
 40
22.0
 40
22.0
 40
23.0
 40
23.0
 40
23.0
 40
24.0
 40
24.0
 40
24.0
 40
25.0
 40
25.0
 40
25.0
 40
26.0
 40
26.0
 40
26.0
 40
27.0
 40
27.0
 40
27.0
 40
28.0
 40
28.0
 40
28.0
 40
29.0
 40
29.0
 40
29.0
 40
30.0
 40
30.0
 40
30.0
 40
31.0
 40
31.0
 40
31.0
 40
32.0
 40
32.0
 40
32.0
 40
33.0
 40
33.0
 40
33.0
 40
34.0
 40
34.0
 40
34.0
 40
35.0
 40
35.0
 40
35.0
 40
36.0
 40
36.0
 40
36.0
 40
37.0
 40
37.0
 40
37.0
 40
38.0
 40
38.0
 40
38.0
 40
39.0
 40
39.0
 40
39.0
 40
40.0
 40
40.0
 40
40.0
 40
41.0
 40
41.0
 40
41.0
 40
42.0
 40
42.0
 40
42.0
 40
43.0
 40
43.0
 40
43.0
 40
44.0
 40
44.0
 40
44.0
 40
45.0
 40
45.0
 40
45.0
 40
45.0
 10
19.89888464998671
 20
-2.912141134805015
 30
0.0
 10
19.89888464998671
 20
-2.912141134805015
 30
0.0
 10
19.37454077122494
 20
-2.912141134805015
 30
0.0
 10
19.37454077122494
 20
-2.912141134805015
 30
0.0
 10
19.37454077122494
 20
-2.912141134805015
 30
0.0
 10
18.85019689246317
 20
-2.912141134805015
 30
0.0
 10
18.85019689246317
 20
-2.912141134805015
 30
0.0
 10
18.85019689246317
 20
-2.912141134805015
 30
0.0
 10
18.3261975234772
 20
-2.912141134805015
 30
0.0
 10
18.3261975234772
 20
-2.912141134805015
 30
0.0
 10
18.3261975234772
 20
-2.912141134805015
 30
0.0
 10
17.80219815449123
 20
-2.912141134805015
 30
0.0
 10
17.80219815449123
 20
-2.912141134805015
 30
0.0
 10
17.80219815449123
 20
-2.912141134805015
 30
0.0
 10
17.76568011825684
 20
-2.909385056598646
 30
0.0
 10
17.76568011825684
 20
-2.909385056598646
 30
0.0
 10
17.76568011825684
 20
-2.909385056598646
 30
0.0
 10
17.69471110444282
 20
-2.891470548257245
 30
0.0
 10
17.69471110444282
 20
-2.891470548257245
 30
0.0
 10
17.69471110444282
 20
-2.891470548257245
 30
0.0
 10
17.625120129732
 20
-2.844617218748966
 30
0.0
 10
17.625120129732
 20
-2.844617218748966
 30
0.0
 10
17.625120129732
 20
-2.844617218748966
 30
0.0
 10
17.59376974013455
 20
-2.754011147714574
 30
0.0
 10
17.59376974013455
 20
-2.754011147714574
 30
0.0
 10
17.59376974013455
 20
-2.754011147714574
 30
0.0
 10
17.60100444542627
 20
-2.71025840618846
 30
0.0
 10
17.60100444542627
 20
-2.71025840618846
 30
0.0
 10
17.60100444542627
 20
-2.71025840618846
 30
0.0
 10
17.62236405152563
 20
-2.674429389505659
 30
0.0
 10
17.62236405152563
 20
-2.674429389505659
 30
0.0
 10
17.62236405152563
 20
-2.674429389505659
 30
0.0
 10
17.65750404865684
 20
-2.645490568338781
 30
0.0
 10
17.65750404865684
 20
-2.645490568338781
 30
0.0
 10
17.65750404865684
 20
-2.645490568338781
 30
0.0
 10
17.70642443681989
 20
-2.62481998179101
 30
0.0
 10
17.70642443681989
 20
-2.62481998179101
 30
0.0
 10
17.70642443681989
 20
-2.62481998179101
 30
0.0
 10
17.9041730481269
 20
-2.542482145375726
 30
0.0
 10
17.9041730481269
 20
-2.542482145375726
 30
0.0
 10
17.9041730481269
 20
-2.542482145375726
 30
0.0
 10
18.01028205907211
 20
-2.441885290843245
 30
0.0
 10
18.01028205907211
 20
-2.441885290843245
 30
0.0
 10
18.01028205907211
 20
-2.441885290843245
 30
0.0
 10
18.05231225171925
 20
-2.302703341421592
 30
0.0
 10
18.05231225171925
 20
-2.302703341421592
 30
0.0
 10
18.05231225171925
 20
-2.302703341421592
 30
0.0
 10
18.05989146678676
 20
-2.10598825944198
 30
0.0
 10
18.05989146678676
 20
-2.10598825944198
 30
0.0
 10
18.05989146678676
 20
-2.10598825944198
 30
0.0
 10
18.05989146678676
 20
-1.009413643082775
 30
0.0
 10
18.05989146678676
 20
-1.009413643082775
 30
0.0
 10
18.05989146678676
 20
-1.009413643082775
 30
0.0
 10
18.05989146678676
 20
0.0871609732764307
 30
0.0
 10
18.05989146678676
 20
0.0871609732764307
 30
0.0
 10
18.05989146678676
 20
0.0871609732764307
 30
0.0
 10
18.05989146678676
 20
1.183735589635636
 30
0.0
 10
18.05989146678676
 20
1.183735589635636
 30
0.0
 10
18.05989146678676
 20
1.183735589635636
 30
0.0
 10
18.05989146678676
 20
2.280310205994842
 30
0.0
 10
18.05989146678676
 20
2.280310205994842
 30
0.0
 10
18.05989146678676
 20
2.280310205994842
 30
0.0
 10
18.05265676149504
 20
2.494939796315855
 30
0.0
 10
18.05265676149504
 20
2.494939796315855
 30
0.0
 10
18.05265676149504
 20
2.494939796315855
 30
0.0
 10
18.01097107862371
 20
2.641011941253431
 30
0.0
 10
18.01097107862371
 20
2.641011941253431
 30
0.0
 10
18.01097107862371
 20
2.641011941253431
 30
0.0
 10
17.90520657745428
 20
2.743331344664893
 30
0.0
 10
17.90520657745428
 20
2.743331344664893
 30
0.0
 10
17.90520657745428
 20
2.743331344664893
 30
0.0
 10
17.70711345637149
 20
2.825324671304381
 30
0.0
 10
17.70711345637149
 20
2.825324671304381
 30
0.0
 10
17.70711345637149
 20
2.825324671304381
 30
0.0
 10
17.64165659897021
 20
2.856675060901832
 30
0.0
 10
17.64165659897021
 20
2.856675060901832
 30
0.0
 10
17.64165659897021
 20
2.856675060901832
 30
0.0
 10
17.60789464094219
 20
2.893882116687818
 30
0.0
 10
17.60789464094219
 20
2.893882116687818
 30
0.0
 10
17.60789464094219
 20
2.893882116687818
 30
0.0
 10
17.59549228901353
 20
2.929022113819027
 30
0.0
 10
17.59549228901353
 20
2.929022113819027
 30
0.0
 10
17.59549228901353
 20
2.929022113819027
 30
0.0
 10
17.59376974013455
 20
2.954171327452148
 30
0.0
 10
17.59376974013455
 20
2.954171327452148
 30
0.0
 10
17.59376974013455
 20
2.954171327452148
 30
0.0
 10
17.625120129732
 20
3.045121908262336
 30
0.0
 10
17.625120129732
 20
3.045121908262336
 30
0.0
 10
17.625120129732
 20
3.045121908262336
 30
0.0
 10
17.69471110444282
 20
3.091975237770615
 30
0.0
 10
17.69471110444282
 20
3.091975237770615
 30
0.0
 10
17.69471110444282
 20
3.091975237770615
 30
0.0
 10
17.76568011825684
 20
3.109889746112016
 30
0.0
 10
17.76568011825684
 20
3.109889746112016
 30
0.0
 10
17.76568011825684
 20
3.109889746112016
 30
0.0
 10
17.80219815449123
 20
3.112645824318386
 30
0.0
 10
17.80219815449123
 20
3.112645824318386
 30
0.0
 10
17.80219815449123
 20
3.112645824318386
 30
0.0
 10
18.3261975234772
 20
3.112645824318386
 30
0.0
 10
18.3261975234772
 20
3.112645824318386
 30
0.0
 10
18.3261975234772
 20
3.112645824318386
 30
0.0
 10
18.85019689246317
 20
3.112645824318386
 30
0.0
 10
18.85019689246317
 20
3.112645824318386
 30
0.0
 10
18.85019689246317
 20
3.112645824318386
 30
0.0
 10
19.37454077122494
 20
3.112645824318386
 30
0.0
 10
19.37454077122494
 20
3.112645824318386
 30
0.0
 10
19.37454077122494
 20
3.112645824318386
 30
0.0
 10
19.89888464998671
 20
3.112645824318386
 30
0.0
 10
19.89888464998671
 20
3.112645824318386
 30
0.0
 10
19.89888464998671
 20
3.112645824318386
 30
0.0
 10
19.89888464998671
 20
1.606449084537535
 30
0.0
 10
19.89888464998671
 20
1.606449084537535
 30
0.0
 10
19.89888464998671
 20
1.606449084537535
 30
0.0
 10
19.89888464998671
 20
0.1002523447566851
 30
0.0
 10
19.89888464998671
 20
0.1002523447566851
 30
0.0
 10
19.89888464998671
 20
0.1002523447566851
 30
0.0
 10
19.89888464998671
 20
-1.405944395024165
 30
0.0
 10
19.89888464998671
 20
-1.405944395024165
 30
0.0
 10
19.89888464998671
 20
-1.405944395024165
 30
0.0
 10
19.89888464998671
 20
-2.912141134805015
 30
0.0
 10
19.89888464998671
 20
-2.912141134805015
 30
0.0
 10
19.89888464998671
 20
-2.912141134805015
 30
0.0
 10
19.89888464998671
 20
-2.912141134805015
 30
0.0
 10
19.89888464998671
 20
-2.912141134805015
 30
0.0
 10
19.89888464998671
 20
-2.912141134805015
 30
0.0
 10
19.89888464998671
 20
-2.912141134805015
 30
0.0
 10
19.89888464998671
 20
-2.912141134805015
 30
0.0
 10
19.89888464998671
 20
-2.912141134805015
 30
0.0
 10
19.89888464998671
 20
-2.912141134805015
 30
0.0
 10
19.89888464998671
 20
-2.912141134805015
 30
0.0
 10
19.89888464998671
 20
-2.912141134805015
 30
0.0
 10
19.89888464998671
 20
-2.912141134805015
 30
0.0
 10
19.89888464998671
 20
-2.912141134805015
 30
0.0
 10
19.89888464998671
 20
-2.912141134805015
 30
0.0
 10
19.89888464998671
 20
-2.912141134805015
 30
0.0
 10
19.89888464998671
 20
-2.912141134805015
 30
0.0
  0
SPLINE
  5
43
330
1F
100
AcDbEntity
  8
EBENE_1
 62
   250
100
AcDbSpline
210
0.0
220
0.0
230
1.0
 70
    11
 71
     3
 72
   140
 73
   136
 74
     0
 42
0.0000000001
 43
0.0000000001
 40
0.0
 40
0.0
 40
0.0
 40
0.0
 40
1.0
 40
1.0
 40
1.0
 40
2.0
 40
2.0
 40
2.0
 40
3.0
 40
3.0
 40
3.0
 40
4.0
 40
4.0
 40
4.0
 40
5.0
 40
5.0
 40
5.0
 40
6.0
 40
6.0
 40
6.0
 40
7.0
 40
7.0
 40
7.0
 40
8.0
 40
8.0
 40
8.0
 40
9.0
 40
9.0
 40
9.0
 40
10.0
 40
10.0
 40
10.0
 40
11.0
 40
11.0
 40
11.0
 40
12.0
 40
12.0
 40
12.0
 40
13.0
 40
13.0
 40
13.0
 40
14.0
 40
14.0
 40
14.0
 40
15.0
 40
15.0
 40
15.0
 40
16.0
 40
16.0
 40
16.0
 40
17.0
 40
17.0
 40
17.0
 40
18.0
 40
18.0
 40
18.0
 40
19.0
 40
19.0
 40
19.0
 40
20.0
 40
20.0
 40
20.0
 40
21.0
 40
21.0
 40
21.0
 40
22.0
 40
22.0
 40
22.0
 40
23.0
 40
23.0
 40
23.0
 40
24.0
 40
24.0
 40
24.0
 40
25.0
 40
25.0
 40
25.0
 40
26.0
 40
26.0
 40
26.0
 40
27.0
 40
27.0
 40
27.0
 40
28.0
 40
28.0
 40
28.0
 40
29.0
 40
29.0
 40
29.0
 40
30.0
 40
30.0
 40
30.0
 40
31.0
 40
31.0
 40
31.0
 40
32.0
 40
32.0
 40
32.0
 40
33.0
 40
33.0
 40
33.0
 40
34.0
 40
34.0
 40
34.0
 40
35.0
 40
35.0
 40
35.0
 40
36.0
 40
36.0
 40
36.0
 40
37.0
 40
37.0
 40
37.0
 40
38.0
 40
38.0
 40
38.0
 40
39.0
 40
39.0
 40
39.0
 40
40.0
 40
40.0
 40
40.0
 40
41.0
 40
41.0
 40
41.0
 40
42.0
 40
42.0
 40
42.0
 40
43.0
 40
43.0
 40
43.0
 40
44.0
 40
44.0
 40
44.0
 40
45.0
 40
45.0
 40
45.0
 40
45.0
 10
21.221802189044
 20
-0.9897765858623931
 30
0.0
 10
21.221802189044
 20
-0.9897765858623931
 30
0.0
 10
21.16461356626184
 20
-0.9808193316916927
 30
0.0
 10
21.16461356626184
 20
-0.9808193316916927
 30
0.0
 10
21.16461356626184
 20
-0.9808193316916927
 30
0.0
 10
21.12154984428732
 20
-0.948779922542649
 30
0.0
 10
21.12154984428732
 20
-0.948779922542649
 30
0.0
 10
21.12154984428732
 20
-0.948779922542649
 30
0.0
 10
21.08606533738031
 20
-0.8867681628993386
 30
0.0
 10
21.08606533738031
 20
-0.8867681628993386
 30
0.0
 10
21.08606533738031
 20
-0.8867681628993386
 30
0.0
 10
21.05161435980069
 20
-0.7872048376942458
 30
0.0
 10
21.05161435980069
 20
-0.7872048376942458
 30
0.0
 10
21.05161435980069
 20
-0.7872048376942458
 30
0.0
 10
20.9606637789905
 20
-0.5078074095235529
 30
0.0
 10
20.9606637789905
 20
-0.5078074095235529
 30
0.0
 10
20.9606637789905
 20
-0.5078074095235529
 30
0.0
 10
20.83388418149751
 20
-0.2842205650318393
 30
0.0
 10
20.83388418149751
 20
-0.2842205650318393
 30
0.0
 10
20.83388418149751
 20
-0.2842205650318393
 30
0.0
 10
20.67058654777013
 20
-0.1174778335464936
 30
0.0
 10
20.67058654777013
 20
-0.1174778335464936
 30
0.0
 10
20.67058654777013
 20
-0.1174778335464936
 30
0.0
 10
20.47283793646313
 20
-0.0093017639464966
 30
0.0
 10
20.47283793646313
 20
-0.0093017639464966
 30
0.0
 10
20.47283793646313
 20
-0.0093017639464966
 30
0.0
 10
20.47283793646313
 20
0.0830268559668767
 30
0.0
 10
20.47283793646313
 20
0.0830268559668767
 30
0.0
 10
20.47283793646313
 20
0.0830268559668767
 30
0.0
 10
20.47283793646313
 20
0.1753554758802499
 30
0.0
 10
20.47283793646313
 20
0.1753554758802499
 30
0.0
 10
20.47283793646313
 20
0.1753554758802499
 30
0.0
 10
20.47283793646313
 20
0.2676840957936232
 30
0.0
 10
20.47283793646313
 20
0.2676840957936232
 30
0.0
 10
20.47283793646313
 20
0.2676840957936232
 30
0.0
 10
20.47283793646313
 20
0.3600127157069964
 30
0.0
 10
20.47283793646313
 20
0.3600127157069964
 30
0.0
 10
20.47283793646313
 20
0.3600127157069964
 30
0.0
 10
20.67058654777013
 20
0.4681887853069935
 30
0.0
 10
20.67058654777013
 20
0.4681887853069935
 30
0.0
 10
20.67058654777013
 20
0.4681887853069935
 30
0.0
 10
20.83388418149751
 20
0.6352760265681353
 30
0.0
 10
20.83388418149751
 20
0.6352760265681353
 30
0.0
 10
20.83388418149751
 20
0.6352760265681353
 30
0.0
 10
20.9610082887663
 20
0.8602409101630336
 30
0.0
 10
20.9610082887663
 20
0.8602409101630336
 30
0.0
 10
20.9610082887663
 20
0.8602409101630336
 30
0.0
 10
21.05230337935228
 20
1.142394416540096
 30
0.0
 10
21.05230337935228
 20
1.142394416540096
 30
0.0
 10
21.05230337935228
 20
1.142394416540096
 30
0.0
 10
21.08606533738031
 20
1.238857153763023
 30
0.0
 10
21.08606533738031
 20
1.238857153763023
 30
0.0
 10
21.08606533738031
 20
1.238857153763023
 30
0.0
 10
21.12154984428732
 20
1.299490874303149
 30
0.0
 10
21.12154984428732
 20
1.299490874303149
 30
0.0
 10
21.12154984428732
 20
1.299490874303149
 30
0.0
 10
21.16461356626184
 20
1.3308412639006
 30
0.0
 10
21.16461356626184
 20
1.3308412639006
 30
0.0
 10
21.16461356626184
 20
1.3308412639006
 30
0.0
 10
21.221802189044
 20
1.339798518071301
 30
0.0
 10
21.221802189044
 20
1.339798518071301
 30
0.0
 10
21.221802189044
 20
1.339798518071301
 30
0.0
 10
21.25659767639942
 20
1.336697930089135
 30
0.0
 10
21.25659767639942
 20
1.336697930089135
 30
0.0
 10
21.25659767639942
 20
1.336697930089135
 30
0.0
 10
21.27967983137776
 20
1.329463224797416
 30
0.0
 10
21.27967983137776
 20
1.329463224797416
 30
0.0
 10
21.27967983137776
 20
1.329463224797416
 30
0.0
 10
21.2941492419612
 20
1.320505970626715
 30
0.0
 10
21.2941492419612
 20
1.320505970626715
 30
0.0
 10
21.2941492419612
 20
1.320505970626715
 30
0.0
 10
21.30172845702871
 20
1.313960284886588
 30
0.0
 10
21.30172845702871
 20
1.313960284886588
 30
0.0
 10
21.30172845702871
 20
1.313960284886588
 30
0.0
 10
21.32653316088604
 20
1.268140484705698
 30
0.0
 10
21.32653316088604
 20
1.268140484705698
 30
0.0
 10
21.32653316088604
 20
1.268140484705698
 30
0.0
 10
21.33824649326311
 20
1.209229313044553
 30
0.0
 10
21.33824649326311
 20
1.209229313044553
 30
0.0
 10
21.33824649326311
 20
1.209229313044553
 30
0.0
 10
21.34031355191788
 20
1.150318141383408
 30
0.0
 10
21.34031355191788
 20
1.150318141383408
 30
0.0
 10
21.34031355191788
 20
1.150318141383408
 30
0.0
 10
21.3389355128147
 20
1.103464811875129
 30
0.0
 10
21.3389355128147
 20
1.103464811875129
 30
0.0
 10
21.3389355128147
 20
1.103464811875129
 30
0.0
 10
21.3389355128147
 20
0.6466448491694089
 30
0.0
 10
21.3389355128147
 20
0.6466448491694089
 30
0.0
 10
21.3389355128147
 20
0.6466448491694089
 30
0.0
 10
21.3389355128147
 20
0.1901693962394852
 30
0.0
 10
21.3389355128147
 20
0.1901693962394852
 30
0.0
 10
21.3389355128147
 20
0.1901693962394852
 30
0.0
 10
21.3385910030389
 20
-0.2663060566904385
 30
0.0
 10
21.3385910030389
 20
-0.2663060566904385
 30
0.0
 10
21.3385910030389
 20
-0.2663060566904385
 30
0.0
 10
21.33824649326311
 20
-0.7231260193961584
 30
0.0
 10
21.33824649326311
 20
-0.7231260193961584
 30
0.0
 10
21.33824649326311
 20
-0.7231260193961584
 30
0.0
 10
21.34031355191788
 20
-0.787549347470042
 30
0.0
 10
21.34031355191788
 20
-0.787549347470042
 30
0.0
 10
21.34031355191788
 20
-0.787549347470042
 30
0.0
 10
21.33790198348731
 20
-0.8554177733018873
 30
0.0
 10
21.33790198348731
 20
-0.8554177733018873
 30
0.0
 10
21.33790198348731
 20
-0.8554177733018873
 30
0.0
 10
21.32653316088604
 20
-0.9174295329451977
 30
0.0
 10
21.32653316088604
 20
-0.9174295329451977
 30
0.0
 10
21.32653316088604
 20
-0.9174295329451977
 30
0.0
 10
21.30172845702871
 20
-0.9635938429018842
 30
0.0
 10
21.30172845702871
 20
-0.9635938429018842
 30
0.0
 10
21.30172845702871
 20
-0.9635938429018842
 30
0.0
 10
21.2941492419612
 20
-0.9704840384178076
 30
0.0
 10
21.2941492419612
 20
-0.9704840384178076
 30
0.0
 10
21.2941492419612
 20
-0.9704840384178076
 30
0.0
 10
21.27967983137776
 20
-0.979441292588508
 30
0.0
 10
21.27967983137776
 20
-0.979441292588508
 30
0.0
 10
21.27967983137776
 20
-0.979441292588508
 30
0.0
 10
21.25659767639942
 20
-0.9866759978802275
 30
0.0
 10
21.25659767639942
 20
-0.9866759978802275
 30
0.0
 10
21.25659767639942
 20
-0.9866759978802275
 30
0.0
 10
21.221802189044
 20
-0.9897765858623931
 30
0.0
 10
21.221802189044
 20
-0.9897765858623931
 30
0.0
 10
21.221802189044
 20
-0.9897765858623931
 30
0.0
 10
21.221802189044
 20
-0.9897765858623931
 30
0.0
 10
21.221802189044
 20
-0.9897765858623931
 30
0.0
 10
21.221802189044
 20
-0.9897765858623931
 30
0.0
 10
21.221802189044
 20
-0.9897765858623931
 30
0.0
 10
21.221802189044
 20
-0.9897765858623931
 30
0.0
 10
21.221802189044
 20
-0.9897765858623931
 30
0.0
 10
21.221802189044
 20
-0.9897765858623931
 30
0.0
 10
21.221802189044
 20
-0.9897765858623931
 30
0.0
 10
21.221802189044
 20
-0.9897765858623931
 30
0.0
 10
21.221802189044
 20
-0.9897765858623931
 30
0.0
 10
21.221802189044
 20
-0.9897765858623931
 30
0.0
 10
21.221802189044
 20
-0.9897765858623931
 30
0.0
 10
21.221802189044
 20
-0.9897765858623931
 30
0.0
 10
21.221802189044
 20
-0.9897765858623931
 30
0.0
  0
SPLINE
  5
44
330
1F
100
AcDbEntity
  8
EBENE_1
 62
   250
100
AcDbSpline
210
0.0
220
0.0
230
1.0
 70
    11
 71
     3
 72
    92
 73
    88
 74
     0
 42
0.0000000001
 43
0.0000000001
 40
0.0
 40
0.0
 40
0.0
 40
0.0
 40
1.0
 40
1.0
 40
1.0
 40
2.0
 40
2.0
 40
2.0
 40
3.0
 40
3.0
 40
3.0
 40
4.0
 40
4.0
 40
4.0
 40
5.0
 40
5.0
 40
5.0
 40
6.0
 40
6.0
 40
6.0
 40
7.0
 40
7.0
 40
7.0
 40
8.0
 40
8.0
 40
8.0
 40
9.0
 40
9.0
 40
9.0
 40
10.0
 40
10.0
 40
10.0
 40
11.0
 40
11.0
 40
11.0
 40
12.0
 40
12.0
 40
12.0
 40
13.0
 40
13.0
 40
13.0
 40
14.0
 40
14.0
 40
14.0
 40
15.0
 40
15.0
 40
15.0
 40
16.0
 40
16.0
 40
16.0
 40
17.0
 40
17.0
 40
17.0
 40
18.0
 40
18.0
 40
18.0
 40
19.0
 40
19.0
 40
19.0
 40
20.0
 40
20.0
 40
20.0
 40
21.0
 40
21.0
 40
21.0
 40
22.0
 40
22.0
 40
22.0
 40
23.0
 40
23.0
 40
23.0
 40
24.0
 40
24.0
 40
24.0
 40
25.0
 40
25.0
 40
25.0
 40
26.0
 40
26.0
 40
26.0
 40
27.0
 40
27.0
 40
27.0
 40
28.0
 40
28.0
 40
28.0
 40
29.0
 40
29.0
 40
29.0
 40
29.0
 10
21.97076644162487
 20
1.423169883813973
 30
0.0
 10
21.97076644162487
 20
1.423169883813973
 30
0.0
 10
21.92804722942615
 20
1.427304001123528
 30
0.0
 10
21.92804722942615
 20
1.427304001123528
 30
0.0
 10
21.92804722942615
 20
1.427304001123528
 30
0.0
 10
21.8963523300529
 20
1.445907529016521
 30
0.0
 10
21.8963523300529
 20
1.445907529016521
 30
0.0
 10
21.8963523300529
 20
1.445907529016521
 30
0.0
 10
21.8694805675408
 20
1.487937721663653
 30
0.0
 10
21.8694805675408
 20
1.487937721663653
 30
0.0
 10
21.8694805675408
 20
1.487937721663653
 30
0.0
 10
21.84054174637392
 20
1.563040852787218
 30
0.0
 10
21.84054174637392
 20
1.563040852787218
 30
0.0
 10
21.84054174637392
 20
1.563040852787218
 30
0.0
 10
21.62901274403507
 20
2.03674179450695
 30
0.0
 10
21.62901274403507
 20
2.03674179450695
 30
0.0
 10
21.62901274403507
 20
2.03674179450695
 30
0.0
 10
21.33204531729877
 20
2.401577647075093
 30
0.0
 10
21.33204531729877
 20
2.401577647075093
 30
0.0
 10
21.33204531729877
 20
2.401577647075093
 30
0.0
 10
20.94757240751025
 20
2.659615469146424
 30
0.0
 10
20.94757240751025
 20
2.659615469146424
 30
0.0
 10
20.94757240751025
 20
2.659615469146424
 30
0.0
 10
20.47283793646313
 20
2.812922319375719
 30
0.0
 10
20.47283793646313
 20
2.812922319375719
 30
0.0
 10
20.47283793646313
 20
2.812922319375719
 30
0.0
 10
20.47283793646313
 20
2.888025450499283
 30
0.0
 10
20.47283793646313
 20
2.888025450499283
 30
0.0
 10
20.47283793646313
 20
2.888025450499283
 30
0.0
 10
20.47283793646313
 20
2.962784071847052
 30
0.0
 10
20.47283793646313
 20
2.962784071847052
 30
0.0
 10
20.47283793646313
 20
2.962784071847052
 30
0.0
 10
20.47283793646313
 20
3.037542693194821
 30
0.0
 10
20.47283793646313
 20
3.037542693194821
 30
0.0
 10
20.47283793646313
 20
3.037542693194821
 30
0.0
 10
20.47283793646313
 20
3.112645824318386
 30
0.0
 10
20.47283793646313
 20
3.112645824318386
 30
0.0
 10
20.47283793646313
 20
3.112645824318386
 30
0.0
 10
20.88693868697013
 20
3.112645824318386
 30
0.0
 10
20.88693868697013
 20
3.112645824318386
 30
0.0
 10
20.88693868697013
 20
3.112645824318386
 30
0.0
 10
21.30069492770132
 20
3.112645824318386
 30
0.0
 10
21.30069492770132
 20
3.112645824318386
 30
0.0
 10
21.30069492770132
 20
3.112645824318386
 30
0.0
 10
21.71445116843252
 20
3.112645824318386
 30
0.0
 10
21.71445116843252
 20
3.112645824318386
 30
0.0
 10
21.71445116843252
 20
3.112645824318386
 30
0.0
 10
22.12855191893952
 20
3.112645824318386
 30
0.0
 10
22.12855191893952
 20
3.112645824318386
 30
0.0
 10
22.12855191893952
 20
3.112645824318386
 30
0.0
 10
22.12855191893952
 20
2.715081543049607
 30
0.0
 10
22.12855191893952
 20
2.715081543049607
 30
0.0
 10
22.12855191893952
 20
2.715081543049607
 30
0.0
 10
22.12855191893952
 20
2.317861771556624
 30
0.0
 10
22.12855191893952
 20
2.317861771556624
 30
0.0
 10
22.12855191893952
 20
2.317861771556624
 30
0.0
 10
22.12855191893952
 20
1.920642000063641
 30
0.0
 10
22.12855191893952
 20
1.920642000063641
 30
0.0
 10
22.12855191893952
 20
1.920642000063641
 30
0.0
 10
22.12855191893952
 20
1.523077718794863
 30
0.0
 10
22.12855191893952
 20
1.523077718794863
 30
0.0
 10
22.12855191893952
 20
1.523077718794863
 30
0.0
 10
22.12614035050894
 20
1.494827917179577
 30
0.0
 10
22.12614035050894
 20
1.494827917179577
 30
0.0
 10
22.12614035050894
 20
1.494827917179577
 30
0.0
 10
22.10857035194334
 20
1.461754978703145
 30
0.0
 10
22.10857035194334
 20
1.461754978703145
 30
0.0
 10
22.10857035194334
 20
1.461754978703145
 30
0.0
 10
22.06171702243506
 20
1.434538706415247
 30
0.0
 10
22.06171702243506
 20
1.434538706415247
 30
0.0
 10
22.06171702243506
 20
1.434538706415247
 30
0.0
 10
21.97076644162487
 20
1.423169883813973
 30
0.0
 10
21.97076644162487
 20
1.423169883813973
 30
0.0
 10
21.97076644162487
 20
1.423169883813973
 30
0.0
 10
21.97076644162487
 20
1.423169883813973
 30
0.0
 10
21.97076644162487
 20
1.423169883813973
 30
0.0
 10
21.97076644162487
 20
1.423169883813973
 30
0.0
 10
21.97076644162487
 20
1.423169883813973
 30
0.0
 10
21.97076644162487
 20
1.423169883813973
 30
0.0
 10
21.97076644162487
 20
1.423169883813973
 30
0.0
 10
21.97076644162487
 20
1.423169883813973
 30
0.0
 10
21.97076644162487
 20
1.423169883813973
 30
0.0
 10
21.97076644162487
 20
1.423169883813973
 30
0.0
 10
21.97076644162487
 20
1.423169883813973
 30
0.0
 10
21.97076644162487
 20
1.423169883813973
 30
0.0
 10
21.97076644162487
 20
1.423169883813973
 30
0.0
 10
21.97076644162487
 20
1.423169883813973
 30
0.0
 10
21.97076644162487
 20
1.423169883813973
 30
0.0
  0
POLYLINE
  5
45
330
1F
100
AcDbEntity
  8
EBENE_1
 62
   250
100
AcDb2dPolyline
 66
     1
 10
0.0
 20
0.0
 30
0.0
  0
VERTEX
  5
46
330
45
100
AcDbEntity
  8
EBENE_1
 62
   250
100
AcDbVertex
100
AcDb2dVertex
 10
-5.339901524840617
 20
-0.0912950905859847
 30
0.0
  0
VERTEX
  5
47
330
45
100
AcDbEntity
  8
EBENE_1
 62
   250
100
AcDbVertex
100
AcDb2dVertex
 10
-5.110285759272471
 20
-0.0961182274471311
 30
0.0
  0
VERTEX
  5
48
330
45
100
AcDbEntity
  8
EBENE_1
 62
   250
100
AcDbVertex
100
AcDb2dVertex
 10
-5.110458014160368
 20
-0.0895725417070039
 30
0.0
  0
VERTEX
  5
49
330
45
100
AcDbEntity
  8
EBENE_1
 62
   250
100
AcDbVertex
100
AcDb2dVertex
 10
-5.110458014160368
 20
-0.0830268559668767
 30
0.0
  0
VERTEX
  5
4A
330
45
100
AcDbEntity
  8
EBENE_1
 62
   250
100
AcDbVertex
100
AcDb2dVertex
 10
-5.110630269048267
 20
-0.0768256800025457
 30
0.0
  0
VERTEX
  5
4B
330
45
100
AcDbEntity
  8
EBENE_1
 62
   250
100
AcDbVertex
100
AcDb2dVertex
 10
-5.110802523936165
 20
-0.0702799942624184
 30
0.0
  0
VERTEX
  5
4C
330
45
100
AcDbEntity
  8
EBENE_1
 62
   250
100
AcDbVertex
100
AcDb2dVertex
 10
-5.110802523936165
 20
-0.0637343085222912
 30
0.0
  0
VERTEX
  5
4D
330
45
100
AcDbEntity
  8
EBENE_1
 62
   250
100
AcDbVertex
100
AcDb2dVertex
 10
-5.110802523936165
 20
-0.0575331325579602
 30
0.0
  0
VERTEX
  5
4E
330
45
100
AcDbEntity
  8
EBENE_1
 62
   250
100
AcDbVertex
100
AcDb2dVertex
 10
-5.110802523936165
 20
-0.050987446817833
 30
0.0
  0
VERTEX
  5
4F
330
45
100
AcDbEntity
  8
EBENE_1
 62
   250
100
AcDbVertex
100
AcDb2dVertex
 10
-5.110802523936165
 20
-0.0444417610777058
 30
0.0
  0
VERTEX
  5
50
330
45
100
AcDbEntity
  8
EBENE_1
 62
   250
100
AcDbVertex
100
AcDb2dVertex
 10
-5.110974778824063
 20
-0.0382405851133747
 30
0.0
  0
VERTEX
  5
51
330
45
100
AcDbEntity
  8
EBENE_1
 62
   250
100
AcDbVertex
100
AcDb2dVertex
 10
-5.111147033711961
 20
-0.0320394091490437
 30
0.0
  0
VERTEX
  5
52
330
45
100
AcDbEntity
  8
EBENE_1
 62
   250
100
AcDbVertex
100
AcDb2dVertex
 10
-5.111147033711961
 20
-0.0254937234089165
 30
0.0
  0
VERTEX
  5
53
330
45
100
AcDbEntity
  8
EBENE_1
 62
   250
100
AcDbVertex
100
AcDb2dVertex
 10
-5.111147033711961
 20
-0.0189480376687893
 30
0.0
  0
VERTEX
  5
54
330
45
100
AcDbEntity
  8
EBENE_1
 62
   250
100
AcDbVertex
100
AcDb2dVertex
 10
-5.111147033711961
 20
-0.0127468617044582
 30
0.0
  0
VERTEX
  5
55
330
45
100
AcDbEntity
  8
EBENE_1
 62
   250
100
AcDbVertex
100
AcDb2dVertex
 10
-5.111147033711961
 20
-0.006201175964331
 30
0.0
  0
VERTEX
  5
56
330
45
100
AcDbEntity
  8
EBENE_1
 62
   250
100
AcDbVertex
100
AcDb2dVertex
 10
-5.111147033711961
 20
0.0003445097757962
 30
0.0
  0
VERTEX
  5
57
330
45
100
AcDbEntity
  8
EBENE_1
 62
   250
100
AcDbVertex
100
AcDb2dVertex
 10
-5.08427527119986
 20
0.5322676036050809
 30
0.0
  0
VERTEX
  5
58
330
45
100
AcDbEntity
  8
EBENE_1
 62
   250
100
AcDbVertex
100
AcDb2dVertex
 10
-5.005554787430436
 20
1.048343247747742
 30
0.0
  0
VERTEX
  5
59
330
45
100
AcDbEntity
  8
EBENE_1
 62
   250
100
AcDbVertex
100
AcDb2dVertex
 10
-4.877397150834261
 20
1.546848893324798
 30
0.0
  0
VERTEX
  5
5A
330
45
100
AcDbEntity
  8
EBENE_1
 62
   250
100
AcDbVertex
100
AcDb2dVertex
 10
-4.702558439617705
 20
2.024683952354084
 30
0.0
  0
VERTEX
  5
5B
330
45
100
AcDbEntity
  8
EBENE_1
 62
   250
100
AcDbVertex
100
AcDb2dVertex
 10
-4.48362247709924
 20
2.479436856405027
 30
0.0
  0
VERTEX
  5
5C
330
45
100
AcDbEntity
  8
EBENE_1
 62
   250
100
AcDbVertex
100
AcDb2dVertex
 10
-4.223000831709438
 20
2.908007017495461
 30
0.0
  0
VERTEX
  5
5D
330
45
100
AcDbEntity
  8
EBENE_1
 62
   250
100
AcDbVertex
100
AcDb2dVertex
 10
-3.923794091430465
 20
3.30832737697061
 30
0.0
  0
VERTEX
  5
5E
330
45
100
AcDbEntity
  8
EBENE_1
 62
   250
100
AcDbVertex
100
AcDb2dVertex
 10
-3.588069314917099
 20
3.677641856624102
 30
0.0
  0
VERTEX
  5
5F
330
45
100
AcDbEntity
  8
EBENE_1
 62
   250
100
AcDbVertex
100
AcDb2dVertex
 10
-3.218754835263606
 20
4.013194378249571
 30
0.0
  0
VERTEX
  5
60
330
45
100
AcDbEntity
  8
EBENE_1
 62
   250
100
AcDbVertex
100
AcDb2dVertex
 10
-2.818434475788457
 20
4.312573373416441
 30
0.0
  0
VERTEX
  5
61
330
45
100
AcDbEntity
  8
EBENE_1
 62
   250
100
AcDbVertex
100
AcDb2dVertex
 10
-2.389519804922227
 20
4.573022763918345
 30
0.0
  0
VERTEX
  5
62
330
45
100
AcDbEntity
  8
EBENE_1
 62
   250
100
AcDbVertex
100
AcDb2dVertex
 10
-1.934939155759182
 20
4.792130981324709
 30
0.0
  0
VERTEX
  5
63
330
45
100
AcDbEntity
  8
EBENE_1
 62
   250
100
AcDbVertex
100
AcDb2dVertex
 10
-1.457276351617794
 20
4.967141947429162
 30
0.0
  0
VERTEX
  5
64
330
45
100
AcDbEntity
  8
EBENE_1
 62
   250
100
AcDbVertex
100
AcDb2dVertex
 10
-0.9587707060407379
 20
5.094955074249541
 30
0.0
  0
VERTEX
  5
65
330
45
100
AcDbEntity
  8
EBENE_1
 62
   250
100
AcDbVertex
100
AcDb2dVertex
 10
-0.4425228070101789
 20
5.173847812906864
 30
0.0
  0
VERTEX
  5
66
330
45
100
AcDbEntity
  8
EBENE_1
 62
   250
100
AcDbVertex
100
AcDb2dVertex
 10
0.0892280319312077
 20
5.200719575418965
 30
0.0
  0
VERTEX
  5
67
330
45
100
AcDbEntity
  8
EBENE_1
 62
   250
100
AcDbVertex
100
AcDb2dVertex
 10
0.6209788708725944
 20
5.173847812906864
 30
0.0
  0
VERTEX
  5
68
330
45
100
AcDbEntity
  8
EBENE_1
 62
   250
100
AcDbVertex
100
AcDb2dVertex
 10
1.137226769903153
 20
5.094955074249541
 30
0.0
  0
VERTEX
  5
69
330
45
100
AcDbEntity
  8
EBENE_1
 62
   250
100
AcDbVertex
100
AcDb2dVertex
 10
1.635560160592312
 20
4.967141947429162
 30
0.0
  0
VERTEX
  5
6A
330
45
100
AcDbEntity
  8
EBENE_1
 62
   250
100
AcDbVertex
100
AcDb2dVertex
 10
2.113395219621598
 20
4.792130981324709
 30
0.0
  0
VERTEX
  5
6B
330
45
100
AcDbEntity
  8
EBENE_1
 62
   250
100
AcDbVertex
100
AcDb2dVertex
 10
2.567975868784643
 20
4.573022763918345
 30
0.0
  0
VERTEX
  5
6C
330
45
100
AcDbEntity
  8
EBENE_1
 62
   250
100
AcDbVertex
100
AcDb2dVertex
 10
2.996718284762975
 20
4.312573373416441
 30
0.0
  0
VERTEX
  5
6D
330
45
100
AcDbEntity
  8
EBENE_1
 62
   250
100
AcDbVertex
100
AcDb2dVertex
 10
3.397210899126021
 20
4.013194378249571
 30
0.0
  0
VERTEX
  5
6E
330
45
100
AcDbEntity
  8
EBENE_1
 62
   250
100
AcDbVertex
100
AcDb2dVertex
 10
3.766353123891616
 20
3.677641856624102
 30
0.0
  0
VERTEX
  5
6F
330
45
100
AcDbEntity
  8
EBENE_1
 62
   250
100
AcDbVertex
100
AcDb2dVertex
 10
4.101905645517085
 20
3.30832737697061
 30
0.0
  0
VERTEX
  5
70
330
45
100
AcDbEntity
  8
EBENE_1
 62
   250
100
AcDbVertex
100
AcDb2dVertex
 10
4.401284640683955
 20
2.908007017495461
 30
0.0
  0
VERTEX
  5
71
330
45
100
AcDbEntity
  8
EBENE_1
 62
   250
100
AcDbVertex
100
AcDb2dVertex
 10
4.661734031185858
 20
2.479436856405027
 30
0.0
  0
VERTEX
  5
72
330
45
100
AcDbEntity
  8
EBENE_1
 62
   250
100
AcDbVertex
100
AcDb2dVertex
 10
4.880842248592222
 20
2.024683952354084
 30
0.0
  0
VERTEX
  5
73
330
45
100
AcDbEntity
  8
EBENE_1
 62
   250
100
AcDbVertex
100
AcDb2dVertex
 10
5.055680959808778
 20
1.546848893324798
 30
0.0
  0
VERTEX
  5
74
330
45
100
AcDbEntity
  8
EBENE_1
 62
   250
100
AcDbVertex
100
AcDb2dVertex
 10
5.183838596404953
 20
1.048343247747742
 30
0.0
  0
VERTEX
  5
75
330
45
100
AcDbEntity
  8
EBENE_1
 62
   250
100
AcDbVertex
100
AcDb2dVertex
 10
5.262731335062275
 20
0.5322676036050809
 30
0.0
  0
VERTEX
  5
76
330
45
100
AcDbEntity
  8
EBENE_1
 62
   250
100
AcDbVertex
100
AcDb2dVertex
 10
5.289603097574377
 20
0.0003445097757962
 30
0.0
  0
VERTEX
  5
77
330
45
100
AcDbEntity
  8
EBENE_1
 62
   250
100
AcDbVertex
100
AcDb2dVertex
 10
5.262731335062275
 20
-0.5315785840534886
 30
0.0
  0
VERTEX
  5
78
330
45
100
AcDbEntity
  8
EBENE_1
 62
   250
100
AcDbVertex
100
AcDb2dVertex
 10
5.183838596404953
 20
-1.047654228196149
 30
0.0
  0
VERTEX
  5
79
330
45
100
AcDbEntity
  8
EBENE_1
 62
   250
100
AcDbVertex
100
AcDb2dVertex
 10
5.055680959808778
 20
-1.54581536399741
 30
0.0
  0
VERTEX
  5
7A
330
45
100
AcDbEntity
  8
EBENE_1
 62
   250
100
AcDbVertex
100
AcDb2dVertex
 10
4.880842248592222
 20
-2.023650423026696
 30
0.0
  0
VERTEX
  5
7B
330
45
100
AcDbEntity
  8
EBENE_1
 62
   250
100
AcDbVertex
100
AcDb2dVertex
 10
4.661734031185858
 20
-2.478058817301843
 30
0.0
  0
VERTEX
  5
7C
330
45
100
AcDbEntity
  8
EBENE_1
 62
   250
100
AcDbVertex
100
AcDb2dVertex
 10
4.401284640683955
 20
-2.906973488168073
 30
0.0
  0
VERTEX
  5
7D
330
45
100
AcDbEntity
  8
EBENE_1
 62
   250
100
AcDbVertex
100
AcDb2dVertex
 10
4.101905645517085
 20
-3.307293847643221
 30
0.0
  0
VERTEX
  5
7E
330
45
100
AcDbEntity
  8
EBENE_1
 62
   250
100
AcDbVertex
100
AcDb2dVertex
 10
3.766353123891616
 20
-3.676608327296714
 30
0.0
  0
VERTEX
  5
7F
330
45
100
AcDbEntity
  8
EBENE_1
 62
   250
100
AcDbVertex
100
AcDb2dVertex
 10
3.397210899126021
 20
-4.012160848922182
 30
0.0
  0
VERTEX
  5
80
330
45
100
AcDbEntity
  8
EBENE_1
 62
   250
100
AcDbVertex
100
AcDb2dVertex
 10
2.996718284762975
 20
-4.311539844089054
 30
0.0
  0
VERTEX
  5
81
330
45
100
AcDbEntity
  8
EBENE_1
 62
   250
100
AcDbVertex
100
AcDb2dVertex
 10
2.567975868784643
 20
-4.571989234590957
 30
0.0
  0
VERTEX
  5
82
330
45
100
AcDbEntity
  8
EBENE_1
 62
   250
100
AcDbVertex
100
AcDb2dVertex
 10
2.113395219621598
 20
-4.79109745199732
 30
0.0
  0
VERTEX
  5
83
330
45
100
AcDbEntity
  8
EBENE_1
 62
   250
100
AcDbVertex
100
AcDb2dVertex
 10
1.635560160592312
 20
-4.966108418101774
 30
0.0
  0
VERTEX
  5
84
330
45
100
AcDbEntity
  8
EBENE_1
 62
   250
100
AcDbVertex
100
AcDb2dVertex
 10
1.137226769903153
 20
-5.094266054697949
 30
0.0
  0
VERTEX
  5
85
330
45
100
AcDbEntity
  8
EBENE_1
 62
   250
100
AcDbVertex
100
AcDb2dVertex
 10
0.6209788708725944
 20
-5.172814283579475
 30
0.0
  0
VERTEX
  5
86
330
45
100
AcDbEntity
  8
EBENE_1
 62
   250
100
AcDbVertex
100
AcDb2dVertex
 10
0.0892280319312077
 20
-5.199686046091577
 30
0.0
  0
VERTEX
  5
87
330
45
100
AcDbEntity
  8
EBENE_1
 62
   250
100
AcDbVertex
100
AcDb2dVertex
 10
-0.4297759453057207
 20
-5.17419232268266
 30
0.0
  0
VERTEX
  5
88
330
45
100
AcDbEntity
  8
EBENE_1
 62
   250
100
AcDbVertex
100
AcDb2dVertex
 10
-0.9341382570713118
 20
-5.099089191559095
 30
0.0
  0
VERTEX
  5
89
330
45
100
AcDbEntity
  8
EBENE_1
 62
   250
100
AcDbVertex
100
AcDb2dVertex
 10
-1.421619589822891
 20
-4.976788221151455
 30
0.0
  0
VERTEX
  5
8A
330
45
100
AcDbEntity
  8
EBENE_1
 62
   250
100
AcDbVertex
100
AcDb2dVertex
 10
-1.889636120241986
 20
-4.810045489666109
 30
0.0
  0
VERTEX
  5
8B
330
45
100
AcDbEntity
  8
EBENE_1
 62
   250
100
AcDbVertex
100
AcDb2dVertex
 10
-2.335776279898025
 20
-4.600928055757835
 30
0.0
  0
VERTEX
  5
8C
330
45
100
AcDbEntity
  8
EBENE_1
 62
   250
100
AcDbVertex
100
AcDb2dVertex
 10
-2.757628500360433
 20
-4.352191997633001
 30
0.0
  0
VERTEX
  5
8D
330
45
100
AcDbEntity
  8
EBENE_1
 62
   250
100
AcDbVertex
100
AcDb2dVertex
 10
-3.152781213198639
 20
-4.065904373946385
 30
0.0
  0
VERTEX
  5
8E
330
45
100
AcDbEntity
  8
EBENE_1
 62
   250
100
AcDbVertex
100
AcDb2dVertex
 10
-3.518822849982068
 20
-3.744476753128559
 30
0.0
  0
VERTEX
  5
8F
330
45
100
AcDbEntity
  8
EBENE_1
 62
   250
100
AcDbVertex
100
AcDb2dVertex
 10
-3.853341842280149
 20
-3.390665213385894
 30
0.0
  0
VERTEX
  5
90
330
45
100
AcDbEntity
  8
EBENE_1
 62
   250
100
AcDbVertex
100
AcDb2dVertex
 10
-4.153926621662306
 20
-3.006536813373165
 30
0.0
  0
VERTEX
  5
91
330
45
100
AcDbEntity
  8
EBENE_1
 62
   250
100
AcDbVertex
100
AcDb2dVertex
 10
-4.417993364810069
 20
-2.59519214107254
 30
0.0
  0
VERTEX
  5
92
330
45
100
AcDbEntity
  8
EBENE_1
 62
   250
100
AcDbVertex
100
AcDb2dVertex
 10
-4.643302758180764
 20
-2.158353745362998
 30
0.0
  0
VERTEX
  5
93
330
45
100
AcDbEntity
  8
EBENE_1
 62
   250
100
AcDbVertex
100
AcDb2dVertex
 10
-4.82709872356802
 20
-1.698777704450908
 30
0.0
  0
VERTEX
  5
94
330
45
100
AcDbEntity
  8
EBENE_1
 62
   250
100
AcDbVertex
100
AcDb2dVertex
 10
-4.967486457204958
 20
-1.218875586766845
 30
0.0
  0
VERTEX
  5
95
330
45
100
AcDbEntity
  8
EBENE_1
 62
   250
100
AcDbVertex
100
AcDb2dVertex
 10
-5.058781547790943
 20
-0.6866079831617645
 30
0.0
  0
VERTEX
  5
96
330
45
100
AcDbEntity
  8
EBENE_1
 62
   250
100
AcDbVertex
100
AcDb2dVertex
 10
-5.108390955505592
 20
-0.2015382188407588
 30
0.0
  0
VERTEX
  5
97
330
45
100
AcDbEntity
  8
EBENE_1
 62
   250
100
AcDbVertex
100
AcDb2dVertex
 10
-5.641003068886469
 20
-0.2070503752534975
 30
0.0
  0
VERTEX
  5
98
330
45
100
AcDbEntity
  8
EBENE_1
 62
   250
100
AcDbVertex
100
AcDb2dVertex
 10
-5.592771700275005
 20
-0.7751469955413799
 30
0.0
  0
VERTEX
  5
99
330
45
100
AcDbEntity
  8
EBENE_1
 62
   250
100
AcDbVertex
100
AcDb2dVertex
 10
-5.490452296863543
 20
-1.326018127039454
 30
0.0
  0
VERTEX
  5
9A
330
45
100
AcDbEntity
  8
EBENE_1
 62
   250
100
AcDbVertex
100
AcDb2dVertex
 10
-5.337145446634247
 20
-1.857252201317146
 30
0.0
  0
VERTEX
  5
9B
330
45
100
AcDbEntity
  8
EBENE_1
 62
   250
100
AcDbVertex
100
AcDb2dVertex
 10
-5.135262718017692
 20
-2.365748630392292
 30
0.0
  0
VERTEX
  5
9C
330
45
100
AcDbEntity
  8
EBENE_1
 62
   250
100
AcDbVertex
100
AcDb2dVertex
 10
-4.887560189220247
 20
-2.849095845834317
 30
0.0
  0
VERTEX
  5
9D
330
45
100
AcDbEntity
  8
EBENE_1
 62
   250
100
AcDbVertex
100
AcDb2dVertex
 10
-4.596793938448281
 20
-3.304537769436851
 30
0.0
  0
VERTEX
  5
9E
330
45
100
AcDbEntity
  8
EBENE_1
 62
   250
100
AcDbVertex
100
AcDb2dVertex
 10
-4.265547789020265
 20
-3.729318322993528
 30
0.0
  0
VERTEX
  5
9F
330
45
100
AcDbEntity
  8
EBENE_1
 62
   250
100
AcDbVertex
100
AcDb2dVertex
 10
-3.896577819142568
 20
-4.121025938073772
 30
0.0
  0
VERTEX
  5
A0
330
45
100
AcDbEntity
  8
EBENE_1
 62
   250
100
AcDbVertex
100
AcDb2dVertex
 10
-3.49264010702156
 20
-4.476560026695418
 30
0.0
  0
VERTEX
  5
A1
330
45
100
AcDbEntity
  8
EBENE_1
 62
   250
100
AcDbVertex
100
AcDb2dVertex
 10
-3.056318475975712
 20
-4.793853530203689
 30
0.0
  0
VERTEX
  5
A2
330
45
100
AcDbEntity
  8
EBENE_1
 62
   250
100
AcDbVertex
100
AcDb2dVertex
 10
-2.590541259099292
 20
-5.069461350840625
 30
0.0
  0
VERTEX
  5
A3
330
45
100
AcDbEntity
  8
EBENE_1
 62
   250
100
AcDbVertex
100
AcDb2dVertex
 10
-2.097720024822872
 20
-5.30097192017565
 30
0.0
  0
VERTEX
  5
A4
330
45
100
AcDbEntity
  8
EBENE_1
 62
   250
100
AcDbVertex
100
AcDb2dVertex
 10
-1.580610851352823
 20
-5.485973669778192
 30
0.0
  0
VERTEX
  5
A5
330
45
100
AcDbEntity
  8
EBENE_1
 62
   250
100
AcDbVertex
100
AcDb2dVertex
 10
-1.041969816895513
 20
-5.621366011666087
 30
0.0
  0
VERTEX
  5
A6
330
45
100
AcDbEntity
  8
EBENE_1
 62
   250
100
AcDbVertex
100
AcDb2dVertex
 10
-0.4843807447694134
 20
-5.704392867632964
 30
0.0
  0
VERTEX
  5
A7
330
45
100
AcDbEntity
  8
EBENE_1
 62
   250
100
AcDbVertex
100
AcDb2dVertex
 10
0.0892280319312077
 20
-5.73264266924825
 30
0.0
  0
VERTEX
  5
A8
330
45
100
AcDbEntity
  8
EBENE_1
 62
   250
100
AcDbVertex
100
AcDb2dVertex
 10
0.675411415448389
 20
-5.703014828529779
 30
0.0
  0
VERTEX
  5
A9
330
45
100
AcDbEntity
  8
EBENE_1
 62
   250
100
AcDbVertex
100
AcDb2dVertex
 10
1.24454156506366
 20
-5.616198365029144
 30
0.0
  0
VERTEX
  5
AA
330
45
100
AcDbEntity
  8
EBENE_1
 62
   250
100
AcDbVertex
100
AcDb2dVertex
 10
1.794034657458549
 20
-5.474949356952715
 30
0.0
  0
VERTEX
  5
AB
330
45
100
AcDbEntity
  8
EBENE_1
 62
   250
100
AcDbVertex
100
AcDb2dVertex
 10
2.320790104650892
 20
-5.282023882506861
 30
0.0
  0
VERTEX
  5
AC
330
45
100
AcDbEntity
  8
EBENE_1
 62
   250
100
AcDbVertex
100
AcDb2dVertex
 10
2.821879573546419
 20
-5.040522529673747
 30
0.0
  0
VERTEX
  5
AD
330
45
100
AcDbEntity
  8
EBENE_1
 62
   250
100
AcDbVertex
100
AcDb2dVertex
 10
3.294546985938763
 20
-4.753545886435537
 30
0.0
  0
VERTEX
  5
AE
330
45
100
AcDbEntity
  8
EBENE_1
 62
   250
100
AcDbVertex
100
AcDb2dVertex
 10
3.735864008733655
 20
-4.423505521222808
 30
0.0
  0
VERTEX
  5
AF
330
45
100
AcDbEntity
  8
EBENE_1
 62
   250
100
AcDbVertex
100
AcDb2dVertex
 10
4.143074563724727
 20
-4.053502022017723
 30
0.0
  0
VERTEX
  5
B0
330
45
100
AcDbEntity
  8
EBENE_1
 62
   250
100
AcDbVertex
100
AcDb2dVertex
 10
4.513078062929812
 20
-3.646635976802447
 30
0.0
  0
VERTEX
  5
B1
330
45
100
AcDbEntity
  8
EBENE_1
 62
   250
100
AcDbVertex
100
AcDb2dVertex
 10
4.84329068303044
 20
-3.205318954007555
 30
0.0
  0
VERTEX
  5
B2
330
45
100
AcDbEntity
  8
EBENE_1
 62
   250
100
AcDbVertex
100
AcDb2dVertex
 10
5.130611836044444
 20
-2.732651541615212
 30
0.0
  0
VERTEX
  5
B3
330
45
100
AcDbEntity
  8
EBENE_1
 62
   250
100
AcDbVertex
100
AcDb2dVertex
 10
5.371940933989661
 20
-2.231389817831785
 30
0.0
  0
VERTEX
  5
B4
330
45
100
AcDbEntity
  8
EBENE_1
 62
   250
100
AcDbVertex
100
AcDb2dVertex
 10
5.564694153547618
 20
-1.704634370639444
 30
0.0
  0
VERTEX
  5
B5
330
45
100
AcDbEntity
  8
EBENE_1
 62
   250
100
AcDbVertex
100
AcDb2dVertex
 10
5.706115416511945
 20
-1.155141278244554
 30
0.0
  0
VERTEX
  5
B6
330
45
100
AcDbEntity
  8
EBENE_1
 62
   250
100
AcDbVertex
100
AcDb2dVertex
 10
5.79293188001258
 20
-0.5860111286292832
 30
0.0
  0
VERTEX
  5
B7
330
45
100
AcDbEntity
  8
EBENE_1
 62
   250
100
AcDbVertex
100
AcDb2dVertex
 10
5.82255972073105
 20
0.0003445097757962
 30
0.0
  0
VERTEX
  5
B8
330
45
100
AcDbEntity
  8
EBENE_1
 62
   250
100
AcDbVertex
100
AcDb2dVertex
 10
5.79293188001258
 20
0.5867001481808756
 30
0.0
  0
VERTEX
  5
B9
330
45
100
AcDbEntity
  8
EBENE_1
 62
   250
100
AcDbVertex
100
AcDb2dVertex
 10
5.706115416511945
 20
1.155830297796147
 30
0.0
  0
VERTEX
  5
BA
330
45
100
AcDbEntity
  8
EBENE_1
 62
   250
100
AcDbVertex
100
AcDb2dVertex
 10
5.564694153547618
 20
1.705323390191036
 30
0.0
  0
VERTEX
  5
BB
330
45
100
AcDbEntity
  8
EBENE_1
 62
   250
100
AcDbVertex
100
AcDb2dVertex
 10
5.371940933989661
 20
2.232078837383378
 30
0.0
  0
VERTEX
  5
BC
330
45
100
AcDbEntity
  8
EBENE_1
 62
   250
100
AcDbVertex
100
AcDb2dVertex
 10
5.130611836044444
 20
2.733340561166804
 30
0.0
  0
VERTEX
  5
BD
330
45
100
AcDbEntity
  8
EBENE_1
 62
   250
100
AcDbVertex
100
AcDb2dVertex
 10
4.84329068303044
 20
3.206007973559147
 30
0.0
  0
VERTEX
  5
BE
330
45
100
AcDbEntity
  8
EBENE_1
 62
   250
100
AcDbVertex
100
AcDb2dVertex
 10
4.513078062929812
 20
3.64732499635404
 30
0.0
  0
VERTEX
  5
BF
330
45
100
AcDbEntity
  8
EBENE_1
 62
   250
100
AcDbVertex
100
AcDb2dVertex
 10
4.143074563724727
 20
4.054535551345111
 30
0.0
  0
VERTEX
  5
C0
330
45
100
AcDbEntity
  8
EBENE_1
 62
   250
100
AcDbVertex
100
AcDb2dVertex
 10
3.735864008733655
 20
4.424539050550196
 30
0.0
  0
VERTEX
  5
C1
330
45
100
AcDbEntity
  8
EBENE_1
 62
   250
100
AcDbVertex
100
AcDb2dVertex
 10
3.294546985938763
 20
4.754579415762926
 30
0.0
  0
VERTEX
  5
C2
330
45
100
AcDbEntity
  8
EBENE_1
 62
   250
100
AcDbVertex
100
AcDb2dVertex
 10
2.821879573546419
 20
5.041900568776931
 30
0.0
  0
VERTEX
  5
C3
330
45
100
AcDbEntity
  8
EBENE_1
 62
   250
100
AcDbVertex
100
AcDb2dVertex
 10
2.320790104650892
 20
5.283401921610046
 30
0.0
  0
VERTEX
  5
C4
330
45
100
AcDbEntity
  8
EBENE_1
 62
   250
100
AcDbVertex
100
AcDb2dVertex
 10
1.794034657458549
 20
5.4763273960559
 30
0.0
  0
VERTEX
  5
C5
330
45
100
AcDbEntity
  8
EBENE_1
 62
   250
100
AcDbVertex
100
AcDb2dVertex
 10
1.24454156506366
 20
5.617576404132329
 30
0.0
  0
VERTEX
  5
C6
330
45
100
AcDbEntity
  8
EBENE_1
 62
   250
100
AcDbVertex
100
AcDb2dVertex
 10
0.675411415448389
 20
5.704392867632964
 30
0.0
  0
VERTEX
  5
C7
330
45
100
AcDbEntity
  8
EBENE_1
 62
   250
100
AcDbVertex
100
AcDb2dVertex
 10
0.0892280319312077
 20
5.734020708351435
 30
0.0
  0
VERTEX
  5
C8
330
45
100
AcDbEntity
  8
EBENE_1
 62
   250
100
AcDbVertex
100
AcDb2dVertex
 10
-0.4971276064738717
 20
5.704392867632964
 30
0.0
  0
VERTEX
  5
C9
330
45
100
AcDbEntity
  8
EBENE_1
 62
   250
100
AcDbVertex
100
AcDb2dVertex
 10
-1.066257756089143
 20
5.617576404132329
 30
0.0
  0
VERTEX
  5
CA
330
45
100
AcDbEntity
  8
EBENE_1
 62
   250
100
AcDbVertex
100
AcDb2dVertex
 10
-1.615750848484032
 20
5.4763273960559
 30
0.0
  0
VERTEX
  5
CB
330
45
100
AcDbEntity
  8
EBENE_1
 62
   250
100
AcDbVertex
100
AcDb2dVertex
 10
-2.142678550564272
 20
5.283401921610046
 30
0.0
  0
VERTEX
  5
CC
330
45
100
AcDbEntity
  8
EBENE_1
 62
   250
100
AcDbVertex
100
AcDb2dVertex
 10
-2.6437680194598
 20
5.041900568776931
 30
0.0
  0
VERTEX
  5
CD
330
45
100
AcDbEntity
  8
EBENE_1
 62
   250
100
AcDbVertex
100
AcDb2dVertex
 10
-3.116607686740041
 20
4.754579415762926
 30
0.0
  0
VERTEX
  5
CE
330
45
100
AcDbEntity
  8
EBENE_1
 62
   250
100
AcDbVertex
100
AcDb2dVertex
 10
-3.558096964422832
 20
4.424539050550196
 30
0.0
  0
VERTEX
  5
CF
330
45
100
AcDbEntity
  8
EBENE_1
 62
   250
100
AcDbVertex
100
AcDb2dVertex
 10
-3.965135264526005
 20
4.054535551345111
 30
0.0
  0
VERTEX
  5
D0
330
45
100
AcDbEntity
  8
EBENE_1
 62
   250
100
AcDbVertex
100
AcDb2dVertex
 10
-4.335138763731091
 20
3.64732499635404
 30
0.0
  0
VERTEX
  5
D1
330
45
100
AcDbEntity
  8
EBENE_1
 62
   250
100
AcDbVertex
100
AcDb2dVertex
 10
-4.66517912894382
 20
3.206007973559147
 30
0.0
  0
VERTEX
  5
D2
330
45
100
AcDbEntity
  8
EBENE_1
 62
   250
100
AcDbVertex
100
AcDb2dVertex
 10
-4.952500281957826
 20
2.733340561166804
 30
0.0
  0
VERTEX
  5
D3
330
45
100
AcDbEntity
  8
EBENE_1
 62
   250
100
AcDbVertex
100
AcDb2dVertex
 10
-5.193829379903041
 20
2.232078837383378
 30
0.0
  0
VERTEX
  5
D4
330
45
100
AcDbEntity
  8
EBENE_1
 62
   250
100
AcDbVertex
100
AcDb2dVertex
 10
-5.386582599460998
 20
1.705323390191036
 30
0.0
  0
VERTEX
  5
D5
330
45
100
AcDbEntity
  8
EBENE_1
 62
   250
100
AcDbVertex
100
AcDb2dVertex
 10
-5.528003862425325
 20
1.155830297796147
 30
0.0
  0
VERTEX
  5
D6
330
45
100
AcDbEntity
  8
EBENE_1
 62
   250
100
AcDbVertex
100
AcDb2dVertex
 10
-5.61482032592596
 20
0.5867001481808756
 30
0.0
  0
VERTEX
  5
D7
330
45
100
AcDbEntity
  8
EBENE_1
 62
   250
100
AcDbVertex
100
AcDb2dVertex
 10
-5.64444816664443
 20
0.0003445097757962
 30
0.0
  0
VERTEX
  5
D8
330
45
100
AcDbEntity
  8
EBENE_1
 62
   250
100
AcDbVertex
100
AcDb2dVertex
 10
-5.64444816664443
 20
-0.0058566661885349
 30
0.0
  0
VERTEX
  5
D9
330
45
100
AcDbEntity
  8
EBENE_1
 62
   250
100
AcDbVertex
100
AcDb2dVertex
 10
-5.64444816664443
 20
-0.0124023519286621
 30
0.0
  0
VERTEX
  5
DA
330
45
100
AcDbEntity
  8
EBENE_1
 62
   250
100
AcDbVertex
100
AcDb2dVertex
 10
-5.64444816664443
 20
-0.0189480376687893
 30
0.0
  0
VERTEX
  5
DB
330
45
100
AcDbEntity
  8
EBENE_1
 62
   250
100
AcDbVertex
100
AcDb2dVertex
 10
-5.64444816664443
 20
-0.0251492136331203
 30
0.0
  0
VERTEX
  5
DC
330
45
100
AcDbEntity
  8
EBENE_1
 62
   250
100
AcDbVertex
100
AcDb2dVertex
 10
-5.64444816664443
 20
-0.0313503895974514
 30
0.0
  0
VERTEX
  5
DD
330
45
100
AcDbEntity
  8
EBENE_1
 62
   250
100
AcDbVertex
100
AcDb2dVertex
 10
-5.64444816664443
 20
-0.0378960753375786
 30
0.0
  0
VERTEX
  5
DE
330
45
100
AcDbEntity
  8
EBENE_1
 62
   250
100
AcDbVertex
100
AcDb2dVertex
 10
-5.64444816664443
 20
-0.0444417610777058
 30
0.0
  0
VERTEX
  5
DF
330
45
100
AcDbEntity
  8
EBENE_1
 62
   250
100
AcDbVertex
100
AcDb2dVertex
 10
-5.644275911756532
 20
-0.0506429370420368
 30
0.0
  0
VERTEX
  5
E0
330
45
100
AcDbEntity
  8
EBENE_1
 62
   250
100
AcDbVertex
100
AcDb2dVertex
 10
-5.644103656868634
 20
-0.057188622782164
 30
0.0
  0
VERTEX
  5
E1
330
45
100
AcDbEntity
  8
EBENE_1
 62
   250
100
AcDbVertex
100
AcDb2dVertex
 10
-5.644103656868634
 20
-0.0637343085222912
 30
0.0
  0
VERTEX
  5
E2
330
45
100
AcDbEntity
  8
EBENE_1
 62
   250
100
AcDbVertex
100
AcDb2dVertex
 10
-5.644103656868634
 20
-0.0699354844866223
 30
0.0
  0
VERTEX
  5
E3
330
45
100
AcDbEntity
  8
EBENE_1
 62
   250
100
AcDbVertex
100
AcDb2dVertex
 10
-5.644103656868634
 20
-0.0764811702267495
 30
0.0
  0
VERTEX
  5
E4
330
45
100
AcDbEntity
  8
EBENE_1
 62
   250
100
AcDbVertex
100
AcDb2dVertex
 10
-5.644103656868634
 20
-0.0830268559668767
 30
0.0
  0
VERTEX
  5
E5
330
45
100
AcDbEntity
  8
EBENE_1
 62
   250
100
AcDbVertex
100
AcDb2dVertex
 10
-5.643931401980736
 20
-0.0892280319312077
 30
0.0
  0
VERTEX
  5
E6
330
45
100
AcDbEntity
  8
EBENE_1
 62
   250
100
AcDbVertex
100
AcDb2dVertex
 10
-5.643759147092838
 20
-0.0954292078955388
 30
0.0
  0
VERTEX
  5
E7
330
45
100
AcDbEntity
  8
EBENE_1
 62
   250
100
AcDbVertex
100
AcDb2dVertex
 10
-5.339901524840617
 20
-0.0912950905859847
 30
0.0
  0
SEQEND
  5
E8
330
45
100
AcDbEntity
  8
EBENE_1
  0
ENDSEC
  0
SECTION
  2
OBJECTS
  0
DICTIONARY
  5
C
330
0
100
AcDbDictionary
  3
ACAD_GROUP
350
D
  3
ACAD_LAYOUT
350
1A
  3
ACAD_MLINESTYLE
350
17
  3
ACAD_PLOTSETTINGS
350
19
  3
ACAD_TABLESTYLE
350
E9
  3
ACAD_VISUALSTYLE
350
2A
1001
ACAD
1000
TREAT_AS_HARD
1070
     0
  0
DICTIONARY
  5
D
102
{ACAD_REACTORS
330
C
102
}
330
C
100
AcDbDictionary
1001
ACAD
1000
TREAT_AS_HARD
1070
     0
  0
DICTIONARY
  5
1A
102
{ACAD_REACTORS
330
C
102
}
330
C
100
AcDbDictionary
1001
ACAD
1000
TREAT_AS_HARD
1070
     0
  0
DICTIONARY
  5
17
102
{ACAD_REACTORS
330
C
102
}
330
C
100
AcDbDictionary
  3
STANDARD
350
18
1001
ACAD
1000
TREAT_AS_HARD
1070
     0
  0
DICTIONARY
  5
19
102
{ACAD_REACTORS
330
C
102
}
330
C
100
AcDbDictionary
1001
ACAD
1000
TREAT_AS_HARD
1070
     0
  0
DICTIONARY
  5
E9
102
{ACAD_REACTORS
330
C
102
}
330
C
100
AcDbDictionary
1001
ACAD
1000
TREAT_AS_HARD
1070
     0
  0
DICTIONARY
  5
2A
102
{ACAD_REACTORS
330
C
102
}
330
C
100
AcDbDictionary
  3
2DWIREFRAME
350
2F
  3
3DWIREFRAME
350
30
  3
3D_HIDDEN
350
31
  3
BASIC
350
32
  3
BRIGHTEN
350
36
  3
COLORCHANGE
350
3A
  3
CONCEPTUAL
350
34
  3
DIM
350
35
  3
FACEPATTERN
350
39
  3
FLAT
350
2B
  3
FLATWITHEDGES
350
2C
  3
GOURAUD
350
2D
  3
GOURAUDWITHEDGES
350
2E
  3
LINEPATTERN
350
38
  3
REALISTIC
350
33
  3
THICKEN
350
37
1001
ACAD
1000
TREAT_AS_HARD
1070
     0
  0
MLINESTYLE
  5
18
102
{ACAD_REACTORS
330
17
102
}
330
17
100
AcDbMlineStyle
  2
Standard
 70
     0
  3

 62
   256
 51
90.0
 52
90.0
 71
     2
 49
0.5
 62
   256
  6
BYLAYER
 49
-0.5
 62
   256
  6
BYLAYER
  0
VISUALSTYLE
  5
2F
102
{ACAD_REACTORS
330
2A
102
}
330
2A
100
AcDbVisualStyle
  2
2dWireframe
 70
     4
 71
     0
 72
     2
 73
     0
 90
        0
 40
-0.6
 41
-30.0
 62
     5
 63
     7
 74
     1
 91
        4
 64
     7
 65
   257
 75
     1
175
     1
 42
1.0
 92
        0
 66
   257
 43
1.0
 76
     1
 77
     6
 78
     2
 67
     7
 79
     5
170
     0
171
     0
290
     0
174
     0
 93
        1
 44
0.0
173
     0
291
     0
 45
0.0
1001
ACAD
1000
AcDbSavedByObjectVersion
1070
     0
  0
VISUALSTYLE
  5
30
102
{ACAD_REACTORS
330
2A
102
}
330
2A
100
AcDbVisualStyle
  2
3dWireframe
 70
     5
 71
     0
 72
     2
 73
     0
 90
        0
 40
-0.6
 41
-30.0
 62
     5
 63
     7
 74
     1
 91
        4
 64
     7
 65
   257
 75
     1
175
     1
 42
1.0
 92
        0
 66
   257
 43
1.0
 76
     1
 77
     6
 78
     2
 67
     7
 79
     5
170
     0
171
     0
290
     0
174
     0
 93
        1
 44
0.0
173
     0
291
     0
 45
0.0
1001
ACAD
1000
AcDbSavedByObjectVersion
1070
     0
  0
VISUALSTYLE
  5
31
102
{ACAD_REACTORS
330
2A
102
}
330
2A
100
AcDbVisualStyle
  2
3D Hidden
 70
     6
 71
     1
 72
     2
 73
     2
 90
        0
 40
-0.6
 41
-30.0
 62
     5
 63
     7
 74
     2
 91
        2
 64
     7
 65
   257
 75
     2
175
     1
 42
40.0
 92
        0
 66
   257
 43
1.0
 76
     1
 77
     6
 78
     2
 67
     7
 79
     3
170
     0
171
     0
290
     0
174
     0
 93
        1
 44
0.0
173
     0
291
     0
 45
0.0
1001
ACAD
1000
AcDbSavedByObjectVersion
1070
     0
  0
VISUALSTYLE
  5
32
102
{ACAD_REACTORS
330
2A
102
}
330
2A
100
AcDbVisualStyle
  2
Basic
 70
     7
 71
     1
 72
     0
 73
     1
 90
        0
 40
-0.6
 41
-30.0
 62
     5
 63
     7
 74
     0
 91
        4
 64
     7
 65
   257
 75
     1
175
     1
 42
1.0
 92
        8
 66
     7
 43
1.0
 76
     1
 77
     6
 78
     2
 67
     7
 79
     5
170
     0
171
     0
290
     0
174
     0
 93
        1
 44
0.0
173
     0
291
     1
 45
0.0
1001
ACAD
1000
AcDbSavedByObjectVersion
1070
     0
  0
VISUALSTYLE
  5
36
102
{ACAD_REACTORS
330
2A
102
}
330
2A
100
AcDbVisualStyle
  2
Brighten
 70
    12
 71
     2
 72
     2
 73
     0
 90
        0
 40
-0.6
 41
-30.0
 62
     5
 63
     7
 74
     1
 91
        4
 64
     7
 65
   257
 75
     1
175
     1
 42
1.0
 92
        8
 66
     7
 43
1.0
 76
     1
 77
     6
 78
     2
 67
     7
 79
     5
170
     0
171
     0
290
     0
174
     0
 93
        1
 44
50.0
173
     0
291
     1
 45
0.0
1001
ACAD
1000
AcDbSavedByObjectVersion
1070
     0
  0
VISUALSTYLE
  5
3A
102
{ACAD_REACTORS
330
2A
102
}
330
2A
100
AcDbVisualStyle
  2
ColorChange
 70
    16
 71
     2
 72
     2
 73
     3
 90
        0
 40
-0.6
 41
-30.0
 62
     5
 63
     8
 74
     1
 91
        4
 64
     7
 65
   257
 75
     1
175
     1
 42
1.0
 92
        8
 66
     8
 43
1.0
 76
     1
 77
     6
 78
     2
 67
     7
 79
     5
170
     0
171
     0
290
     0
174
     0
 93
        1
 44
0.0
173
     0
291
     1
 45
0.0
1001
ACAD
1000
AcDbSavedByObjectVersion
1070
     0
  0
VISUALSTYLE
  5
34
102
{ACAD_REACTORS
330
2A
102
}
330
2A
100
AcDbVisualStyle
  2
Conceptual
 70
     9
 71
     3
 72
     2
 73
     0
 90
        0
 40
-0.6
 41
-30.0
 62
     5
 63
     7
 74
     2
 91
        2
 64
     7
 65
   257
 75
     1
175
     1
 42
40.0
 92
        8
 66
     7
 43
1.0
 76
     1
 77
     6
 78
     2
 67
     7
 79
     3
170
     0
171
     0
290
     0
174
     0
 93
        1
 44
0.0
173
     0
291
     0
 45
0.0
1001
ACAD
1000
AcDbSavedByObjectVersion
1070
     0
  0
VISUALSTYLE
  5
35
102
{ACAD_REACTORS
330
2A
102
}
330
2A
100
AcDbVisualStyle
  2
Dim
 70
    11
 71
     2
 72
     2
 73
     0
 90
        0
 40
-0.6
 41
-30.0
 62
     5
 63
     7
 74
     1
 91
        4
 64
     7
 65
   257
 75
     1
175
     1
 42
1.0
 92
        8
 66
     7
 43
1.0
 76
     1
 77
     6
 78
     2
 67
     7
 79
     5
170
     0
171
     0
290
     0
174
     0
 93
        1
 44
-50.0
173
     0
291
     1
 45
0.0
1001
ACAD
1000
AcDbSavedByObjectVersion
1070
     0
  0
VISUALSTYLE
  5
39
102
{ACAD_REACTORS
330
2A
102
}
330
2A
100
AcDbVisualStyle
  2
Facepattern
 70
    15
 71
     2
 72
     2
 73
     0
 90
        0
 40
-0.6
 41
-30.0
 62
     5
 63
     7
 74
     1
 91
        4
 64
     7
 65
   257
 75
     1
175
     1
 42
1.0
 92
        8
 66
     7
 43
1.0
 76
     1
 77
     6
 78
     2
 67
     7
 79
     5
170
     0
171
     0
290
     0
174
     0
 93
        1
 44
0.0
173
     0
291
     1
 45
0.0
1001
ACAD
1000
AcDbSavedByObjectVersion
1070
     0
  0
VISUALSTYLE
  5
2B
102
{ACAD_REACTORS
330
2A
102
}
330
2A
100
AcDbVisualStyle
  2
Flat
 70
     0
 71
     2
 72
     1
 73
     1
 90
        2
 40
-0.6
 41
30.0
 62
     5
 63
     7
 74
     0
 91
        4
 64
     7
 65
   257
 75
     1
175
     1
 42
1.0
 92
        8
 66
     7
 43
1.0
 76
     1
 77
     6
 78
     2
 67
     7
 79
     5
170
     0
171
     0
290
     0
174
     0
 93
       13
 44
0.0
173
     0
291
     1
 45
0.0
1001
ACAD
1000
AcDbSavedByObjectVersion
1070
     0
  0
VISUALSTYLE
  5
2C
102
{ACAD_REACTORS
330
2A
102
}
330
2A
100
AcDbVisualStyle
  2
FlatWithEdges
 70
     1
 71
     2
 72
     1
 73
     1
 90
        2
 40
-0.6
 41
30.0
 62
     5
 63
     7
 74
     1
 91
        4
 64
     7
 65
   257
 75
     1
175
     1
 42
1.0
 92
        0
 66
   257
 43
1.0
 76
     1
 77
     6
 78
     2
 67
     7
 79
     5
170
     0
171
     0
290
     0
174
     0
 93
       13
 44
0.0
173
     0
291
     1
 45
0.0
1001
ACAD
1000
AcDbSavedByObjectVersion
1070
     0
  0
VISUALSTYLE
  5
2D
102
{ACAD_REACTORS
330
2A
102
}
330
2A
100
AcDbVisualStyle
  2
Gouraud
 70
     2
 71
     2
 72
     2
 73
     1
 90
        2
 40
-0.6
 41
30.0
 62
     5
 63
     7
 74
     0
 91
        4
 64
     7
 65
   257
 75
     1
175
     1
 42
1.0
 92
        0
 66
     7
 43
1.0
 76
     1
 77
     6
 78
     2
 67
     7
 79
     5
170
     0
171
     0
290
     0
174
     0
 93
       13
 44
0.0
173
     0
291
     1
 45
0.0
1001
ACAD
1000
AcDbSavedByObjectVersion
1070
     0
  0
VISUALSTYLE
  5
2E
102
{ACAD_REACTORS
330
2A
102
}
330
2A
100
AcDbVisualStyle
  2
GouraudWithEdges
 70
     3
 71
     2
 72
     2
 73
     1
 90
        2
 40
-0.6
 41
30.0
 62
     5
 63
     7
 74
     1
 91
        4
 64
     7
 65
   257
 75
     1
175
     1
 42
1.0
 92
        0
 66
   257
 43
1.0
 76
     1
 77
     6
 78
     2
 67
     7
 79
     5
170
     0
171
     0
290
     0
174
     0
 93
       13
 44
0.0
173
     0
291
     1
 45
0.0
1001
ACAD
1000
AcDbSavedByObjectVersion
1070
     0
  0
VISUALSTYLE
  5
38
102
{ACAD_REACTORS
330
2A
102
}
330
2A
100
AcDbVisualStyle
  2
Linepattern
 70
    14
 71
     2
 72
     2
 73
     0
 90
        0
 40
-0.6
 41
-30.0
 62
     5
 63
     7
 74
     1
 91
        4
 64
     7
 65
   257
 75
     7
175
     7
 42
1.0
 92
        8
 66
     7
 43
1.0
 76
     1
 77
     6
 78
     2
 67
     7
 79
     5
170
     0
171
     0
290
     0
174
     0
 93
        1
 44
0.0
173
     0
291
     1
 45
0.0
1001
ACAD
1000
AcDbSavedByObjectVersion
1070
     0
  0
VISUALSTYLE
  5
33
102
{ACAD_REACTORS
330
2A
102
}
330
2A
100
AcDbVisualStyle
  2
Realistic
 70
     8
 71
     2
 72
     2
 73
     0
 90
        0
 40
-0.6
 41
-30.0
 62
     5
 63
     7
 74
     1
 91
        0
 64
     7
 65
   257
 75
     1
175
     1
 42
1.0
 92
        8
 66
     8
 43
1.0
 76
     1
 77
     6
 78
     2
 67
     7
 79
     5
170
     0
171
     0
290
     0
174
     0
 93
       13
 44
0.0
173
     0
291
     0
 45
0.0
1001
ACAD
1000
AcDbSavedByObjectVersion
1070
     0
  0
VISUALSTYLE
  5
37
102
{ACAD_REACTORS
330
2A
102
}
330
2A
100
AcDbVisualStyle
  2
Thicken
 70
    13
 71
     2
 72
     2
 73
     0
 90
        0
 40
-0.6
 41
-30.0
 62
     5
 63
     7
 74
     1
 91
        4
 64
     7
 65
   257
 75
     1
175
     1
 42
1.0
 92
       12
 66
     7
 43
1.0
 76
     1
 77
     6
 78
     2
 67
     7
 79
     5
170
     0
171
     0
290
     0
174
     0
 93
        1
 44
0.0
173
     0
291
     1
 45
0.0
1001
ACAD
1000
AcDbSavedByObjectVersion
1070
     0
  0
ENDSEC
  0
EOF
