ISO-10303-21;
HEADER;
FILE_DESCRIPTION(('FreeCAD Model'),'2;1');
FILE_NAME('/Users/birnbaum/Desktop/IRCamTrap_IR/teil.step',
  '2020-06-14T18:36:37',('Author'),(''),
  'Open CASCADE STEP processor 7.3','FreeCAD','Unknown');
FILE_SCHEMA(('AUTOMOTIVE_DESIGN { 1 0 10303 214 1 1 1 1 }'));
ENDSEC;
DATA;
#1 = APPLICATION_PROTOCOL_DEFINITION('international standard',
  'automotive_design',2000,#2);
#2 = APPLICATION_CONTEXT(
  'core data for automotive mechanical design processes');
#3 = SHAPE_DEFINITION_REPRESENTATION(#4,#10);
#4 = PRODUCT_DEFINITION_SHAPE('','',#5);
#5 = PRODUCT_DEFINITION('design','',#6,#9);
#6 = PRODUCT_DEFINITION_FORMATION('','',#7);
#7 = PRODUCT('Body005','Body005','',(#8));
#8 = PRODUCT_CONTEXT('',#2,'mechanical');
#9 = PRODUCT_DEFINITION_CONTEXT('part definition',#2,'design');
#10 = ADVANCED_BREP_SHAPE_REPRESENTATION('',(#11,#15),#437);
#11 = AXIS2_PLACEMENT_3D('',#12,#13,#14);
#12 = CARTESIAN_POINT('',(0.,0.,0.));
#13 = DIRECTION('',(0.,0.,1.));
#14 = DIRECTION('',(1.,0.,-0.));
#15 = MANIFOLD_SOLID_BREP('',#16);
#16 = CLOSED_SHELL('',(#17,#57,#88,#119,#152,#205,#229,#253,#277,#301,
    #317,#334,#359,#384,#402,#427));
#17 = ADVANCED_FACE('',(#18),#52,.F.);
#18 = FACE_BOUND('',#19,.F.);
#19 = EDGE_LOOP('',(#20,#30,#38,#46));
#20 = ORIENTED_EDGE('',*,*,#21,.T.);
#21 = EDGE_CURVE('',#22,#24,#26,.T.);
#22 = VERTEX_POINT('',#23);
#23 = CARTESIAN_POINT('',(0.,0.,56.));
#24 = VERTEX_POINT('',#25);
#25 = CARTESIAN_POINT('',(2.,-1.7763568394E-15,56.));
#26 = LINE('',#27,#28);
#27 = CARTESIAN_POINT('',(0.,0.,56.));
#28 = VECTOR('',#29,1.);
#29 = DIRECTION('',(1.,-1.33226762955E-15,1.665334536938E-16));
#30 = ORIENTED_EDGE('',*,*,#31,.T.);
#31 = EDGE_CURVE('',#24,#32,#34,.T.);
#32 = VERTEX_POINT('',#33);
#33 = CARTESIAN_POINT('',(2.,-120.,56.));
#34 = LINE('',#35,#36);
#35 = CARTESIAN_POINT('',(2.,-1.7763568394E-15,56.));
#36 = VECTOR('',#37,1.);
#37 = DIRECTION('',(4.440892098501E-16,-1.,1.887379141863E-15));
#38 = ORIENTED_EDGE('',*,*,#39,.F.);
#39 = EDGE_CURVE('',#40,#32,#42,.T.);
#40 = VERTEX_POINT('',#41);
#41 = CARTESIAN_POINT('',(-2.6645352591E-14,-120.,56.));
#42 = LINE('',#43,#44);
#43 = CARTESIAN_POINT('',(2.6645352591E-14,-120.,56.));
#44 = VECTOR('',#45,1.);
#45 = DIRECTION('',(1.,-1.33226762955E-15,1.665334536938E-16));
#46 = ORIENTED_EDGE('',*,*,#47,.F.);
#47 = EDGE_CURVE('',#22,#40,#48,.T.);
#48 = LINE('',#49,#50);
#49 = CARTESIAN_POINT('',(0.,0.,56.));
#50 = VECTOR('',#51,1.);
#51 = DIRECTION('',(4.440892098501E-16,-1.,1.887379141863E-15));
#52 = PLANE('',#53);
#53 = AXIS2_PLACEMENT_3D('',#54,#55,#56);
#54 = CARTESIAN_POINT('',(0.,0.,56.));
#55 = DIRECTION('',(1.498801083244E-15,-3.330669073875E-16,-1.));
#56 = DIRECTION('',(2.22044604925E-16,-1.,1.665334536938E-15));
#57 = ADVANCED_FACE('',(#58),#83,.T.);
#58 = FACE_BOUND('',#59,.T.);
#59 = EDGE_LOOP('',(#60,#61,#69,#77));
#60 = ORIENTED_EDGE('',*,*,#21,.T.);
#61 = ORIENTED_EDGE('',*,*,#62,.T.);
#62 = EDGE_CURVE('',#24,#63,#65,.T.);
#63 = VERTEX_POINT('',#64);
#64 = CARTESIAN_POINT('',(2.,-2.886579864025E-15,54.));
#65 = LINE('',#66,#67);
#66 = CARTESIAN_POINT('',(2.,-1.7763568394E-15,56.));
#67 = VECTOR('',#68,1.);
#68 = DIRECTION('',(1.887379141863E-15,1.110223024625E-16,-1.));
#69 = ORIENTED_EDGE('',*,*,#70,.F.);
#70 = EDGE_CURVE('',#71,#63,#73,.T.);
#71 = VERTEX_POINT('',#72);
#72 = CARTESIAN_POINT('',(2.442490654175E-15,-1.110223024625E-15,54.));
#73 = LINE('',#74,#75);
#74 = CARTESIAN_POINT('',(3.330669073875E-15,-2.22044604925E-16,54.));
#75 = VECTOR('',#76,1.);
#76 = DIRECTION('',(1.,-1.33226762955E-15,1.665334536938E-16));
#77 = ORIENTED_EDGE('',*,*,#78,.F.);
#78 = EDGE_CURVE('',#22,#71,#79,.T.);
#79 = LINE('',#80,#81);
#80 = CARTESIAN_POINT('',(0.,0.,56.));
#81 = VECTOR('',#82,1.);
#82 = DIRECTION('',(1.887379141863E-15,1.110223024625E-16,-1.));
#83 = PLANE('',#84);
#84 = AXIS2_PLACEMENT_3D('',#85,#86,#87);
#85 = CARTESIAN_POINT('',(0.,0.,56.));
#86 = DIRECTION('',(8.381647117973E-31,1.,-1.443289932013E-15));
#87 = DIRECTION('',(1.665334536938E-15,-1.110223024625E-16,-1.));
#88 = ADVANCED_FACE('',(#89),#114,.F.);
#89 = FACE_BOUND('',#90,.F.);
#90 = EDGE_LOOP('',(#91,#92,#100,#108));
#91 = ORIENTED_EDGE('',*,*,#39,.T.);
#92 = ORIENTED_EDGE('',*,*,#93,.T.);
#93 = EDGE_CURVE('',#32,#94,#96,.T.);
#94 = VERTEX_POINT('',#95);
#95 = CARTESIAN_POINT('',(2.,-120.,54.));
#96 = LINE('',#97,#98);
#97 = CARTESIAN_POINT('',(2.,-120.,56.));
#98 = VECTOR('',#99,1.);
#99 = DIRECTION('',(1.887379141863E-15,1.110223024625E-16,-1.));
#100 = ORIENTED_EDGE('',*,*,#101,.F.);
#101 = EDGE_CURVE('',#102,#94,#104,.T.);
#102 = VERTEX_POINT('',#103);
#103 = CARTESIAN_POINT('',(-2.420286193683E-14,-120.,54.));
#104 = LINE('',#105,#106);
#105 = CARTESIAN_POINT('',(2.997602166488E-14,-120.,54.));
#106 = VECTOR('',#107,1.);
#107 = DIRECTION('',(1.,-1.33226762955E-15,1.665334536938E-16));
#108 = ORIENTED_EDGE('',*,*,#109,.F.);
#109 = EDGE_CURVE('',#40,#102,#110,.T.);
#110 = LINE('',#111,#112);
#111 = CARTESIAN_POINT('',(5.329070518201E-14,-120.,56.));
#112 = VECTOR('',#113,1.);
#113 = DIRECTION('',(1.887379141863E-15,1.110223024625E-16,-1.));
#114 = PLANE('',#115);
#115 = AXIS2_PLACEMENT_3D('',#116,#117,#118);
#116 = CARTESIAN_POINT('',(2.6645352591E-14,-120.,56.));
#117 = DIRECTION('',(8.381647117973E-31,1.,-1.443289932013E-15));
#118 = DIRECTION('',(1.665334536938E-15,-1.110223024625E-16,-1.));
#119 = ADVANCED_FACE('',(#120),#147,.F.);
#120 = FACE_BOUND('',#121,.F.);
#121 = EDGE_LOOP('',(#122,#123,#124,#125,#133,#141));
#122 = ORIENTED_EDGE('',*,*,#78,.F.);
#123 = ORIENTED_EDGE('',*,*,#47,.T.);
#124 = ORIENTED_EDGE('',*,*,#109,.T.);
#125 = ORIENTED_EDGE('',*,*,#126,.T.);
#126 = EDGE_CURVE('',#102,#127,#129,.T.);
#127 = VERTEX_POINT('',#128);
#128 = CARTESIAN_POINT('',(-1.599837795848E-14,-83.05028901232,54.));
#129 = LINE('',#130,#131);
#130 = CARTESIAN_POINT('',(5.706546346573E-14,-120.,54.));
#131 = VECTOR('',#132,1.);
#132 = DIRECTION('',(-4.440892098501E-16,1.,-1.887379141863E-15));
#133 = ORIENTED_EDGE('',*,*,#134,.T.);
#134 = EDGE_CURVE('',#127,#135,#137,.T.);
#135 = VERTEX_POINT('',#136);
#136 = CARTESIAN_POINT('',(-5.761993324178E-15,-36.94971098767,54.));
#137 = LINE('',#138,#139);
#138 = CARTESIAN_POINT('',(2.93098878501E-14,-120.,54.));
#139 = VECTOR('',#140,1.);
#140 = DIRECTION('',(-2.22044604925E-16,1.,-1.33226762955E-15));
#141 = ORIENTED_EDGE('',*,*,#142,.F.);
#142 = EDGE_CURVE('',#71,#135,#143,.T.);
#143 = LINE('',#144,#145);
#144 = CARTESIAN_POINT('',(3.774758283726E-15,2.22044604925E-16,54.));
#145 = VECTOR('',#146,1.);
#146 = DIRECTION('',(4.440892098501E-16,-1.,1.887379141863E-15));
#147 = PLANE('',#148);
#148 = AXIS2_PLACEMENT_3D('',#149,#150,#151);
#149 = CARTESIAN_POINT('',(3.519962393889E-14,-60.,51.467645499439));
#150 = DIRECTION('',(1.,-1.554312234475E-15,-1.110223024625E-16));
#151 = DIRECTION('',(-1.887379141863E-15,-3.330669073875E-16,1.));
#152 = ADVANCED_FACE('',(#153,#178,#189),#200,.F.);
#153 = FACE_BOUND('',#154,.F.);
#154 = EDGE_LOOP('',(#155,#156,#164,#172));
#155 = ORIENTED_EDGE('',*,*,#31,.F.);
#156 = ORIENTED_EDGE('',*,*,#157,.T.);
#157 = EDGE_CURVE('',#24,#158,#160,.T.);
#158 = VERTEX_POINT('',#159);
#159 = CARTESIAN_POINT('',(15.,-9.992007221626E-15,56.));
#160 = LINE('',#161,#162);
#161 = CARTESIAN_POINT('',(0.,0.,56.));
#162 = VECTOR('',#163,1.);
#163 = DIRECTION('',(1.,-8.881784197001E-16,2.775557561563E-16));
#164 = ORIENTED_EDGE('',*,*,#165,.T.);
#165 = EDGE_CURVE('',#158,#166,#168,.T.);
#166 = VERTEX_POINT('',#167);
#167 = CARTESIAN_POINT('',(15.,-120.,56.));
#168 = LINE('',#169,#170);
#169 = CARTESIAN_POINT('',(15.,-9.992007221626E-15,56.));
#170 = VECTOR('',#171,1.);
#171 = DIRECTION('',(2.22044604925E-16,-1.,1.33226762955E-15));
#172 = ORIENTED_EDGE('',*,*,#173,.F.);
#173 = EDGE_CURVE('',#32,#166,#174,.T.);
#174 = LINE('',#175,#176);
#175 = CARTESIAN_POINT('',(-7.11946966962E-29,-120.,56.));
#176 = VECTOR('',#177,1.);
#177 = DIRECTION('',(1.,-8.881784197001E-16,2.775557561563E-16));
#178 = FACE_BOUND('',#179,.F.);
#179 = EDGE_LOOP('',(#180));
#180 = ORIENTED_EDGE('',*,*,#181,.T.);
#181 = EDGE_CURVE('',#182,#182,#184,.T.);
#182 = VERTEX_POINT('',#183);
#183 = CARTESIAN_POINT('',(8.,-3.54248,56.));
#184 = CIRCLE('',#185,2.25);
#185 = AXIS2_PLACEMENT_3D('',#186,#187,#188);
#186 = CARTESIAN_POINT('',(8.,-5.79248,56.));
#187 = DIRECTION('',(-3.330669073875E-16,1.110223024625E-16,1.));
#188 = DIRECTION('',(0.,1.,-1.110223024625E-16));
#189 = FACE_BOUND('',#190,.F.);
#190 = EDGE_LOOP('',(#191));
#191 = ORIENTED_EDGE('',*,*,#192,.T.);
#192 = EDGE_CURVE('',#193,#193,#195,.T.);
#193 = VERTEX_POINT('',#194);
#194 = CARTESIAN_POINT('',(8.,-111.75,56.));
#195 = CIRCLE('',#196,2.25);
#196 = AXIS2_PLACEMENT_3D('',#197,#198,#199);
#197 = CARTESIAN_POINT('',(8.,-114.,56.));
#198 = DIRECTION('',(-3.330669073875E-16,1.110223024625E-16,1.));
#199 = DIRECTION('',(0.,1.,-1.110223024625E-16));
#200 = PLANE('',#201);
#201 = AXIS2_PLACEMENT_3D('',#202,#203,#204);
#202 = CARTESIAN_POINT('',(0.,0.,56.));
#203 = DIRECTION('',(9.436895709314E-16,-4.440892098501E-16,-1.));
#204 = DIRECTION('',(-5.423418723394E-31,-1.,1.110223024625E-15));
#205 = ADVANCED_FACE('',(#206),#224,.T.);
#206 = FACE_BOUND('',#207,.T.);
#207 = EDGE_LOOP('',(#208,#209,#217,#223));
#208 = ORIENTED_EDGE('',*,*,#70,.T.);
#209 = ORIENTED_EDGE('',*,*,#210,.T.);
#210 = EDGE_CURVE('',#63,#211,#213,.T.);
#211 = VERTEX_POINT('',#212);
#212 = CARTESIAN_POINT('',(2.,-36.94971098767,54.));
#213 = LINE('',#214,#215);
#214 = CARTESIAN_POINT('',(2.,-1.554312234475E-15,54.));
#215 = VECTOR('',#216,1.);
#216 = DIRECTION('',(4.440892098501E-16,-1.,1.887379141863E-15));
#217 = ORIENTED_EDGE('',*,*,#218,.F.);
#218 = EDGE_CURVE('',#135,#211,#219,.T.);
#219 = LINE('',#220,#221);
#220 = CARTESIAN_POINT('',(1.153515305223E-14,-36.94971098767,54.));
#221 = VECTOR('',#222,1.);
#222 = DIRECTION('',(1.,-1.33226762955E-15,1.665334536938E-16));
#223 = ORIENTED_EDGE('',*,*,#142,.F.);
#224 = PLANE('',#225);
#225 = AXIS2_PLACEMENT_3D('',#226,#227,#228);
#226 = CARTESIAN_POINT('',(3.330669073875E-15,-2.22044604925E-16,54.));
#227 = DIRECTION('',(1.498801083244E-15,-3.330669073875E-16,-1.));
#228 = DIRECTION('',(2.22044604925E-16,-1.,1.665334536938E-15));
#229 = ADVANCED_FACE('',(#230),#248,.F.);
#230 = FACE_BOUND('',#231,.F.);
#231 = EDGE_LOOP('',(#232,#233,#241,#247));
#232 = ORIENTED_EDGE('',*,*,#62,.T.);
#233 = ORIENTED_EDGE('',*,*,#234,.T.);
#234 = EDGE_CURVE('',#63,#235,#237,.T.);
#235 = VERTEX_POINT('',#236);
#236 = CARTESIAN_POINT('',(15.,-1.088018564133E-14,54.));
#237 = LINE('',#238,#239);
#238 = CARTESIAN_POINT('',(2.22044604925E-15,-4.440892098501E-16,54.));
#239 = VECTOR('',#240,1.);
#240 = DIRECTION('',(1.,-8.881784197001E-16,2.775557561563E-16));
#241 = ORIENTED_EDGE('',*,*,#242,.T.);
#242 = EDGE_CURVE('',#235,#158,#243,.T.);
#243 = LINE('',#244,#245);
#244 = CARTESIAN_POINT('',(15.,-9.992007221626E-15,54.));
#245 = VECTOR('',#246,1.);
#246 = DIRECTION('',(-1.33226762955E-15,5.916456789158E-31,1.));
#247 = ORIENTED_EDGE('',*,*,#157,.F.);
#248 = PLANE('',#249);
#249 = AXIS2_PLACEMENT_3D('',#250,#251,#252);
#250 = CARTESIAN_POINT('',(2.22044604925E-15,-4.440892098501E-16,54.));
#251 = DIRECTION('',(-2.22044604925E-16,-1.,8.881784197001E-16));
#252 = DIRECTION('',(-1.110223024625E-15,2.22044604925E-16,1.));
#253 = ADVANCED_FACE('',(#254),#272,.F.);
#254 = FACE_BOUND('',#255,.F.);
#255 = EDGE_LOOP('',(#256,#257,#265,#271));
#256 = ORIENTED_EDGE('',*,*,#101,.T.);
#257 = ORIENTED_EDGE('',*,*,#258,.T.);
#258 = EDGE_CURVE('',#94,#259,#261,.T.);
#259 = VERTEX_POINT('',#260);
#260 = CARTESIAN_POINT('',(2.,-83.05028901232,54.));
#261 = LINE('',#262,#263);
#262 = CARTESIAN_POINT('',(2.,-120.,54.));
#263 = VECTOR('',#264,1.);
#264 = DIRECTION('',(-4.440892098501E-16,1.,-1.887379141863E-15));
#265 = ORIENTED_EDGE('',*,*,#266,.F.);
#266 = EDGE_CURVE('',#127,#259,#267,.T.);
#267 = LINE('',#268,#269);
#268 = CARTESIAN_POINT('',(2.177153768653E-14,-83.05028901232,54.));
#269 = VECTOR('',#270,1.);
#270 = DIRECTION('',(1.,-1.33226762955E-15,1.665334536938E-16));
#271 = ORIENTED_EDGE('',*,*,#126,.F.);
#272 = PLANE('',#273);
#273 = AXIS2_PLACEMENT_3D('',#274,#275,#276);
#274 = CARTESIAN_POINT('',(2.997602166488E-14,-120.,54.));
#275 = DIRECTION('',(-1.498801083244E-15,3.330669073875E-16,1.));
#276 = DIRECTION('',(-2.22044604925E-16,1.,-1.665334536938E-15));
#277 = ADVANCED_FACE('',(#278),#296,.F.);
#278 = FACE_BOUND('',#279,.F.);
#279 = EDGE_LOOP('',(#280,#281,#282,#290));
#280 = ORIENTED_EDGE('',*,*,#93,.F.);
#281 = ORIENTED_EDGE('',*,*,#173,.T.);
#282 = ORIENTED_EDGE('',*,*,#283,.T.);
#283 = EDGE_CURVE('',#166,#284,#286,.T.);
#284 = VERTEX_POINT('',#285);
#285 = CARTESIAN_POINT('',(15.,-120.,54.));
#286 = LINE('',#287,#288);
#287 = CARTESIAN_POINT('',(15.,-120.,56.));
#288 = VECTOR('',#289,1.);
#289 = DIRECTION('',(1.33226762955E-15,-5.916456789158E-31,-1.));
#290 = ORIENTED_EDGE('',*,*,#291,.F.);
#291 = EDGE_CURVE('',#94,#284,#292,.T.);
#292 = LINE('',#293,#294);
#293 = CARTESIAN_POINT('',(2.22044604925E-15,-120.,54.));
#294 = VECTOR('',#295,1.);
#295 = DIRECTION('',(1.,-8.881784197001E-16,2.775557561563E-16));
#296 = PLANE('',#297);
#297 = AXIS2_PLACEMENT_3D('',#298,#299,#300);
#298 = CARTESIAN_POINT('',(-7.11946966962E-29,-120.,56.));
#299 = DIRECTION('',(2.22044604925E-16,1.,-8.881784197001E-16));
#300 = DIRECTION('',(1.110223024625E-15,-2.22044604925E-16,-1.));
#301 = ADVANCED_FACE('',(#302),#312,.F.);
#302 = FACE_BOUND('',#303,.F.);
#303 = EDGE_LOOP('',(#304,#311));
#304 = ORIENTED_EDGE('',*,*,#305,.T.);
#305 = EDGE_CURVE('',#127,#135,#306,.T.);
#306 = CIRCLE('',#307,23.050289012321);
#307 = AXIS2_PLACEMENT_3D('',#308,#309,#310);
#308 = CARTESIAN_POINT('',(3.042011087473E-14,-60.,54.));
#309 = DIRECTION('',(1.,4.440892098501E-16,1.887379141863E-15));
#310 = DIRECTION('',(-4.440892098501E-16,1.,-1.887379141863E-15));
#311 = ORIENTED_EDGE('',*,*,#134,.F.);
#312 = PLANE('',#313);
#313 = AXIS2_PLACEMENT_3D('',#314,#315,#316);
#314 = CARTESIAN_POINT('',(3.519962393889E-14,-60.,51.467645499439));
#315 = DIRECTION('',(1.,-1.554312234475E-15,-1.110223024625E-16));
#316 = DIRECTION('',(-1.887379141863E-15,-3.330669073875E-16,1.));
#317 = ADVANCED_FACE('',(#318),#329,.T.);
#318 = FACE_BOUND('',#319,.T.);
#319 = EDGE_LOOP('',(#320,#321,#322,#328));
#320 = ORIENTED_EDGE('',*,*,#165,.T.);
#321 = ORIENTED_EDGE('',*,*,#283,.T.);
#322 = ORIENTED_EDGE('',*,*,#323,.T.);
#323 = EDGE_CURVE('',#284,#235,#324,.T.);
#324 = LINE('',#325,#326);
#325 = CARTESIAN_POINT('',(15.,-120.,54.));
#326 = VECTOR('',#327,1.);
#327 = DIRECTION('',(-2.22044604925E-16,1.,-1.33226762955E-15));
#328 = ORIENTED_EDGE('',*,*,#242,.T.);
#329 = PLANE('',#330);
#330 = AXIS2_PLACEMENT_3D('',#331,#332,#333);
#331 = CARTESIAN_POINT('',(15.,-60.,55.));
#332 = DIRECTION('',(1.,-1.110223024625E-15,1.417484439069E-30));
#333 = DIRECTION('',(-1.33226762955E-15,-2.22044604925E-16,1.));
#334 = ADVANCED_FACE('',(#335),#354,.F.);
#335 = FACE_BOUND('',#336,.T.);
#336 = EDGE_LOOP('',(#337,#345,#346,#347));
#337 = ORIENTED_EDGE('',*,*,#338,.F.);
#338 = EDGE_CURVE('',#182,#339,#341,.T.);
#339 = VERTEX_POINT('',#340);
#340 = CARTESIAN_POINT('',(8.,-3.54248,54.));
#341 = LINE('',#342,#343);
#342 = CARTESIAN_POINT('',(8.,-3.54248,56.));
#343 = VECTOR('',#344,1.);
#344 = DIRECTION('',(3.330669073875E-16,-1.722704848655E-16,-1.));
#345 = ORIENTED_EDGE('',*,*,#181,.T.);
#346 = ORIENTED_EDGE('',*,*,#338,.T.);
#347 = ORIENTED_EDGE('',*,*,#348,.T.);
#348 = EDGE_CURVE('',#339,#339,#349,.T.);
#349 = CIRCLE('',#350,2.25);
#350 = AXIS2_PLACEMENT_3D('',#351,#352,#353);
#351 = CARTESIAN_POINT('',(8.,-5.79248,54.));
#352 = DIRECTION('',(3.330669073875E-16,-1.110223024625E-16,-1.));
#353 = DIRECTION('',(0.,1.,-1.110223024625E-16));
#354 = CYLINDRICAL_SURFACE('',#355,2.25);
#355 = AXIS2_PLACEMENT_3D('',#356,#357,#358);
#356 = CARTESIAN_POINT('',(8.,-5.79248,56.));
#357 = DIRECTION('',(3.330669073875E-16,-1.110223024625E-16,-1.));
#358 = DIRECTION('',(0.,1.,-1.110223024625E-16));
#359 = ADVANCED_FACE('',(#360),#379,.F.);
#360 = FACE_BOUND('',#361,.T.);
#361 = EDGE_LOOP('',(#362,#370,#371,#372));
#362 = ORIENTED_EDGE('',*,*,#363,.F.);
#363 = EDGE_CURVE('',#193,#364,#366,.T.);
#364 = VERTEX_POINT('',#365);
#365 = CARTESIAN_POINT('',(8.,-111.75,54.));
#366 = LINE('',#367,#368);
#367 = CARTESIAN_POINT('',(8.,-111.75,56.));
#368 = VECTOR('',#369,1.);
#369 = DIRECTION('',(3.330669073875E-16,-1.722704848655E-16,-1.));
#370 = ORIENTED_EDGE('',*,*,#192,.T.);
#371 = ORIENTED_EDGE('',*,*,#363,.T.);
#372 = ORIENTED_EDGE('',*,*,#373,.T.);
#373 = EDGE_CURVE('',#364,#364,#374,.T.);
#374 = CIRCLE('',#375,2.25);
#375 = AXIS2_PLACEMENT_3D('',#376,#377,#378);
#376 = CARTESIAN_POINT('',(8.,-114.,54.));
#377 = DIRECTION('',(3.330669073875E-16,-1.110223024625E-16,-1.));
#378 = DIRECTION('',(0.,1.,-1.110223024625E-16));
#379 = CYLINDRICAL_SURFACE('',#380,2.25);
#380 = AXIS2_PLACEMENT_3D('',#381,#382,#383);
#381 = CARTESIAN_POINT('',(8.,-114.,56.));
#382 = DIRECTION('',(3.330669073875E-16,-1.110223024625E-16,-1.));
#383 = DIRECTION('',(0.,1.,-1.110223024625E-16));
#384 = ADVANCED_FACE('',(#385),#397,.T.);
#385 = FACE_BOUND('',#386,.F.);
#386 = EDGE_LOOP('',(#387,#388,#395,#396));
#387 = ORIENTED_EDGE('',*,*,#266,.T.);
#388 = ORIENTED_EDGE('',*,*,#389,.T.);
#389 = EDGE_CURVE('',#259,#211,#390,.T.);
#390 = CIRCLE('',#391,23.050289012321);
#391 = AXIS2_PLACEMENT_3D('',#392,#393,#394);
#392 = CARTESIAN_POINT('',(2.,-60.,54.));
#393 = DIRECTION('',(1.,4.440892098501E-16,1.887379141863E-15));
#394 = DIRECTION('',(-4.440892098501E-16,1.,-1.887379141863E-15));
#395 = ORIENTED_EDGE('',*,*,#218,.F.);
#396 = ORIENTED_EDGE('',*,*,#305,.F.);
#397 = CYLINDRICAL_SURFACE('',#398,23.050289012321);
#398 = AXIS2_PLACEMENT_3D('',#399,#400,#401);
#399 = CARTESIAN_POINT('',(1.665334536938E-14,-60.,54.));
#400 = DIRECTION('',(-1.,1.110223024625E-15,-3.330669073875E-16));
#401 = DIRECTION('',(-2.22044604925E-16,1.,-1.665334536938E-15));
#402 = ADVANCED_FACE('',(#403,#416,#419),#422,.F.);
#403 = FACE_BOUND('',#404,.F.);
#404 = EDGE_LOOP('',(#405,#406,#407,#408,#409,#410));
#405 = ORIENTED_EDGE('',*,*,#258,.F.);
#406 = ORIENTED_EDGE('',*,*,#291,.T.);
#407 = ORIENTED_EDGE('',*,*,#323,.T.);
#408 = ORIENTED_EDGE('',*,*,#234,.F.);
#409 = ORIENTED_EDGE('',*,*,#210,.T.);
#410 = ORIENTED_EDGE('',*,*,#411,.T.);
#411 = EDGE_CURVE('',#211,#259,#412,.T.);
#412 = LINE('',#413,#414);
#413 = CARTESIAN_POINT('',(2.,-90.,54.));
#414 = VECTOR('',#415,1.);
#415 = DIRECTION('',(-4.440892098501E-16,-1.,1.110223024625E-15));
#416 = FACE_BOUND('',#417,.F.);
#417 = EDGE_LOOP('',(#418));
#418 = ORIENTED_EDGE('',*,*,#348,.T.);
#419 = FACE_BOUND('',#420,.F.);
#420 = EDGE_LOOP('',(#421));
#421 = ORIENTED_EDGE('',*,*,#373,.T.);
#422 = PLANE('',#423);
#423 = AXIS2_PLACEMENT_3D('',#424,#425,#426);
#424 = CARTESIAN_POINT('',(2.22044604925E-15,-120.,54.));
#425 = DIRECTION('',(-9.436895709314E-16,4.440892098501E-16,1.));
#426 = DIRECTION('',(5.423418723394E-31,1.,-1.110223024625E-15));
#427 = ADVANCED_FACE('',(#428),#432,.T.);
#428 = FACE_BOUND('',#429,.T.);
#429 = EDGE_LOOP('',(#430,#431));
#430 = ORIENTED_EDGE('',*,*,#389,.T.);
#431 = ORIENTED_EDGE('',*,*,#411,.T.);
#432 = PLANE('',#433);
#433 = AXIS2_PLACEMENT_3D('',#434,#435,#436);
#434 = CARTESIAN_POINT('',(2.,-60.,51.467645499439));
#435 = DIRECTION('',(1.,-1.554312234475E-15,-1.110223024625E-16));
#436 = DIRECTION('',(-1.887379141863E-15,-3.330669073875E-16,1.));
#437 = ( GEOMETRIC_REPRESENTATION_CONTEXT(3) 
GLOBAL_UNCERTAINTY_ASSIGNED_CONTEXT((#441)) GLOBAL_UNIT_ASSIGNED_CONTEXT
((#438,#439,#440)) REPRESENTATION_CONTEXT('Context #1',
  '3D Context with UNIT and UNCERTAINTY') );
#438 = ( LENGTH_UNIT() NAMED_UNIT(*) SI_UNIT(.MILLI.,.METRE.) );
#439 = ( NAMED_UNIT(*) PLANE_ANGLE_UNIT() SI_UNIT($,.RADIAN.) );
#440 = ( NAMED_UNIT(*) SI_UNIT($,.STERADIAN.) SOLID_ANGLE_UNIT() );
#441 = UNCERTAINTY_MEASURE_WITH_UNIT(LENGTH_MEASURE(2.E-07),#438,
  'distance_accuracy_value','confusion accuracy');
#442 = PRODUCT_RELATED_PRODUCT_CATEGORY('part',$,(#7));
#443 = MECHANICAL_DESIGN_GEOMETRIC_PRESENTATION_REPRESENTATION('',(#444)
  ,#437);
#444 = STYLED_ITEM('color',(#445),#15);
#445 = PRESENTATION_STYLE_ASSIGNMENT((#446,#452));
#446 = SURFACE_STYLE_USAGE(.BOTH.,#447);
#447 = SURFACE_SIDE_STYLE('',(#448));
#448 = SURFACE_STYLE_FILL_AREA(#449);
#449 = FILL_AREA_STYLE('',(#450));
#450 = FILL_AREA_STYLE_COLOUR('',#451);
#451 = COLOUR_RGB('',0.800000011921,0.800000011921,0.800000011921);
#452 = CURVE_STYLE('',#453,POSITIVE_LENGTH_MEASURE(0.1),#451);
#453 = DRAUGHTING_PRE_DEFINED_CURVE_FONT('continuous');
ENDSEC;
END-ISO-10303-21;
