  0
SECTION
  2
HEADER
  9
$MEASUREMENT
  70
  1
  9
$INSUNITS
  70
  4
  0
ENDSEC
  0
SECTION
  2
TABLES
  0
TABLE
  2
LTYPE
 70
     1
  0
LTYPE
  2
CONTINUOUS
 70
    64
  3
Ausgezogene Linie
 72
    65
 73
     0
 40
0.0
  0
ENDTAB
  0
TABLE
  2
LAYER
 70
     3
  0
LAYER
  2
Kontur
 70
    64
 62
     7
  6
CONTINUOUS
  0
LAYER
  2
Gravur
 70
    64
 62
     7
  6
CONTINUOUS
  0
LAYER
  2
Bezugspunkte
 70
    64
 62
     1
  6
CONTINUOUS
  0
ENDTAB
  0
TABLE
  2
STYLE
 70
     1
  0
STYLE
  2
TXT
 70
    64
 40
0.0
 41
1.0
 50
0.0
 71
     0
 42
3.500000
  3
TXT
  0
ENDTAB
  0
ENDSEC
  0
SECTION
  2
BLOCKS
  0
ENDSEC
  0
SECTION
  2
ENTITIES
  0
ARC
  8
Kontur
 62
   7
 39
0.100
  6
CONTINUOUS
 10
162.00000
 20
40.00000
 30
 0
 40
2.00000
 50
0.00000
 51
90.00000
  0
LINE
  8
Kontur
 62
   7
 39
0.100
  6
CONTINUOUS
 10
164.00000
 20
40.00000
 30
 0
 11
164.00000
 21
2.00000
  0
ARC
  8
Kontur
 62
   7
 39
0.100
  6
CONTINUOUS
 10
162.00000
 20
2.00000
 30
 0
 40
2.00000
 50
-90.00000
 51
0.00000
  0
LINE
  8
Kontur
 62
   7
 39
0.100
  6
CONTINUOUS
 10
162.00000
 20
0.00000
 30
 0
 11
2.00000
 21
0.00000
  0
ARC
  8
Kontur
 62
   7
 39
0.100
  6
CONTINUOUS
 10
2.00000
 20
2.00000
 30
 0
 40
2.00000
 50
180.00000
 51
270.00000
  0
LINE
  8
Kontur
 62
   7
 39
0.100
  6
CONTINUOUS
 10
0.00000
 20
2.00000
 30
 0
 11
0.00000
 21
40.00000
  0
ARC
  8
Kontur
 62
   7
 39
0.100
  6
CONTINUOUS
 10
2.00000
 20
40.00000
 30
 0
 40
2.00000
 50
90.00000
 51
180.00000
  0
LINE
  8
Kontur
 62
   7
 39
0.100
  6
CONTINUOUS
 10
2.00000
 20
42.00000
 30
 0
 11
162.00000
 21
42.00000
  0
LINE
  8
Gravur
 62
   255
 39
0.200
  6
CONTINUOUS
 10
63.13589
 20
35.75874
 30
 0
 11
62.51982
 21
34.38443
  0
LINE
  8
Gravur
 62
   255
 39
0.200
  6
CONTINUOUS
 10
62.51982
 20
34.38443
 30
 0
 11
63.70457
 21
34.38443
  0
LINE
  8
Gravur
 62
   255
 39
0.200
  6
CONTINUOUS
 10
63.70457
 20
34.38443
 30
 0
 11
63.13589
 21
35.75874
  0
LINE
  8
Gravur
 62
   255
 39
0.200
  6
CONTINUOUS
 10
63.46762
 20
37.37000
 30
 0
 11
61.57202
 21
33.10490
  0
ARC
  8
Gravur
 62
   255
 39
0.200
  6
CONTINUOUS
 10
61.35189
 20
33.20324
 30
 0
 40
0.24109
 50
265.99901
 51
335.92851
  0
LINE
  8
Gravur
 62
   255
 39
0.200
  6
CONTINUOUS
 10
61.33507
 20
32.96273
 30
 0
 11
61.05073
 21
32.96273
  0
LINE
  8
Gravur
 62
   255
 39
0.200
  6
CONTINUOUS
 10
61.05073
 20
32.96273
 30
 0
 11
61.05073
 21
32.63100
  0
LINE
  8
Gravur
 62
   255
 39
0.200
  6
CONTINUOUS
 10
61.05073
 20
32.63100
 30
 0
 11
62.80416
 21
32.63100
  0
LINE
  8
Gravur
 62
   255
 39
0.200
  6
CONTINUOUS
 10
62.80416
 20
32.63100
 30
 0
 11
62.80416
 21
32.96273
  0
LINE
  8
Gravur
 62
   255
 39
0.200
  6
CONTINUOUS
 10
62.80416
 20
32.96273
 30
 0
 11
62.23548
 21
32.96273
  0
ARC
  8
Gravur
 62
   255
 39
0.200
  6
CONTINUOUS
 10
62.23471
 20
33.18231
 30
 0
 40
0.21958
 50
149.28812
 51
270.20164
  0
LINE
  8
Gravur
 62
   255
 39
0.200
  6
CONTINUOUS
 10
62.04592
 20
33.29446
 30
 0
 11
62.37765
 21
34.05270
  0
LINE
  8
Gravur
 62
   255
 39
0.200
  6
CONTINUOUS
 10
62.37765
 20
34.05270
 30
 0
 11
63.84674
 21
34.05270
  0
LINE
  8
Gravur
 62
   255
 39
0.200
  6
CONTINUOUS
 10
63.84674
 20
34.05270
 30
 0
 11
64.17847
 21
33.29446
  0
ARC
  8
Gravur
 62
   255
 39
0.200
  6
CONTINUOUS
 10
63.96091
 20
33.19875
 30
 0
 40
0.23768
 50
-83.23533
 51
23.74557
  0
LINE
  8
Gravur
 62
   255
 39
0.200
  6
CONTINUOUS
 10
63.98891
 20
32.96273
 30
 0
 11
63.79935
 21
32.96273
  0
LINE
  8
Gravur
 62
   255
 39
0.200
  6
CONTINUOUS
 10
63.79935
 20
32.96273
 30
 0
 11
63.79935
 21
32.63100
  0
LINE
  8
Gravur
 62
   255
 39
0.200
  6
CONTINUOUS
 10
63.79935
 20
32.63100
 30
 0
 11
66.07407
 21
32.63100
  0
LINE
  8
Gravur
 62
   255
 39
0.200
  6
CONTINUOUS
 10
66.07407
 20
32.63100
 30
 0
 11
66.07407
 21
32.96273
  0
LINE
  8
Gravur
 62
   255
 39
0.200
  6
CONTINUOUS
 10
66.07407
 20
32.96273
 30
 0
 11
65.88451
 21
32.96273
  0
ARC
  8
Gravur
 62
   255
 39
0.200
  6
CONTINUOUS
 10
65.88521
 20
33.23244
 30
 0
 40
0.26971
 50
208.22084
 51
269.85165
  0
LINE
  8
Gravur
 62
   255
 39
0.200
  6
CONTINUOUS
 10
65.64756
 20
33.10490
 30
 0
 11
63.89413
 21
37.37000
  0
LINE
  8
Gravur
 62
   255
 39
0.200
  6
CONTINUOUS
 10
63.89413
 20
37.37000
 30
 0
 11
63.46762
 21
37.37000
  0
LINE
  8
Gravur
 62
   255
 39
0.200
  6
CONTINUOUS
 10
66.73673
 20
37.37000
 30
 0
 11
66.73673
 21
37.03827
  0
LINE
  8
Gravur
 62
   255
 39
0.200
  6
CONTINUOUS
 10
66.73673
 20
37.03827
 30
 0
 11
67.06846
 21
37.03827
  0
ARC
  8
Gravur
 62
   255
 39
0.200
  6
CONTINUOUS
 10
67.06971
 20
36.80257
 30
 0
 40
0.23570
 50
-0.30378
 51
90.30378
  0
LINE
  8
Gravur
 62
   255
 39
0.200
  6
CONTINUOUS
 10
67.30541
 20
36.80132
 30
 0
 11
67.30541
 21
33.19968
  0
ARC
  8
Gravur
 62
   255
 39
0.200
  6
CONTINUOUS
 10
67.06971
 20
33.19843
 30
 0
 40
0.23570
 50
-90.30378
 51
0.30378
  0
LINE
  8
Gravur
 62
   255
 39
0.200
  6
CONTINUOUS
 10
67.06846
 20
32.96273
 30
 0
 11
66.73673
 21
32.96273
  0
LINE
  8
Gravur
 62
   255
 39
0.200
  6
CONTINUOUS
 10
66.73673
 20
32.96273
 30
 0
 11
66.73673
 21
32.63100
  0
LINE
  8
Gravur
 62
   255
 39
0.200
  6
CONTINUOUS
 10
66.73673
 20
32.63100
 30
 0
 11
70.90705
 21
32.63100
  0
LINE
  8
Gravur
 62
   255
 39
0.200
  6
CONTINUOUS
 10
70.90705
 20
32.63100
 30
 0
 11
71.00183
 21
34.52660
  0
LINE
  8
Gravur
 62
   255
 39
0.200
  6
CONTINUOUS
 10
71.00183
 20
34.52660
 30
 0
 11
70.67010
 21
34.52660
  0
LINE
  8
Gravur
 62
   255
 39
0.200
  6
CONTINUOUS
 10
70.67010
 20
34.52660
 30
 0
 11
70.62271
 21
34.10009
  0
ARC
  8
Gravur
 62
   255
 39
0.200
  6
CONTINUOUS
 10
69.43646
 20
34.15003
 30
 0
 40
1.18730
 50
270.07256
 51
357.58916
  0
LINE
  8
Gravur
 62
   255
 39
0.200
  6
CONTINUOUS
 10
69.43796
 20
32.96273
 30
 0
 11
68.58494
 21
32.96273
  0
ARC
  8
Gravur
 62
   255
 39
0.200
  6
CONTINUOUS
 10
68.58369
 20
33.19843
 30
 0
 40
0.23570
 50
179.69622
 51
270.30378
  0
LINE
  8
Gravur
 62
   255
 39
0.200
  6
CONTINUOUS
 10
68.34799
 20
33.19968
 30
 0
 11
68.34799
 21
34.81094
  0
LINE
  8
Gravur
 62
   255
 39
0.200
  6
CONTINUOUS
 10
68.34799
 20
34.81094
 30
 0
 11
68.86928
 21
34.81094
  0
ARC
  8
Gravur
 62
   255
 39
0.200
  6
CONTINUOUS
 10
68.87228
 20
34.24526
 30
 0
 40
0.56569
 50
-0.30378
 51
90.30378
  0
LINE
  8
Gravur
 62
   255
 39
0.200
  6
CONTINUOUS
 10
69.43796
 20
34.24226
 30
 0
 11
69.43796
 21
33.91053
  0
LINE
  8
Gravur
 62
   255
 39
0.200
  6
CONTINUOUS
 10
69.43796
 20
33.91053
 30
 0
 11
69.76969
 21
33.91053
  0
LINE
  8
Gravur
 62
   255
 39
0.200
  6
CONTINUOUS
 10
69.76969
 20
33.91053
 30
 0
 11
69.76969
 21
36.09047
  0
LINE
  8
Gravur
 62
   255
 39
0.200
  6
CONTINUOUS
 10
69.76969
 20
36.09047
 30
 0
 11
69.43796
 21
36.09047
  0
LINE
  8
Gravur
 62
   255
 39
0.200
  6
CONTINUOUS
 10
69.43796
 20
36.09047
 30
 0
 11
69.43796
 21
35.75874
  0
ARC
  8
Gravur
 62
   255
 39
0.200
  6
CONTINUOUS
 10
68.87228
 20
35.75574
 30
 0
 40
0.56569
 50
-90.30378
 51
0.30378
  0
LINE
  8
Gravur
 62
   255
 39
0.200
  6
CONTINUOUS
 10
68.86928
 20
35.19006
 30
 0
 11
68.34799
 21
35.19006
  0
LINE
  8
Gravur
 62
   255
 39
0.200
  6
CONTINUOUS
 10
68.34799
 20
35.19006
 30
 0
 11
68.34799
 21
36.80132
  0
ARC
  8
Gravur
 62
   255
 39
0.200
  6
CONTINUOUS
 10
68.58369
 20
36.80257
 30
 0
 40
0.23570
 50
89.69622
 51
180.30378
  0
LINE
  8
Gravur
 62
   255
 39
0.200
  6
CONTINUOUS
 10
68.58494
 20
37.03827
 30
 0
 11
69.43796
 21
37.03827
  0
ARC
  8
Gravur
 62
   255
 39
0.200
  6
CONTINUOUS
 10
69.43646
 20
35.85097
 30
 0
 40
1.18730
 50
2.41084
 51
89.92744
  0
LINE
  8
Gravur
 62
   255
 39
0.200
  6
CONTINUOUS
 10
70.62271
 20
35.90091
 30
 0
 11
70.67010
 21
35.47440
  0
LINE
  8
Gravur
 62
   255
 39
0.200
  6
CONTINUOUS
 10
70.67010
 20
35.47440
 30
 0
 11
71.00183
 21
35.47440
  0
LINE
  8
Gravur
 62
   255
 39
0.200
  6
CONTINUOUS
 10
71.00183
 20
35.47440
 30
 0
 11
70.90705
 21
37.37000
  0
LINE
  8
Gravur
 62
   255
 39
0.200
  6
CONTINUOUS
 10
70.90705
 20
37.37000
 30
 0
 11
66.73673
 21
37.37000
  0
LINE
  8
Gravur
 62
   255
 39
0.200
  6
CONTINUOUS
 10
71.71212
 20
37.37000
 30
 0
 11
71.61734
 21
35.61657
  0
LINE
  8
Gravur
 62
   255
 39
0.200
  6
CONTINUOUS
 10
71.61734
 20
35.61657
 30
 0
 11
71.94907
 21
35.61657
  0
LINE
  8
Gravur
 62
   255
 39
0.200
  6
CONTINUOUS
 10
71.94907
 20
35.61657
 30
 0
 11
71.94907
 21
35.94830
  0
ARC
  8
Gravur
 62
   255
 39
0.200
  6
CONTINUOUS
 10
73.04779
 20
35.94444
 30
 0
 40
1.09872
 50
95.40666
 51
179.79846
  0
ARC
  8
Gravur
 62
   255
 39
0.200
  6
CONTINUOUS
 10
72.96217
 20
36.83713
 30
 0
 40
0.20193
 50
31.78264
 51
95.08726
  0
ARC
  8
Gravur
 62
   255
 39
0.200
  6
CONTINUOUS
 10
72.86079
 20
36.77350
 30
 0
 40
0.32163
 50
4.96293
 51
31.90697
  0
LINE
  8
Gravur
 62
   255
 39
0.200
  6
CONTINUOUS
 10
73.18121
 20
36.80132
 30
 0
 11
73.18121
 21
33.19968
  0
ARC
  8
Gravur
 62
   255
 39
0.200
  6
CONTINUOUS
 10
72.94551
 20
33.19843
 30
 0
 40
0.23570
 50
-90.30378
 51
0.30378
  0
LINE
  8
Gravur
 62
   255
 39
0.200
  6
CONTINUOUS
 10
72.94426
 20
32.96273
 30
 0
 11
72.61253
 21
32.96273
  0
LINE
  8
Gravur
 62
   255
 39
0.200
  6
CONTINUOUS
 10
72.61253
 20
32.96273
 30
 0
 11
72.61253
 21
32.63100
  0
LINE
  8
Gravur
 62
   255
 39
0.200
  6
CONTINUOUS
 10
72.61253
 20
32.63100
 30
 0
 11
74.83986
 21
32.63100
  0
LINE
  8
Gravur
 62
   255
 39
0.200
  6
CONTINUOUS
 10
74.83986
 20
32.63100
 30
 0
 11
74.83986
 21
32.96273
  0
LINE
  8
Gravur
 62
   255
 39
0.200
  6
CONTINUOUS
 10
74.83986
 20
32.96273
 30
 0
 11
74.50813
 21
32.96273
  0
ARC
  8
Gravur
 62
   255
 39
0.200
  6
CONTINUOUS
 10
74.50688
 20
33.19843
 30
 0
 40
0.23570
 50
179.69622
 51
270.30378
  0
LINE
  8
Gravur
 62
   255
 39
0.200
  6
CONTINUOUS
 10
74.27118
 20
33.19968
 30
 0
 11
74.27118
 21
36.80132
  0
ARC
  8
Gravur
 62
   255
 39
0.200
  6
CONTINUOUS
 10
74.50688
 20
36.80257
 30
 0
 40
0.23570
 50
89.69622
 51
180.30378
  0
ARC
  8
Gravur
 62
   255
 39
0.200
  6
CONTINUOUS
 10
74.50791
 20
36.03875
 30
 0
 40
0.99952
 50
-5.19223
 51
89.98711
  0
ARC
  8
Gravur
 62
   255
 39
0.200
  6
CONTINUOUS
 10
77.25481
 20
35.78244
 30
 0
 40
1.75932
 50
174.59025
 51
185.40975
  0
LINE
  8
Gravur
 62
   255
 39
0.200
  6
CONTINUOUS
 10
75.50332
 20
35.61657
 30
 0
 11
75.83505
 21
35.61657
  0
LINE
  8
Gravur
 62
   255
 39
0.200
  6
CONTINUOUS
 10
75.83505
 20
35.61657
 30
 0
 11
75.74027
 21
37.37000
  0
LINE
  8
Gravur
 62
   255
 39
0.200
  6
CONTINUOUS
 10
75.74027
 20
37.37000
 30
 0
 11
71.71212
 21
37.37000
  0
LINE
  8
Gravur
 62
   255
 39
0.200
  6
CONTINUOUS
 10
76.49773
 20
37.37000
 30
 0
 11
76.49773
 21
37.03827
  0
LINE
  8
Gravur
 62
   255
 39
0.200
  6
CONTINUOUS
 10
76.49773
 20
37.03827
 30
 0
 11
76.82946
 21
37.03827
  0
ARC
  8
Gravur
 62
   255
 39
0.200
  6
CONTINUOUS
 10
76.83071
 20
36.80257
 30
 0
 40
0.23570
 50
-0.30378
 51
90.30378
  0
LINE
  8
Gravur
 62
   255
 39
0.200
  6
CONTINUOUS
 10
77.06641
 20
36.80132
 30
 0
 11
77.06641
 21
33.19968
  0
ARC
  8
Gravur
 62
   255
 39
0.200
  6
CONTINUOUS
 10
76.83071
 20
33.19843
 30
 0
 40
0.23570
 50
-90.30378
 51
0.30378
  0
LINE
  8
Gravur
 62
   255
 39
0.200
  6
CONTINUOUS
 10
76.82946
 20
32.96273
 30
 0
 11
76.49773
 21
32.96273
  0
LINE
  8
Gravur
 62
   255
 39
0.200
  6
CONTINUOUS
 10
76.49773
 20
32.96273
 30
 0
 11
76.49773
 21
32.63100
  0
LINE
  8
Gravur
 62
   255
 39
0.200
  6
CONTINUOUS
 10
76.49773
 20
32.63100
 30
 0
 11
80.66805
 21
32.63100
  0
LINE
  8
Gravur
 62
   255
 39
0.200
  6
CONTINUOUS
 10
80.66805
 20
32.63100
 30
 0
 11
80.76283
 21
34.52660
  0
LINE
  8
Gravur
 62
   255
 39
0.200
  6
CONTINUOUS
 10
80.76283
 20
34.52660
 30
 0
 11
80.43110
 21
34.52660
  0
LINE
  8
Gravur
 62
   255
 39
0.200
  6
CONTINUOUS
 10
80.43110
 20
34.52660
 30
 0
 11
80.38371
 21
34.10009
  0
ARC
  8
Gravur
 62
   255
 39
0.200
  6
CONTINUOUS
 10
79.19746
 20
34.15003
 30
 0
 40
1.18730
 50
270.07256
 51
357.58916
  0
LINE
  8
Gravur
 62
   255
 39
0.200
  6
CONTINUOUS
 10
79.19896
 20
32.96273
 30
 0
 11
78.34594
 21
32.96273
  0
ARC
  8
Gravur
 62
   255
 39
0.200
  6
CONTINUOUS
 10
78.34469
 20
33.19843
 30
 0
 40
0.23570
 50
179.69622
 51
270.30378
  0
LINE
  8
Gravur
 62
   255
 39
0.200
  6
CONTINUOUS
 10
78.10899
 20
33.19968
 30
 0
 11
78.10899
 21
34.81094
  0
LINE
  8
Gravur
 62
   255
 39
0.200
  6
CONTINUOUS
 10
78.10899
 20
34.81094
 30
 0
 11
78.63028
 21
34.81094
  0
ARC
  8
Gravur
 62
   255
 39
0.200
  6
CONTINUOUS
 10
78.63328
 20
34.24526
 30
 0
 40
0.56569
 50
-0.30378
 51
90.30378
  0
LINE
  8
Gravur
 62
   255
 39
0.200
  6
CONTINUOUS
 10
79.19896
 20
34.24226
 30
 0
 11
79.19896
 21
33.91053
  0
LINE
  8
Gravur
 62
   255
 39
0.200
  6
CONTINUOUS
 10
79.19896
 20
33.91053
 30
 0
 11
79.53069
 21
33.91053
  0
LINE
  8
Gravur
 62
   255
 39
0.200
  6
CONTINUOUS
 10
79.53069
 20
33.91053
 30
 0
 11
79.53069
 21
36.09047
  0
LINE
  8
Gravur
 62
   255
 39
0.200
  6
CONTINUOUS
 10
79.53069
 20
36.09047
 30
 0
 11
79.19896
 21
36.09047
  0
LINE
  8
Gravur
 62
   255
 39
0.200
  6
CONTINUOUS
 10
79.19896
 20
36.09047
 30
 0
 11
79.19896
 21
35.75874
  0
ARC
  8
Gravur
 62
   255
 39
0.200
  6
CONTINUOUS
 10
78.63328
 20
35.75574
 30
 0
 40
0.56569
 50
-90.30378
 51
0.30378
  0
LINE
  8
Gravur
 62
   255
 39
0.200
  6
CONTINUOUS
 10
78.63028
 20
35.19006
 30
 0
 11
78.10899
 21
35.19006
  0
LINE
  8
Gravur
 62
   255
 39
0.200
  6
CONTINUOUS
 10
78.10899
 20
35.19006
 30
 0
 11
78.10899
 21
36.80132
  0
ARC
  8
Gravur
 62
   255
 39
0.200
  6
CONTINUOUS
 10
78.34469
 20
36.80257
 30
 0
 40
0.23570
 50
89.69622
 51
180.30378
  0
LINE
  8
Gravur
 62
   255
 39
0.200
  6
CONTINUOUS
 10
78.34594
 20
37.03827
 30
 0
 11
79.19896
 21
37.03827
  0
ARC
  8
Gravur
 62
   255
 39
0.200
  6
CONTINUOUS
 10
79.19746
 20
35.85097
 30
 0
 40
1.18730
 50
2.41084
 51
89.92744
  0
LINE
  8
Gravur
 62
   255
 39
0.200
  6
CONTINUOUS
 10
80.38371
 20
35.90091
 30
 0
 11
80.43110
 21
35.47440
  0
LINE
  8
Gravur
 62
   255
 39
0.200
  6
CONTINUOUS
 10
80.43110
 20
35.47440
 30
 0
 11
80.76283
 21
35.47440
  0
LINE
  8
Gravur
 62
   255
 39
0.200
  6
CONTINUOUS
 10
80.76283
 20
35.47440
 30
 0
 11
80.66805
 21
37.37000
  0
LINE
  8
Gravur
 62
   255
 39
0.200
  6
CONTINUOUS
 10
80.66805
 20
37.37000
 30
 0
 11
76.49773
 21
37.37000
  0
LINE
  8
Gravur
 62
   255
 39
0.200
  6
CONTINUOUS
 10
83.08438
 20
36.80132
 30
 0
 11
83.08438
 21
35.14267
  0
LINE
  8
Gravur
 62
   255
 39
0.200
  6
CONTINUOUS
 10
83.08438
 20
35.14267
 30
 0
 11
83.74784
 21
35.14267
  0
ARC
  8
Gravur
 62
   255
 39
0.200
  6
CONTINUOUS
 10
83.74801
 20
35.73470
 30
 0
 40
0.59203
 50
269.98345
 51
323.14665
  0
ARC
  8
Gravur
 62
   255
 39
0.200
  6
CONTINUOUS
 10
83.26454
 20
36.09047
 30
 0
 40
1.19228
 50
323.40100
 51
396.59900
  0
ARC
  8
Gravur
 62
   255
 39
0.200
  6
CONTINUOUS
 10
83.74801
 20
36.44624
 30
 0
 40
0.59203
 50
36.85335
 51
90.01655
  0
LINE
  8
Gravur
 62
   255
 39
0.200
  6
CONTINUOUS
 10
83.74784
 20
37.03827
 30
 0
 11
83.32133
 21
37.03827
  0
ARC
  8
Gravur
 62
   255
 39
0.200
  6
CONTINUOUS
 10
83.32008
 20
36.80257
 30
 0
 40
0.23570
 50
89.69622
 51
180.30378
  0
LINE
  8
Gravur
 62
   255
 39
0.200
  6
CONTINUOUS
 10
81.99441
 20
36.80132
 30
 0
 11
81.99441
 21
33.19968
  0
ARC
  8
Gravur
 62
   255
 39
0.200
  6
CONTINUOUS
 10
81.75871
 20
33.19843
 30
 0
 40
0.23570
 50
-90.30378
 51
0.30378
  0
LINE
  8
Gravur
 62
   255
 39
0.200
  6
CONTINUOUS
 10
81.75746
 20
32.96273
 30
 0
 11
81.42573
 21
32.96273
  0
LINE
  8
Gravur
 62
   255
 39
0.200
  6
CONTINUOUS
 10
81.42573
 20
32.96273
 30
 0
 11
81.42573
 21
32.63100
  0
LINE
  8
Gravur
 62
   255
 39
0.200
  6
CONTINUOUS
 10
81.42573
 20
32.63100
 30
 0
 11
83.65306
 21
32.63100
  0
LINE
  8
Gravur
 62
   255
 39
0.200
  6
CONTINUOUS
 10
83.65306
 20
32.63100
 30
 0
 11
83.65306
 21
32.96273
  0
LINE
  8
Gravur
 62
   255
 39
0.200
  6
CONTINUOUS
 10
83.65306
 20
32.96273
 30
 0
 11
83.32133
 21
32.96273
  0
ARC
  8
Gravur
 62
   255
 39
0.200
  6
CONTINUOUS
 10
83.32008
 20
33.19843
 30
 0
 40
0.23570
 50
179.69622
 51
270.30378
  0
LINE
  8
Gravur
 62
   255
 39
0.200
  6
CONTINUOUS
 10
83.08438
 20
33.19968
 30
 0
 11
83.08438
 21
34.81094
  0
LINE
  8
Gravur
 62
   255
 39
0.200
  6
CONTINUOUS
 10
83.08438
 20
34.81094
 30
 0
 11
83.70045
 21
34.81094
  0
ARC
  8
Gravur
 62
   255
 39
0.200
  6
CONTINUOUS
 10
83.70306
 20
34.37425
 30
 0
 40
0.43670
 50
13.90704
 51
90.34299
  0
ARC
  8
Gravur
 62
   255
 39
0.200
  6
CONTINUOUS
 10
82.50582
 20
34.06903
 30
 0
 40
1.67222
 50
-3.80995
 51
14.19881
  0
ARC
  8
Gravur
 62
   255
 39
0.200
  6
CONTINUOUS
 10
86.65053
 20
33.80391
 30
 0
 40
2.48096
 50
176.44097
 51
199.81923
  0
ARC
  8
Gravur
 62
   255
 39
0.200
  6
CONTINUOUS
 10
84.93509
 20
33.18805
 30
 0
 40
0.65833
 50
200.01464
 51
278.05784
  0
ARC
  8
Gravur
 62
   255
 39
0.200
  6
CONTINUOUS
 10
84.86710
 20
33.73907
 30
 0
 40
1.21348
 50
277.58958
 51
352.41042
  0
LINE
  8
Gravur
 62
   255
 39
0.200
  6
CONTINUOUS
 10
86.06995
 20
33.57880
 30
 0
 11
85.83300
 21
33.67358
  0
ARC
  8
Gravur
 62
   255
 39
0.200
  6
CONTINUOUS
 10
83.98673
 20
34.50856
 30
 0
 40
2.02630
 50
324.84537
 51
335.66487
  0
ARC
  8
Gravur
 62
   255
 39
0.200
  6
CONTINUOUS
 10
85.48993
 20
33.45205
 30
 0
 40
0.18897
 50
199.41310
 51
324.32670
  0
ARC
  8
Gravur
 62
   255
 39
0.200
  6
CONTINUOUS
 10
88.02645
 20
34.34016
 30
 0
 40
2.87647
 50
186.68493
 51
199.30430
  0
ARC
  8
Gravur
 62
   255
 39
0.200
  6
CONTINUOUS
 10
83.82103
 20
33.84071
 30
 0
 40
1.35852
 50
6.95917
 51
54.96835
  0
ARC
  8
Gravur
 62
   255
 39
0.200
  6
CONTINUOUS
 10
84.59992
 20
35.87151
 30
 0
 40
0.91840
 50
270.05865
 51
316.33853
  0
ARC
  8
Gravur
 62
   255
 39
0.200
  6
CONTINUOUS
 10
84.36882
 20
36.07943
 30
 0
 40
1.22917
 50
316.76433
 51
414.94770
  0
ARC
  8
Gravur
 62
   255
 39
0.200
  6
CONTINUOUS
 10
84.15678
 20
35.75342
 30
 0
 40
1.61788
 50
55.43119
 51
87.69891
  0
LINE
  8
Gravur
 62
   255
 39
0.200
  6
CONTINUOUS
 10
84.22174
 20
37.37000
 30
 0
 11
81.42573
 21
37.37000
  0
LINE
  8
Gravur
 62
   255
 39
0.200
  6
CONTINUOUS
 10
81.42573
 20
37.37000
 30
 0
 11
81.42573
 21
37.03827
  0
LINE
  8
Gravur
 62
   255
 39
0.200
  6
CONTINUOUS
 10
81.42573
 20
37.03827
 30
 0
 11
81.75746
 21
37.03827
  0
ARC
  8
Gravur
 62
   255
 39
0.200
  6
CONTINUOUS
 10
81.75871
 20
36.80257
 30
 0
 40
0.23570
 50
-0.30378
 51
90.30378
  0
LINE
  8
Gravur
 62
   255
 39
0.200
  6
CONTINUOUS
 10
86.73273
 20
37.37100
 30
 0
 11
86.73273
 21
37.03927
  0
LINE
  8
Gravur
 62
   255
 39
0.200
  6
CONTINUOUS
 10
86.73273
 20
37.03927
 30
 0
 11
87.06446
 21
37.03927
  0
ARC
  8
Gravur
 62
   255
 39
0.200
  6
CONTINUOUS
 10
87.06571
 20
36.80357
 30
 0
 40
0.23570
 50
-0.30378
 51
90.30378
  0
LINE
  8
Gravur
 62
   255
 39
0.200
  6
CONTINUOUS
 10
87.30141
 20
36.80232
 30
 0
 11
87.30141
 21
33.20068
  0
ARC
  8
Gravur
 62
   255
 39
0.200
  6
CONTINUOUS
 10
87.06571
 20
33.19943
 30
 0
 40
0.23570
 50
-90.30378
 51
0.30378
  0
LINE
  8
Gravur
 62
   255
 39
0.200
  6
CONTINUOUS
 10
87.06446
 20
32.96373
 30
 0
 11
86.73273
 21
32.96373
  0
LINE
  8
Gravur
 62
   255
 39
0.200
  6
CONTINUOUS
 10
86.73273
 20
32.96373
 30
 0
 11
86.73273
 21
32.63200
  0
LINE
  8
Gravur
 62
   255
 39
0.200
  6
CONTINUOUS
 10
86.73273
 20
32.63200
 30
 0
 11
88.20182
 21
32.63200
  0
LINE
  8
Gravur
 62
   255
 39
0.200
  6
CONTINUOUS
 10
88.20182
 20
32.63200
 30
 0
 11
88.20182
 21
32.96373
  0
LINE
  8
Gravur
 62
   255
 39
0.200
  6
CONTINUOUS
 10
88.20182
 20
32.96373
 30
 0
 11
87.87009
 21
32.96373
  0
ARC
  8
Gravur
 62
   255
 39
0.200
  6
CONTINUOUS
 10
87.86884
 20
33.19943
 30
 0
 40
0.23570
 50
179.69622
 51
270.30378
  0
LINE
  8
Gravur
 62
   255
 39
0.200
  6
CONTINUOUS
 10
87.63314
 20
33.20068
 30
 0
 11
87.63314
 21
36.56537
  0
LINE
  8
Gravur
 62
   255
 39
0.200
  6
CONTINUOUS
 10
87.63314
 20
36.56537
 30
 0
 11
90.61871
 21
32.63200
  0
LINE
  8
Gravur
 62
   255
 39
0.200
  6
CONTINUOUS
 10
90.61871
 20
32.63200
 30
 0
 11
91.09261
 21
32.63200
  0
LINE
  8
Gravur
 62
   255
 39
0.200
  6
CONTINUOUS
 10
91.09261
 20
32.63200
 30
 0
 11
91.09261
 21
36.80232
  0
ARC
  8
Gravur
 62
   255
 39
0.200
  6
CONTINUOUS
 10
91.32831
 20
36.80357
 30
 0
 40
0.23570
 50
89.69622
 51
180.30378
  0
LINE
  8
Gravur
 62
   255
 39
0.200
  6
CONTINUOUS
 10
91.32956
 20
37.03927
 30
 0
 11
91.66129
 21
37.03927
  0
LINE
  8
Gravur
 62
   255
 39
0.200
  6
CONTINUOUS
 10
91.66129
 20
37.03927
 30
 0
 11
91.66129
 21
37.37100
  0
LINE
  8
Gravur
 62
   255
 39
0.200
  6
CONTINUOUS
 10
91.66129
 20
37.37100
 30
 0
 11
90.19220
 21
37.37100
  0
LINE
  8
Gravur
 62
   255
 39
0.200
  6
CONTINUOUS
 10
90.19220
 20
37.37100
 30
 0
 11
90.19220
 21
37.03927
  0
LINE
  8
Gravur
 62
   255
 39
0.200
  6
CONTINUOUS
 10
90.19220
 20
37.03927
 30
 0
 11
90.52393
 21
37.03927
  0
ARC
  8
Gravur
 62
   255
 39
0.200
  6
CONTINUOUS
 10
90.52518
 20
36.80357
 30
 0
 40
0.23570
 50
-0.30378
 51
90.30378
  0
LINE
  8
Gravur
 62
   255
 39
0.200
  6
CONTINUOUS
 10
90.76088
 20
36.80232
 30
 0
 11
90.76088
 21
34.24326
  0
LINE
  8
Gravur
 62
   255
 39
0.200
  6
CONTINUOUS
 10
90.76088
 20
34.24326
 30
 0
 11
88.39138
 21
37.37100
  0
LINE
  8
Gravur
 62
   255
 39
0.200
  6
CONTINUOUS
 10
88.39138
 20
37.37100
 30
 0
 11
86.73273
 21
37.37100
  0
LINE
  8
Gravur
 62
   255
 39
0.200
  6
CONTINUOUS
 10
92.27734
 20
37.37100
 30
 0
 11
92.27734
 21
37.03927
  0
LINE
  8
Gravur
 62
   255
 39
0.200
  6
CONTINUOUS
 10
92.27734
 20
37.03927
 30
 0
 11
92.60907
 21
37.03927
  0
ARC
  8
Gravur
 62
   255
 39
0.200
  6
CONTINUOUS
 10
92.61032
 20
36.80357
 30
 0
 40
0.23570
 50
-0.30378
 51
90.30378
  0
LINE
  8
Gravur
 62
   255
 39
0.200
  6
CONTINUOUS
 10
92.84602
 20
36.80232
 30
 0
 11
92.84602
 21
34.14848
  0
ARC
  8
Gravur
 62
   255
 39
0.200
  6
CONTINUOUS
 10
94.32507
 20
34.13845
 30
 0
 40
1.47909
 50
179.61142
 51
242.91604
  0
ARC
  8
Gravur
 62
   255
 39
0.200
  6
CONTINUOUS
 10
94.76531
 20
34.96686
 30
 0
 40
2.41714
 50
242.56531
 51
297.43469
  0
ARC
  8
Gravur
 62
   255
 39
0.200
  6
CONTINUOUS
 10
95.20556
 20
34.13845
 30
 0
 40
1.47909
 50
297.08396
 51
360.38858
  0
LINE
  8
Gravur
 62
   255
 39
0.200
  6
CONTINUOUS
 10
96.68461
 20
34.14848
 30
 0
 11
96.68461
 21
36.80232
  0
ARC
  8
Gravur
 62
   255
 39
0.200
  6
CONTINUOUS
 10
96.92031
 20
36.80357
 30
 0
 40
0.23570
 50
89.69622
 51
180.30378
  0
LINE
  8
Gravur
 62
   255
 39
0.200
  6
CONTINUOUS
 10
96.92156
 20
37.03927
 30
 0
 11
97.25329
 21
37.03927
  0
LINE
  8
Gravur
 62
   255
 39
0.200
  6
CONTINUOUS
 10
97.25329
 20
37.03927
 30
 0
 11
97.25329
 21
37.37100
  0
LINE
  8
Gravur
 62
   255
 39
0.200
  6
CONTINUOUS
 10
97.25329
 20
37.37100
 30
 0
 11
95.78420
 21
37.37100
  0
LINE
  8
Gravur
 62
   255
 39
0.200
  6
CONTINUOUS
 10
95.78420
 20
37.37100
 30
 0
 11
95.78420
 21
37.03927
  0
LINE
  8
Gravur
 62
   255
 39
0.200
  6
CONTINUOUS
 10
95.78420
 20
37.03927
 30
 0
 11
96.06854
 21
37.03927
  0
ARC
  8
Gravur
 62
   255
 39
0.200
  6
CONTINUOUS
 10
96.06979
 20
36.80357
 30
 0
 40
0.23570
 50
-0.30378
 51
90.30378
  0
LINE
  8
Gravur
 62
   255
 39
0.200
  6
CONTINUOUS
 10
96.30549
 20
36.80232
 30
 0
 11
96.30549
 21
34.19587
  0
ARC
  8
Gravur
 62
   255
 39
0.200
  6
CONTINUOUS
 10
95.12074
 20
34.19587
 30
 0
 40
1.18475
 50
180.00000
 51
360.00000
  0
LINE
  8
Gravur
 62
   255
 39
0.200
  6
CONTINUOUS
 10
93.93599
 20
34.19587
 30
 0
 11
93.93599
 21
36.80232
  0
ARC
  8
Gravur
 62
   255
 39
0.200
  6
CONTINUOUS
 10
94.17169
 20
36.80357
 30
 0
 40
0.23570
 50
89.69622
 51
180.30378
  0
LINE
  8
Gravur
 62
   255
 39
0.200
  6
CONTINUOUS
 10
94.17294
 20
37.03927
 30
 0
 11
94.50467
 21
37.03927
  0
LINE
  8
Gravur
 62
   255
 39
0.200
  6
CONTINUOUS
 10
94.50467
 20
37.03927
 30
 0
 11
94.50467
 21
37.37100
  0
LINE
  8
Gravur
 62
   255
 39
0.200
  6
CONTINUOUS
 10
94.50467
 20
37.37100
 30
 0
 11
92.27734
 21
37.37100
  0
LINE
  8
Gravur
 62
   255
 39
0.200
  6
CONTINUOUS
 10
97.86934
 20
37.37100
 30
 0
 11
97.86934
 21
37.03927
  0
LINE
  8
Gravur
 62
   255
 39
0.200
  6
CONTINUOUS
 10
97.86934
 20
37.03927
 30
 0
 11
98.20107
 21
37.03927
  0
ARC
  8
Gravur
 62
   255
 39
0.200
  6
CONTINUOUS
 10
98.20232
 20
36.80357
 30
 0
 40
0.23570
 50
-0.30378
 51
90.30378
  0
LINE
  8
Gravur
 62
   255
 39
0.200
  6
CONTINUOUS
 10
98.43802
 20
36.80232
 30
 0
 11
98.43802
 21
33.20068
  0
ARC
  8
Gravur
 62
   255
 39
0.200
  6
CONTINUOUS
 10
98.20232
 20
33.19943
 30
 0
 40
0.23570
 50
-90.30378
 51
0.30378
  0
LINE
  8
Gravur
 62
   255
 39
0.200
  6
CONTINUOUS
 10
98.20107
 20
32.96373
 30
 0
 11
97.86934
 21
32.96373
  0
LINE
  8
Gravur
 62
   255
 39
0.200
  6
CONTINUOUS
 10
97.86934
 20
32.96373
 30
 0
 11
97.86934
 21
32.63200
  0
LINE
  8
Gravur
 62
   255
 39
0.200
  6
CONTINUOUS
 10
97.86934
 20
32.63200
 30
 0
 11
99.33843
 21
32.63200
  0
LINE
  8
Gravur
 62
   255
 39
0.200
  6
CONTINUOUS
 10
99.33843
 20
32.63200
 30
 0
 11
99.33843
 21
32.96373
  0
LINE
  8
Gravur
 62
   255
 39
0.200
  6
CONTINUOUS
 10
99.33843
 20
32.96373
 30
 0
 11
99.00670
 21
32.96373
  0
ARC
  8
Gravur
 62
   255
 39
0.200
  6
CONTINUOUS
 10
99.00545
 20
33.19943
 30
 0
 40
0.23570
 50
179.69622
 51
270.30378
  0
LINE
  8
Gravur
 62
   255
 39
0.200
  6
CONTINUOUS
 10
98.76975
 20
33.20068
 30
 0
 11
98.76975
 21
36.94449
  0
LINE
  8
Gravur
 62
   255
 39
0.200
  6
CONTINUOUS
 10
98.76975
 20
36.94449
 30
 0
 11
100.42840
 21
32.63200
  0
LINE
  8
Gravur
 62
   255
 39
0.200
  6
CONTINUOUS
 10
100.42840
 20
32.63200
 30
 0
 11
100.85491
 21
32.63200
  0
LINE
  8
Gravur
 62
   255
 39
0.200
  6
CONTINUOUS
 10
100.85491
 20
32.63200
 30
 0
 11
102.18183
 21
36.84971
  0
LINE
  8
Gravur
 62
   255
 39
0.200
  6
CONTINUOUS
 10
102.18183
 20
36.84971
 30
 0
 11
102.18183
 21
33.20068
  0
ARC
  8
Gravur
 62
   255
 39
0.200
  6
CONTINUOUS
 10
101.94613
 20
33.19943
 30
 0
 40
0.23570
 50
-90.30378
 51
0.30378
  0
LINE
  8
Gravur
 62
   255
 39
0.200
  6
CONTINUOUS
 10
101.94488
 20
32.96373
 30
 0
 11
101.66054
 21
32.96373
  0
LINE
  8
Gravur
 62
   255
 39
0.200
  6
CONTINUOUS
 10
101.66054
 20
32.96373
 30
 0
 11
101.66054
 21
32.63200
  0
LINE
  8
Gravur
 62
   255
 39
0.200
  6
CONTINUOUS
 10
101.66054
 20
32.63200
 30
 0
 11
103.88787
 21
32.63200
  0
LINE
  8
Gravur
 62
   255
 39
0.200
  6
CONTINUOUS
 10
103.88787
 20
32.63200
 30
 0
 11
103.88787
 21
32.96373
  0
LINE
  8
Gravur
 62
   255
 39
0.200
  6
CONTINUOUS
 10
103.88787
 20
32.96373
 30
 0
 11
103.55614
 21
32.96373
  0
ARC
  8
Gravur
 62
   255
 39
0.200
  6
CONTINUOUS
 10
103.55489
 20
33.19943
 30
 0
 40
0.23570
 50
179.69622
 51
270.30378
  0
LINE
  8
Gravur
 62
   255
 39
0.200
  6
CONTINUOUS
 10
103.31919
 20
33.20068
 30
 0
 11
103.31919
 21
36.80232
  0
ARC
  8
Gravur
 62
   255
 39
0.200
  6
CONTINUOUS
 10
103.55489
 20
36.80357
 30
 0
 40
0.23570
 50
89.69622
 51
180.30378
  0
LINE
  8
Gravur
 62
   255
 39
0.200
  6
CONTINUOUS
 10
103.55614
 20
37.03927
 30
 0
 11
103.88787
 21
37.03927
  0
LINE
  8
Gravur
 62
   255
 39
0.200
  6
CONTINUOUS
 10
103.88787
 20
37.03927
 30
 0
 11
103.88787
 21
37.37100
  0
LINE
  8
Gravur
 62
   255
 39
0.200
  6
CONTINUOUS
 10
103.88787
 20
37.37100
 30
 0
 11
102.03966
 21
37.37100
  0
LINE
  8
Gravur
 62
   255
 39
0.200
  6
CONTINUOUS
 10
102.03966
 20
37.37100
 30
 0
 11
100.99708
 21
34.14848
  0
LINE
  8
Gravur
 62
   255
 39
0.200
  6
CONTINUOUS
 10
100.99708
 20
34.14848
 30
 0
 11
99.76494
 21
37.37100
  0
LINE
  8
Gravur
 62
   255
 39
0.200
  6
CONTINUOUS
 10
99.76494
 20
37.37100
 30
 0
 11
97.86934
 21
37.37100
  0
LINE
  8
Gravur
 62
   255
 39
0.200
  6
CONTINUOUS
 10
45.12643
 20
4.52728
 30
 0
 11
45.12643
 21
4.74177
  0
LINE
  8
Gravur
 62
   255
 39
0.200
  6
CONTINUOUS
 10
45.12643
 20
4.74177
 30
 0
 11
45.10855
 21
4.90264
  0
LINE
  8
Gravur
 62
   255
 39
0.200
  6
CONTINUOUS
 10
45.10855
 20
4.90264
 30
 0
 11
45.03706
 21
5.00988
  0
LINE
  8
Gravur
 62
   255
 39
0.200
  6
CONTINUOUS
 10
45.03706
 20
5.00988
 30
 0
 11
44.92981
 21
5.09925
  0
LINE
  8
Gravur
 62
   255
 39
0.200
  6
CONTINUOUS
 10
44.92981
 20
5.09925
 30
 0
 11
44.82257
 21
5.15287
  0
LINE
  8
Gravur
 62
   255
 39
0.200
  6
CONTINUOUS
 10
44.82257
 20
5.15287
 30
 0
 11
44.71532
 21
5.15287
  0
LINE
  8
Gravur
 62
   255
 39
0.200
  6
CONTINUOUS
 10
44.71532
 20
5.15287
 30
 0
 11
44.41146
 21
5.15287
  0
LINE
  8
Gravur
 62
   255
 39
0.200
  6
CONTINUOUS
 10
44.41146
 20
5.15287
 30
 0
 11
44.26847
 21
5.13500
  0
LINE
  8
Gravur
 62
   255
 39
0.200
  6
CONTINUOUS
 10
44.26847
 20
5.13500
 30
 0
 11
44.14335
 21
5.06350
  0
LINE
  8
Gravur
 62
   255
 39
0.200
  6
CONTINUOUS
 10
44.14335
 20
5.06350
 30
 0
 11
44.07186
 21
4.99201
  0
LINE
  8
Gravur
 62
   255
 39
0.200
  6
CONTINUOUS
 10
44.07186
 20
4.99201
 30
 0
 11
44.01824
 21
4.88476
  0
LINE
  8
Gravur
 62
   255
 39
0.200
  6
CONTINUOUS
 10
44.01824
 20
4.88476
 30
 0
 11
44.00036
 21
4.74177
  0
LINE
  8
Gravur
 62
   255
 39
0.200
  6
CONTINUOUS
 10
44.00036
 20
4.74177
 30
 0
 11
44.00036
 21
3.27610
  0
LINE
  8
Gravur
 62
   255
 39
0.200
  6
CONTINUOUS
 10
44.00036
 20
3.27610
 30
 0
 11
44.01824
 21
3.11524
  0
LINE
  8
Gravur
 62
   255
 39
0.200
  6
CONTINUOUS
 10
44.01824
 20
3.11524
 30
 0
 11
44.10761
 21
2.97224
  0
LINE
  8
Gravur
 62
   255
 39
0.200
  6
CONTINUOUS
 10
44.10761
 20
2.97224
 30
 0
 11
44.23272
 21
2.88287
  0
LINE
  8
Gravur
 62
   255
 39
0.200
  6
CONTINUOUS
 10
44.23272
 20
2.88287
 30
 0
 11
44.39359
 21
2.84713
  0
LINE
  8
Gravur
 62
   255
 39
0.200
  6
CONTINUOUS
 10
44.39359
 20
2.84713
 30
 0
 11
44.55446
 21
2.84713
  0
LINE
  8
Gravur
 62
   255
 39
0.200
  6
CONTINUOUS
 10
44.55446
 20
2.84713
 30
 0
 11
44.75107
 21
2.84713
  0
LINE
  8
Gravur
 62
   255
 39
0.200
  6
CONTINUOUS
 10
44.75107
 20
2.84713
 30
 0
 11
44.94769
 21
2.86500
  0
LINE
  8
Gravur
 62
   255
 39
0.200
  6
CONTINUOUS
 10
44.94769
 20
2.86500
 30
 0
 11
45.14430
 21
2.93650
  0
LINE
  8
Gravur
 62
   255
 39
0.200
  6
CONTINUOUS
 10
45.14430
 20
2.93650
 30
 0
 11
45.14430
 21
3.99106
  0
LINE
  8
Gravur
 62
   255
 39
0.200
  6
CONTINUOUS
 10
45.14430
 20
3.99106
 30
 0
 11
44.55446
 21
3.99106
  0
LINE
  8
Gravur
 62
   255
 39
0.200
  6
CONTINUOUS
 10
45.60836
 20
2.86500
 30
 0
 11
45.60836
 21
5.13500
  0
LINE
  8
Gravur
 62
   255
 39
0.200
  6
CONTINUOUS
 10
45.60836
 20
5.13500
 30
 0
 11
46.25183
 21
5.13500
  0
LINE
  8
Gravur
 62
   255
 39
0.200
  6
CONTINUOUS
 10
46.25183
 20
5.13500
 30
 0
 11
46.44844
 21
5.08138
  0
LINE
  8
Gravur
 62
   255
 39
0.200
  6
CONTINUOUS
 10
46.44844
 20
5.08138
 30
 0
 11
46.57356
 21
4.99201
  0
LINE
  8
Gravur
 62
   255
 39
0.200
  6
CONTINUOUS
 10
46.57356
 20
4.99201
 30
 0
 11
46.66293
 21
4.86689
  0
LINE
  8
Gravur
 62
   255
 39
0.200
  6
CONTINUOUS
 10
46.66293
 20
4.86689
 30
 0
 11
46.68080
 21
4.70602
  0
LINE
  8
Gravur
 62
   255
 39
0.200
  6
CONTINUOUS
 10
46.68080
 20
4.70602
 30
 0
 11
46.68080
 21
4.45579
  0
LINE
  8
Gravur
 62
   255
 39
0.200
  6
CONTINUOUS
 10
46.68080
 20
4.45579
 30
 0
 11
46.66293
 21
4.31280
  0
LINE
  8
Gravur
 62
   255
 39
0.200
  6
CONTINUOUS
 10
46.66293
 20
4.31280
 30
 0
 11
46.57356
 21
4.16980
  0
LINE
  8
Gravur
 62
   255
 39
0.200
  6
CONTINUOUS
 10
46.57356
 20
4.16980
 30
 0
 11
46.46631
 21
4.08043
  0
LINE
  8
Gravur
 62
   255
 39
0.200
  6
CONTINUOUS
 10
46.46631
 20
4.08043
 30
 0
 11
46.26970
 21
4.02681
  0
LINE
  8
Gravur
 62
   255
 39
0.200
  6
CONTINUOUS
 10
46.26970
 20
4.02681
 30
 0
 11
45.60836
 21
4.02681
  0
LINE
  8
Gravur
 62
   255
 39
0.200
  6
CONTINUOUS
 10
47.14536
 20
5.13500
 30
 0
 11
47.14536
 21
2.86500
  0
LINE
  8
Gravur
 62
   255
 39
0.200
  6
CONTINUOUS
 10
47.59149
 20
4.00894
 30
 0
 11
47.59149
 21
3.27610
  0
LINE
  8
Gravur
 62
   255
 39
0.200
  6
CONTINUOUS
 10
47.59149
 20
3.27610
 30
 0
 11
47.62724
 21
3.09736
  0
LINE
  8
Gravur
 62
   255
 39
0.200
  6
CONTINUOUS
 10
47.62724
 20
3.09736
 30
 0
 11
47.69873
 21
2.99012
  0
LINE
  8
Gravur
 62
   255
 39
0.200
  6
CONTINUOUS
 10
47.69873
 20
2.99012
 30
 0
 11
47.78810
 21
2.91862
  0
LINE
  8
Gravur
 62
   255
 39
0.200
  6
CONTINUOUS
 10
47.78810
 20
2.91862
 30
 0
 11
47.91322
 21
2.84713
  0
LINE
  8
Gravur
 62
   255
 39
0.200
  6
CONTINUOUS
 10
47.91322
 20
2.84713
 30
 0
 11
48.02046
 21
2.84713
  0
LINE
  8
Gravur
 62
   255
 39
0.200
  6
CONTINUOUS
 10
48.02046
 20
2.84713
 30
 0
 11
48.30645
 21
2.84713
  0
LINE
  8
Gravur
 62
   255
 39
0.200
  6
CONTINUOUS
 10
48.30645
 20
2.84713
 30
 0
 11
48.46731
 21
2.86500
  0
LINE
  8
Gravur
 62
   255
 39
0.200
  6
CONTINUOUS
 10
48.46731
 20
2.86500
 30
 0
 11
48.59243
 21
2.93650
  0
LINE
  8
Gravur
 62
   255
 39
0.200
  6
CONTINUOUS
 10
48.59243
 20
2.93650
 30
 0
 11
48.69968
 21
3.07949
  0
LINE
  8
Gravur
 62
   255
 39
0.200
  6
CONTINUOUS
 10
48.69968
 20
3.07949
 30
 0
 11
48.75330
 21
3.27610
  0
LINE
  8
Gravur
 62
   255
 39
0.200
  6
CONTINUOUS
 10
48.75330
 20
3.27610
 30
 0
 11
48.75330
 21
4.72390
  0
LINE
  8
Gravur
 62
   255
 39
0.200
  6
CONTINUOUS
 10
48.75330
 20
4.72390
 30
 0
 11
48.71755
 21
4.86689
  0
LINE
  8
Gravur
 62
   255
 39
0.200
  6
CONTINUOUS
 10
48.71755
 20
4.86689
 30
 0
 11
48.64606
 21
5.00988
  0
LINE
  8
Gravur
 62
   255
 39
0.200
  6
CONTINUOUS
 10
48.64606
 20
5.00988
 30
 0
 11
48.55669
 21
5.08138
  0
LINE
  8
Gravur
 62
   255
 39
0.200
  6
CONTINUOUS
 10
48.55669
 20
5.08138
 30
 0
 11
48.46731
 21
5.13500
  0
LINE
  8
Gravur
 62
   255
 39
0.200
  6
CONTINUOUS
 10
48.46731
 20
5.13500
 30
 0
 11
48.30645
 21
5.15287
  0
LINE
  8
Gravur
 62
   255
 39
0.200
  6
CONTINUOUS
 10
48.30645
 20
5.15287
 30
 0
 11
48.02046
 21
5.15287
  0
LINE
  8
Gravur
 62
   255
 39
0.200
  6
CONTINUOUS
 10
48.02046
 20
5.15287
 30
 0
 11
47.87747
 21
5.13500
  0
LINE
  8
Gravur
 62
   255
 39
0.200
  6
CONTINUOUS
 10
47.87747
 20
5.13500
 30
 0
 11
47.75235
 21
5.06350
  0
LINE
  8
Gravur
 62
   255
 39
0.200
  6
CONTINUOUS
 10
47.75235
 20
5.06350
 30
 0
 11
47.66298
 21
4.97413
  0
LINE
  8
Gravur
 62
   255
 39
0.200
  6
CONTINUOUS
 10
47.66298
 20
4.97413
 30
 0
 11
47.60936
 21
4.86689
  0
LINE
  8
Gravur
 62
   255
 39
0.200
  6
CONTINUOUS
 10
47.60936
 20
4.86689
 30
 0
 11
47.59149
 21
4.72390
  0
LINE
  8
Gravur
 62
   255
 39
0.200
  6
CONTINUOUS
 10
47.59149
 20
4.72390
 30
 0
 11
47.59149
 21
4.00894
  0
LINE
  8
Gravur
 62
   255
 39
0.200
  6
CONTINUOUS
 10
64.00036
 20
5.13500
 30
 0
 11
64.00036
 21
2.86500
  0
ARC
  8
Gravur
 62
   255
 39
0.200
  6
CONTINUOUS
 10
64.98008
 20
4.64616
 30
 0
 40
0.52131
 50
103.59010
 51
197.25422
  0
ARC
  8
Gravur
 62
   255
 39
0.200
  6
CONTINUOUS
 10
64.99690
 20
4.68333
 30
 0
 40
0.48978
 50
6.85332
 51
106.52541
  0
ARC
  8
Gravur
 62
   255
 39
0.200
  6
CONTINUOUS
 10
64.40043
 20
4.58120
 30
 0
 40
1.09459
 50
-32.62504
 51
8.43552
  0
ARC
  8
Gravur
 62
   255
 39
0.200
  6
CONTINUOUS
 10
63.08231
 20
5.33629
 30
 0
 40
2.61290
 50
312.79903
 51
329.01325
  0
LINE
  8
Gravur
 62
   255
 39
0.200
  6
CONTINUOUS
 10
64.85759
 20
3.41909
 30
 0
 11
64.44649
 21
2.99012
  0
LINE
  8
Gravur
 62
   255
 39
0.200
  6
CONTINUOUS
 10
64.44649
 20
2.99012
 30
 0
 11
64.44649
 21
2.86500
  0
LINE
  8
Gravur
 62
   255
 39
0.200
  6
CONTINUOUS
 10
64.44649
 20
2.86500
 30
 0
 11
65.50106
 21
2.86500
  0
LINE
  8
Gravur
 62
   255
 39
0.200
  6
CONTINUOUS
 10
65.50106
 20
2.86500
 30
 0
 11
64.44649
 21
2.86500
  0
LINE
  8
Gravur
 62
   255
 39
0.200
  6
CONTINUOUS
 10
66.98418
 20
4.47366
 30
 0
 11
66.98418
 21
4.74177
  0
LINE
  8
Gravur
 62
   255
 39
0.200
  6
CONTINUOUS
 10
66.98418
 20
4.74177
 30
 0
 11
66.96631
 21
4.86689
  0
LINE
  8
Gravur
 62
   255
 39
0.200
  6
CONTINUOUS
 10
66.96631
 20
4.86689
 30
 0
 11
66.91269
 21
4.99201
  0
LINE
  8
Gravur
 62
   255
 39
0.200
  6
CONTINUOUS
 10
66.91269
 20
4.99201
 30
 0
 11
66.82331
 21
5.06350
  0
LINE
  8
Gravur
 62
   255
 39
0.200
  6
CONTINUOUS
 10
66.82331
 20
5.06350
 30
 0
 11
66.73394
 21
5.11713
  0
LINE
  8
Gravur
 62
   255
 39
0.200
  6
CONTINUOUS
 10
66.73394
 20
5.11713
 30
 0
 11
66.62670
 21
5.15287
  0
LINE
  8
Gravur
 62
   255
 39
0.200
  6
CONTINUOUS
 10
66.62670
 20
5.15287
 30
 0
 11
66.37646
 21
5.15287
  0
LINE
  8
Gravur
 62
   255
 39
0.200
  6
CONTINUOUS
 10
66.37646
 20
5.15287
 30
 0
 11
66.21560
 21
5.13500
  0
LINE
  8
Gravur
 62
   255
 39
0.200
  6
CONTINUOUS
 10
66.21560
 20
5.13500
 30
 0
 11
66.09048
 21
5.04563
  0
LINE
  8
Gravur
 62
   255
 39
0.200
  6
CONTINUOUS
 10
66.09048
 20
5.04563
 30
 0
 11
66.01898
 21
4.93839
  0
LINE
  8
Gravur
 62
   255
 39
0.200
  6
CONTINUOUS
 10
66.01898
 20
4.93839
 30
 0
 11
65.96536
 21
4.79539
  0
LINE
  8
Gravur
 62
   255
 39
0.200
  6
CONTINUOUS
 10
65.96536
 20
4.79539
 30
 0
 11
65.96536
 21
3.27610
  0
LINE
  8
Gravur
 62
   255
 39
0.200
  6
CONTINUOUS
 10
65.96536
 20
3.27610
 30
 0
 11
66.00111
 21
3.11524
  0
LINE
  8
Gravur
 62
   255
 39
0.200
  6
CONTINUOUS
 10
66.00111
 20
3.11524
 30
 0
 11
66.05473
 21
3.00799
  0
LINE
  8
Gravur
 62
   255
 39
0.200
  6
CONTINUOUS
 10
66.05473
 20
3.00799
 30
 0
 11
66.16198
 21
2.91862
  0
LINE
  8
Gravur
 62
   255
 39
0.200
  6
CONTINUOUS
 10
66.16198
 20
2.91862
 30
 0
 11
66.25135
 21
2.86500
  0
LINE
  8
Gravur
 62
   255
 39
0.200
  6
CONTINUOUS
 10
66.25135
 20
2.86500
 30
 0
 11
66.39434
 21
2.84713
  0
LINE
  8
Gravur
 62
   255
 39
0.200
  6
CONTINUOUS
 10
66.39434
 20
2.84713
 30
 0
 11
66.57308
 21
2.84713
  0
LINE
  8
Gravur
 62
   255
 39
0.200
  6
CONTINUOUS
 10
66.57308
 20
2.84713
 30
 0
 11
66.69820
 21
2.86500
  0
LINE
  8
Gravur
 62
   255
 39
0.200
  6
CONTINUOUS
 10
66.69820
 20
2.86500
 30
 0
 11
66.84119
 21
2.93650
  0
LINE
  8
Gravur
 62
   255
 39
0.200
  6
CONTINUOUS
 10
66.84119
 20
2.93650
 30
 0
 11
66.93056
 21
3.02587
  0
LINE
  8
Gravur
 62
   255
 39
0.200
  6
CONTINUOUS
 10
66.93056
 20
3.02587
 30
 0
 11
67.00206
 21
3.16886
  0
LINE
  8
Gravur
 62
   255
 39
0.200
  6
CONTINUOUS
 10
67.00206
 20
3.16886
 30
 0
 11
67.00206
 21
3.27610
  0
LINE
  8
Gravur
 62
   255
 39
0.200
  6
CONTINUOUS
 10
67.00206
 20
3.27610
 30
 0
 11
67.00206
 21
3.49059
  0
LINE
  8
Gravur
 62
   255
 39
0.200
  6
CONTINUOUS
 10
67.44849
 20
3.83120
 30
 0
 11
68.64605
 21
3.83120
  0
LINE
  8
Gravur
 62
   255
 39
0.200
  6
CONTINUOUS
 10
69.11036
 20
4.02781
 30
 0
 11
70.05769
 21
4.02781
  0
LINE
  8
Gravur
 62
   255
 39
0.200
  6
CONTINUOUS
 10
70.05769
 20
4.02781
 30
 0
 11
70.11131
 21
3.99206
  0
LINE
  8
Gravur
 62
   255
 39
0.200
  6
CONTINUOUS
 10
70.11131
 20
3.99206
 30
 0
 11
70.16493
 21
3.90269
  0
LINE
  8
Gravur
 62
   255
 39
0.200
  6
CONTINUOUS
 10
70.16493
 20
3.90269
 30
 0
 11
70.20068
 21
3.81332
  0
LINE
  8
Gravur
 62
   255
 39
0.200
  6
CONTINUOUS
 10
70.20068
 20
3.81332
 30
 0
 11
70.21855
 21
3.68820
  0
LINE
  8
Gravur
 62
   255
 39
0.200
  6
CONTINUOUS
 10
70.21855
 20
3.68820
 30
 0
 11
70.21855
 21
3.29498
  0
LINE
  8
Gravur
 62
   255
 39
0.200
  6
CONTINUOUS
 10
70.21855
 20
3.29498
 30
 0
 11
70.21855
 21
3.20561
  0
LINE
  8
Gravur
 62
   255
 39
0.200
  6
CONTINUOUS
 10
70.21855
 20
3.20561
 30
 0
 11
70.16493
 21
3.08049
  0
LINE
  8
Gravur
 62
   255
 39
0.200
  6
CONTINUOUS
 10
70.16493
 20
3.08049
 30
 0
 11
70.07556
 21
2.97324
  0
LINE
  8
Gravur
 62
   255
 39
0.200
  6
CONTINUOUS
 10
70.07556
 20
2.97324
 30
 0
 11
69.93257
 21
2.88387
  0
LINE
  8
Gravur
 62
   255
 39
0.200
  6
CONTINUOUS
 10
69.93257
 20
2.88387
 30
 0
 11
69.78957
 21
2.86600
  0
LINE
  8
Gravur
 62
   255
 39
0.200
  6
CONTINUOUS
 10
69.78957
 20
2.86600
 30
 0
 11
69.11036
 21
2.86600
  0
LINE
  8
Gravur
 62
   255
 39
0.200
  6
CONTINUOUS
 10
69.11036
 20
2.86600
 30
 0
 11
69.11036
 21
4.02781
  0
LINE
  8
Gravur
 62
   255
 39
0.200
  6
CONTINUOUS
 10
69.11036
 20
4.02781
 30
 0
 11
69.11036
 21
5.13600
  0
LINE
  8
Gravur
 62
   255
 39
0.200
  6
CONTINUOUS
 10
69.11036
 20
5.13600
 30
 0
 11
69.78957
 21
5.13600
  0
LINE
  8
Gravur
 62
   255
 39
0.200
  6
CONTINUOUS
 10
69.78957
 20
5.13600
 30
 0
 11
69.89682
 21
5.11813
  0
LINE
  8
Gravur
 62
   255
 39
0.200
  6
CONTINUOUS
 10
69.89682
 20
5.11813
 30
 0
 11
70.03981
 21
5.04663
  0
LINE
  8
Gravur
 62
   255
 39
0.200
  6
CONTINUOUS
 10
70.03981
 20
5.04663
 30
 0
 11
70.12918
 21
4.95726
  0
LINE
  8
Gravur
 62
   255
 39
0.200
  6
CONTINUOUS
 10
70.12918
 20
4.95726
 30
 0
 11
70.18280
 21
4.85002
  0
LINE
  8
Gravur
 62
   255
 39
0.200
  6
CONTINUOUS
 10
70.18280
 20
4.85002
 30
 0
 11
70.20068
 21
4.72490
  0
LINE
  8
Gravur
 62
   255
 39
0.200
  6
CONTINUOUS
 10
70.20068
 20
4.72490
 30
 0
 11
70.20068
 21
4.33167
  0
LINE
  8
Gravur
 62
   255
 39
0.200
  6
CONTINUOUS
 10
70.20068
 20
4.33167
 30
 0
 11
70.20068
 21
4.27805
  0
LINE
  8
Gravur
 62
   255
 39
0.200
  6
CONTINUOUS
 10
70.20068
 20
4.27805
 30
 0
 11
70.16493
 21
4.17080
  0
LINE
  8
Gravur
 62
   255
 39
0.200
  6
CONTINUOUS
 10
70.16493
 20
4.17080
 30
 0
 11
70.12918
 21
4.09931
  0
LINE
  8
Gravur
 62
   255
 39
0.200
  6
CONTINUOUS
 10
70.12918
 20
4.09931
 30
 0
 11
70.05769
 21
4.02781
  0
LINE
  8
Gravur
 62
   255
 39
0.200
  6
CONTINUOUS
 10
70.68236
 20
5.13600
 30
 0
 11
70.68236
 21
3.29498
  0
LINE
  8
Gravur
 62
   255
 39
0.200
  6
CONTINUOUS
 10
70.68236
 20
3.29498
 30
 0
 11
70.73598
 21
3.08049
  0
LINE
  8
Gravur
 62
   255
 39
0.200
  6
CONTINUOUS
 10
70.73598
 20
3.08049
 30
 0
 11
70.80748
 21
2.97324
  0
LINE
  8
Gravur
 62
   255
 39
0.200
  6
CONTINUOUS
 10
70.80748
 20
2.97324
 30
 0
 11
70.95047
 21
2.88387
  0
LINE
  8
Gravur
 62
   255
 39
0.200
  6
CONTINUOUS
 10
70.95047
 20
2.88387
 30
 0
 11
71.12921
 21
2.84813
  0
LINE
  8
Gravur
 62
   255
 39
0.200
  6
CONTINUOUS
 10
71.12921
 20
2.84813
 30
 0
 11
71.36157
 21
2.84813
  0
LINE
  8
Gravur
 62
   255
 39
0.200
  6
CONTINUOUS
 10
71.36157
 20
2.84813
 30
 0
 11
71.50457
 21
2.86600
  0
LINE
  8
Gravur
 62
   255
 39
0.200
  6
CONTINUOUS
 10
71.50457
 20
2.86600
 30
 0
 11
71.66543
 21
2.95537
  0
LINE
  8
Gravur
 62
   255
 39
0.200
  6
CONTINUOUS
 10
71.66543
 20
2.95537
 30
 0
 11
71.79055
 21
3.11624
  0
LINE
  8
Gravur
 62
   255
 39
0.200
  6
CONTINUOUS
 10
71.79055
 20
3.11624
 30
 0
 11
71.82630
 21
3.29498
  0
LINE
  8
Gravur
 62
   255
 39
0.200
  6
CONTINUOUS
 10
71.82630
 20
3.29498
 30
 0
 11
71.82630
 21
5.13600
  0
LINE
  8
Gravur
 62
   255
 39
0.200
  6
CONTINUOUS
 10
72.29036
 20
3.58096
 30
 0
 11
72.29036
 21
3.27710
  0
LINE
  8
Gravur
 62
   255
 39
0.200
  6
CONTINUOUS
 10
72.29036
 20
3.27710
 30
 0
 11
72.32611
 21
3.11624
  0
LINE
  8
Gravur
 62
   255
 39
0.200
  6
CONTINUOUS
 10
72.32611
 20
3.11624
 30
 0
 11
72.41548
 21
2.97324
  0
LINE
  8
Gravur
 62
   255
 39
0.200
  6
CONTINUOUS
 10
72.41548
 20
2.97324
 30
 0
 11
72.54060
 21
2.88387
  0
LINE
  8
Gravur
 62
   255
 39
0.200
  6
CONTINUOUS
 10
72.54060
 20
2.88387
 30
 0
 11
72.71934
 21
2.84813
  0
LINE
  8
Gravur
 62
   255
 39
0.200
  6
CONTINUOUS
 10
72.71934
 20
2.84813
 30
 0
 11
72.93383
 21
2.84813
  0
LINE
  8
Gravur
 62
   255
 39
0.200
  6
CONTINUOUS
 10
72.93383
 20
2.84813
 30
 0
 11
73.05894
 21
2.86600
  0
LINE
  8
Gravur
 62
   255
 39
0.200
  6
CONTINUOUS
 10
73.05894
 20
2.86600
 30
 0
 11
73.21981
 21
2.95537
  0
LINE
  8
Gravur
 62
   255
 39
0.200
  6
CONTINUOUS
 10
73.21981
 20
2.95537
 30
 0
 11
73.32706
 21
3.09836
  0
LINE
  8
Gravur
 62
   255
 39
0.200
  6
CONTINUOUS
 10
73.32706
 20
3.09836
 30
 0
 11
73.36280
 21
3.27710
  0
LINE
  8
Gravur
 62
   255
 39
0.200
  6
CONTINUOUS
 10
73.36280
 20
3.27710
 30
 0
 11
73.36280
 21
3.40222
  0
LINE
  8
Gravur
 62
   255
 39
0.200
  6
CONTINUOUS
 10
73.36280
 20
3.40222
 30
 0
 11
73.32706
 21
3.52734
  0
LINE
  8
Gravur
 62
   255
 39
0.200
  6
CONTINUOUS
 10
73.32706
 20
3.52734
 30
 0
 11
73.25556
 21
3.67033
  0
LINE
  8
Gravur
 62
   255
 39
0.200
  6
CONTINUOUS
 10
73.25556
 20
3.67033
 30
 0
 11
73.18406
 21
3.74183
  0
LINE
  8
Gravur
 62
   255
 39
0.200
  6
CONTINUOUS
 10
73.18406
 20
3.74183
 30
 0
 11
73.07682
 21
3.83120
  0
LINE
  8
Gravur
 62
   255
 39
0.200
  6
CONTINUOUS
 10
73.07682
 20
3.83120
 30
 0
 11
72.55847
 21
4.29592
  0
LINE
  8
Gravur
 62
   255
 39
0.200
  6
CONTINUOUS
 10
72.55847
 20
4.29592
 30
 0
 11
72.46910
 21
4.36742
  0
LINE
  8
Gravur
 62
   255
 39
0.200
  6
CONTINUOUS
 10
72.46910
 20
4.36742
 30
 0
 11
72.37973
 21
4.47466
  0
LINE
  8
Gravur
 62
   255
 39
0.200
  6
CONTINUOUS
 10
72.37973
 20
4.47466
 30
 0
 11
72.34398
 21
4.52828
  0
LINE
  8
Gravur
 62
   255
 39
0.200
  6
CONTINUOUS
 10
72.34398
 20
4.52828
 30
 0
 11
72.32611
 21
4.61765
  0
LINE
  8
Gravur
 62
   255
 39
0.200
  6
CONTINUOUS
 10
72.32611
 20
4.61765
 30
 0
 11
72.32611
 21
4.77852
  0
LINE
  8
Gravur
 62
   255
 39
0.200
  6
CONTINUOUS
 10
72.32611
 20
4.77852
 30
 0
 11
72.37973
 21
4.93939
  0
LINE
  8
Gravur
 62
   255
 39
0.200
  6
CONTINUOUS
 10
72.37973
 20
4.93939
 30
 0
 11
72.45123
 21
5.04663
  0
LINE
  8
Gravur
 62
   255
 39
0.200
  6
CONTINUOUS
 10
72.45123
 20
5.04663
 30
 0
 11
72.55847
 21
5.11813
  0
LINE
  8
Gravur
 62
   255
 39
0.200
  6
CONTINUOUS
 10
72.55847
 20
5.11813
 30
 0
 11
72.73721
 21
5.15387
  0
LINE
  8
Gravur
 62
   255
 39
0.200
  6
CONTINUOUS
 10
72.73721
 20
5.15387
 30
 0
 11
72.91595
 21
5.15387
  0
LINE
  8
Gravur
 62
   255
 39
0.200
  6
CONTINUOUS
 10
72.91595
 20
5.15387
 30
 0
 11
73.02320
 21
5.13600
  0
LINE
  8
Gravur
 62
   255
 39
0.200
  6
CONTINUOUS
 10
73.02320
 20
5.13600
 30
 0
 11
73.14831
 21
5.08238
  0
LINE
  8
Gravur
 62
   255
 39
0.200
  6
CONTINUOUS
 10
73.14831
 20
5.08238
 30
 0
 11
73.23769
 21
4.99301
  0
LINE
  8
Gravur
 62
   255
 39
0.200
  6
CONTINUOUS
 10
73.23769
 20
4.99301
 30
 0
 11
73.30918
 21
4.86789
  0
LINE
  8
Gravur
 62
   255
 39
0.200
  6
CONTINUOUS
 10
73.30918
 20
4.86789
 30
 0
 11
73.32706
 21
4.74277
  0
LINE
  8
Gravur
 62
   255
 39
0.200
  6
CONTINUOUS
 10
73.32706
 20
4.74277
 30
 0
 11
73.32706
 21
4.58191
  0
LINE
  8
Gravur
 62
   255
 39
0.200
  6
CONTINUOUS
 10
27.50036
 20
5.13500
 30
 0
 11
28.14383
 21
2.86500
  0
LINE
  8
Gravur
 62
   255
 39
0.200
  6
CONTINUOUS
 10
28.14383
 20
2.86500
 30
 0
 11
28.78729
 21
5.13500
  0
LINE
  8
Gravur
 62
   255
 39
0.200
  6
CONTINUOUS
 10
29.84120
 20
2.86500
 30
 0
 11
29.84120
 21
5.13500
  0
LINE
  8
Gravur
 62
   255
 39
0.200
  6
CONTINUOUS
 10
29.23349
 20
5.13500
 30
 0
 11
30.46680
 21
5.13500
  0
LINE
  8
Gravur
 62
   255
 39
0.200
  6
CONTINUOUS
 10
30.93136
 20
4.68815
 30
 0
 11
31.16372
 21
4.84902
  0
LINE
  8
Gravur
 62
   255
 39
0.200
  6
CONTINUOUS
 10
31.16372
 20
4.84902
 30
 0
 11
31.39609
 21
5.13500
  0
LINE
  8
Gravur
 62
   255
 39
0.200
  6
CONTINUOUS
 10
31.39609
 20
5.13500
 30
 0
 11
31.39609
 21
2.86500
  0
LINE
  8
Gravur
 62
   255
 39
0.200
  6
CONTINUOUS
 10
31.84249
 20
4.08043
 30
 0
 11
31.84249
 21
3.29398
  0
LINE
  8
Gravur
 62
   255
 39
0.200
  6
CONTINUOUS
 10
31.84249
 20
3.29398
 30
 0
 11
31.89611
 21
3.09736
  0
LINE
  8
Gravur
 62
   255
 39
0.200
  6
CONTINUOUS
 10
31.89611
 20
3.09736
 30
 0
 11
31.98548
 21
2.97224
  0
LINE
  8
Gravur
 62
   255
 39
0.200
  6
CONTINUOUS
 10
31.98548
 20
2.97224
 30
 0
 11
32.11060
 21
2.88287
  0
LINE
  8
Gravur
 62
   255
 39
0.200
  6
CONTINUOUS
 10
32.11060
 20
2.88287
 30
 0
 11
32.28934
 21
2.84713
  0
LINE
  8
Gravur
 62
   255
 39
0.200
  6
CONTINUOUS
 10
32.28934
 20
2.84713
 30
 0
 11
32.41446
 21
2.84713
  0
LINE
  8
Gravur
 62
   255
 39
0.200
  6
CONTINUOUS
 10
32.41446
 20
2.84713
 30
 0
 11
32.59320
 21
2.88287
  0
LINE
  8
Gravur
 62
   255
 39
0.200
  6
CONTINUOUS
 10
32.59320
 20
2.88287
 30
 0
 11
32.73619
 21
2.99012
  0
LINE
  8
Gravur
 62
   255
 39
0.200
  6
CONTINUOUS
 10
32.73619
 20
2.99012
 30
 0
 11
32.84343
 21
3.13311
  0
LINE
  8
Gravur
 62
   255
 39
0.200
  6
CONTINUOUS
 10
32.84343
 20
3.13311
 30
 0
 11
32.86131
 21
3.29398
  0
LINE
  8
Gravur
 62
   255
 39
0.200
  6
CONTINUOUS
 10
32.86131
 20
3.29398
 30
 0
 11
32.86131
 21
4.70602
  0
LINE
  8
Gravur
 62
   255
 39
0.200
  6
CONTINUOUS
 10
32.86131
 20
4.70602
 30
 0
 11
32.82556
 21
4.88476
  0
LINE
  8
Gravur
 62
   255
 39
0.200
  6
CONTINUOUS
 10
32.82556
 20
4.88476
 30
 0
 11
32.73619
 21
5.02776
  0
LINE
  8
Gravur
 62
   255
 39
0.200
  6
CONTINUOUS
 10
32.73619
 20
5.02776
 30
 0
 11
32.55745
 21
5.13500
  0
LINE
  8
Gravur
 62
   255
 39
0.200
  6
CONTINUOUS
 10
32.55745
 20
5.13500
 30
 0
 11
32.41446
 21
5.15287
  0
LINE
  8
Gravur
 62
   255
 39
0.200
  6
CONTINUOUS
 10
32.41446
 20
5.15287
 30
 0
 11
32.28934
 21
5.15287
  0
LINE
  8
Gravur
 62
   255
 39
0.200
  6
CONTINUOUS
 10
32.28934
 20
5.15287
 30
 0
 11
32.11060
 21
5.11713
  0
LINE
  8
Gravur
 62
   255
 39
0.200
  6
CONTINUOUS
 10
32.11060
 20
5.11713
 30
 0
 11
31.98548
 21
5.04563
  0
LINE
  8
Gravur
 62
   255
 39
0.200
  6
CONTINUOUS
 10
31.98548
 20
5.04563
 30
 0
 11
31.87824
 21
4.90264
  0
LINE
  8
Gravur
 62
   255
 39
0.200
  6
CONTINUOUS
 10
31.87824
 20
4.90264
 30
 0
 11
31.84249
 21
4.70602
  0
LINE
  8
Gravur
 62
   255
 39
0.200
  6
CONTINUOUS
 10
31.84249
 20
4.70602
 30
 0
 11
31.84249
 21
4.08043
  0
LINE
  8
Gravur
 62
   255
 39
0.200
  6
CONTINUOUS
 10
33.30749
 20
4.08143
 30
 0
 11
33.30749
 21
3.29498
  0
LINE
  8
Gravur
 62
   255
 39
0.200
  6
CONTINUOUS
 10
33.30749
 20
3.29498
 30
 0
 11
33.36111
 21
3.09836
  0
LINE
  8
Gravur
 62
   255
 39
0.200
  6
CONTINUOUS
 10
33.36111
 20
3.09836
 30
 0
 11
33.45048
 21
2.97324
  0
LINE
  8
Gravur
 62
   255
 39
0.200
  6
CONTINUOUS
 10
33.45048
 20
2.97324
 30
 0
 11
33.57560
 21
2.88387
  0
LINE
  8
Gravur
 62
   255
 39
0.200
  6
CONTINUOUS
 10
33.57560
 20
2.88387
 30
 0
 11
33.75434
 21
2.84813
  0
LINE
  8
Gravur
 62
   255
 39
0.200
  6
CONTINUOUS
 10
33.75434
 20
2.84813
 30
 0
 11
33.87946
 21
2.84813
  0
LINE
  8
Gravur
 62
   255
 39
0.200
  6
CONTINUOUS
 10
33.87946
 20
2.84813
 30
 0
 11
34.05820
 21
2.88387
  0
LINE
  8
Gravur
 62
   255
 39
0.200
  6
CONTINUOUS
 10
34.05820
 20
2.88387
 30
 0
 11
34.20119
 21
2.99112
  0
LINE
  8
Gravur
 62
   255
 39
0.200
  6
CONTINUOUS
 10
34.20119
 20
2.99112
 30
 0
 11
34.30843
 21
3.13411
  0
LINE
  8
Gravur
 62
   255
 39
0.200
  6
CONTINUOUS
 10
34.30843
 20
3.13411
 30
 0
 11
34.32631
 21
3.29498
  0
LINE
  8
Gravur
 62
   255
 39
0.200
  6
CONTINUOUS
 10
34.32631
 20
3.29498
 30
 0
 11
34.32631
 21
4.70702
  0
LINE
  8
Gravur
 62
   255
 39
0.200
  6
CONTINUOUS
 10
34.32631
 20
4.70702
 30
 0
 11
34.29056
 21
4.88576
  0
LINE
  8
Gravur
 62
   255
 39
0.200
  6
CONTINUOUS
 10
34.29056
 20
4.88576
 30
 0
 11
34.20119
 21
5.02876
  0
LINE
  8
Gravur
 62
   255
 39
0.200
  6
CONTINUOUS
 10
34.20119
 20
5.02876
 30
 0
 11
34.02245
 21
5.13600
  0
LINE
  8
Gravur
 62
   255
 39
0.200
  6
CONTINUOUS
 10
34.02245
 20
5.13600
 30
 0
 11
33.87946
 21
5.15387
  0
LINE
  8
Gravur
 62
   255
 39
0.200
  6
CONTINUOUS
 10
33.87946
 20
5.15387
 30
 0
 11
33.75434
 21
5.15387
  0
LINE
  8
Gravur
 62
   255
 39
0.200
  6
CONTINUOUS
 10
33.75434
 20
5.15387
 30
 0
 11
33.57560
 21
5.11813
  0
LINE
  8
Gravur
 62
   255
 39
0.200
  6
CONTINUOUS
 10
33.57560
 20
5.11813
 30
 0
 11
33.45048
 21
5.04663
  0
LINE
  8
Gravur
 62
   255
 39
0.200
  6
CONTINUOUS
 10
33.45048
 20
5.04663
 30
 0
 11
33.34324
 21
4.90364
  0
LINE
  8
Gravur
 62
   255
 39
0.200
  6
CONTINUOUS
 10
33.34324
 20
4.90364
 30
 0
 11
33.30749
 21
4.70702
  0
LINE
  8
Gravur
 62
   255
 39
0.200
  6
CONTINUOUS
 10
33.30749
 20
4.70702
 30
 0
 11
33.30749
 21
4.08143
  0
LINE
  8
Gravur
 62
   255
 39
0.200
  6
CONTINUOUS
 10
84.61918
 20
4.47366
 30
 0
 11
84.61918
 21
4.74177
  0
LINE
  8
Gravur
 62
   255
 39
0.200
  6
CONTINUOUS
 10
84.61918
 20
4.74177
 30
 0
 11
84.60131
 21
4.86689
  0
LINE
  8
Gravur
 62
   255
 39
0.200
  6
CONTINUOUS
 10
84.60131
 20
4.86689
 30
 0
 11
84.54769
 21
4.99201
  0
LINE
  8
Gravur
 62
   255
 39
0.200
  6
CONTINUOUS
 10
84.54769
 20
4.99201
 30
 0
 11
84.45831
 21
5.06350
  0
LINE
  8
Gravur
 62
   255
 39
0.200
  6
CONTINUOUS
 10
84.45831
 20
5.06350
 30
 0
 11
84.36894
 21
5.11713
  0
LINE
  8
Gravur
 62
   255
 39
0.200
  6
CONTINUOUS
 10
84.36894
 20
5.11713
 30
 0
 11
84.26170
 21
5.15287
  0
LINE
  8
Gravur
 62
   255
 39
0.200
  6
CONTINUOUS
 10
84.26170
 20
5.15287
 30
 0
 11
84.01146
 21
5.15287
  0
LINE
  8
Gravur
 62
   255
 39
0.200
  6
CONTINUOUS
 10
84.01146
 20
5.15287
 30
 0
 11
83.85060
 21
5.13500
  0
LINE
  8
Gravur
 62
   255
 39
0.200
  6
CONTINUOUS
 10
83.85060
 20
5.13500
 30
 0
 11
83.72548
 21
5.04563
  0
LINE
  8
Gravur
 62
   255
 39
0.200
  6
CONTINUOUS
 10
83.72548
 20
5.04563
 30
 0
 11
83.65398
 21
4.93839
  0
LINE
  8
Gravur
 62
   255
 39
0.200
  6
CONTINUOUS
 10
83.65398
 20
4.93839
 30
 0
 11
83.60036
 21
4.79539
  0
LINE
  8
Gravur
 62
   255
 39
0.200
  6
CONTINUOUS
 10
83.60036
 20
4.79539
 30
 0
 11
83.60036
 21
3.27610
  0
LINE
  8
Gravur
 62
   255
 39
0.200
  6
CONTINUOUS
 10
83.60036
 20
3.27610
 30
 0
 11
83.63611
 21
3.11524
  0
LINE
  8
Gravur
 62
   255
 39
0.200
  6
CONTINUOUS
 10
83.63611
 20
3.11524
 30
 0
 11
83.68973
 21
3.00799
  0
LINE
  8
Gravur
 62
   255
 39
0.200
  6
CONTINUOUS
 10
83.68973
 20
3.00799
 30
 0
 11
83.79698
 21
2.91862
  0
LINE
  8
Gravur
 62
   255
 39
0.200
  6
CONTINUOUS
 10
83.79698
 20
2.91862
 30
 0
 11
83.88635
 21
2.86500
  0
LINE
  8
Gravur
 62
   255
 39
0.200
  6
CONTINUOUS
 10
83.88635
 20
2.86500
 30
 0
 11
84.02934
 21
2.84713
  0
LINE
  8
Gravur
 62
   255
 39
0.200
  6
CONTINUOUS
 10
84.02934
 20
2.84713
 30
 0
 11
84.20808
 21
2.84713
  0
LINE
  8
Gravur
 62
   255
 39
0.200
  6
CONTINUOUS
 10
84.20808
 20
2.84713
 30
 0
 11
84.33320
 21
2.86500
  0
LINE
  8
Gravur
 62
   255
 39
0.200
  6
CONTINUOUS
 10
84.33320
 20
2.86500
 30
 0
 11
84.47619
 21
2.93650
  0
LINE
  8
Gravur
 62
   255
 39
0.200
  6
CONTINUOUS
 10
84.47619
 20
2.93650
 30
 0
 11
84.56556
 21
3.02587
  0
LINE
  8
Gravur
 62
   255
 39
0.200
  6
CONTINUOUS
 10
84.56556
 20
3.02587
 30
 0
 11
84.63706
 21
3.16886
  0
LINE
  8
Gravur
 62
   255
 39
0.200
  6
CONTINUOUS
 10
84.63706
 20
3.16886
 30
 0
 11
84.63706
 21
3.27610
  0
LINE
  8
Gravur
 62
   255
 39
0.200
  6
CONTINUOUS
 10
84.63706
 20
3.27610
 30
 0
 11
84.63706
 21
3.49059
  0
LINE
  8
Gravur
 62
   255
 39
0.200
  6
CONTINUOUS
 10
85.10136
 20
2.86600
 30
 0
 11
85.10136
 21
5.13600
  0
LINE
  8
Gravur
 62
   255
 39
0.200
  6
CONTINUOUS
 10
85.10136
 20
5.13600
 30
 0
 11
85.74483
 21
5.13600
  0
LINE
  8
Gravur
 62
   255
 39
0.200
  6
CONTINUOUS
 10
85.74483
 20
5.13600
 30
 0
 11
85.94144
 21
5.08238
  0
LINE
  8
Gravur
 62
   255
 39
0.200
  6
CONTINUOUS
 10
85.94144
 20
5.08238
 30
 0
 11
86.06656
 21
4.99301
  0
LINE
  8
Gravur
 62
   255
 39
0.200
  6
CONTINUOUS
 10
86.06656
 20
4.99301
 30
 0
 11
86.15593
 21
4.86789
  0
LINE
  8
Gravur
 62
   255
 39
0.200
  6
CONTINUOUS
 10
86.15593
 20
4.86789
 30
 0
 11
86.17380
 21
4.70702
  0
LINE
  8
Gravur
 62
   255
 39
0.200
  6
CONTINUOUS
 10
86.17380
 20
4.70702
 30
 0
 11
86.17380
 21
4.45679
  0
LINE
  8
Gravur
 62
   255
 39
0.200
  6
CONTINUOUS
 10
86.17380
 20
4.45679
 30
 0
 11
86.15593
 21
4.31380
  0
LINE
  8
Gravur
 62
   255
 39
0.200
  6
CONTINUOUS
 10
86.15593
 20
4.31380
 30
 0
 11
86.06656
 21
4.17080
  0
LINE
  8
Gravur
 62
   255
 39
0.200
  6
CONTINUOUS
 10
86.06656
 20
4.17080
 30
 0
 11
85.95931
 21
4.08143
  0
LINE
  8
Gravur
 62
   255
 39
0.200
  6
CONTINUOUS
 10
85.95931
 20
4.08143
 30
 0
 11
85.76270
 21
4.02781
  0
LINE
  8
Gravur
 62
   255
 39
0.200
  6
CONTINUOUS
 10
85.76270
 20
4.02781
 30
 0
 11
85.10136
 21
4.02781
  0
LINE
  8
Gravur
 62
   255
 39
0.200
  6
CONTINUOUS
 10
86.63836
 20
2.86600
 30
 0
 11
87.28183
 21
5.13600
  0
LINE
  8
Gravur
 62
   255
 39
0.200
  6
CONTINUOUS
 10
87.72849
 20
2.86600
 30
 0
 11
87.72849
 21
5.13600
  0
LINE
  8
Gravur
 62
   255
 39
0.200
  6
CONTINUOUS
 10
87.72849
 20
5.13600
 30
 0
 11
87.88935
 21
5.13600
  0
LINE
  8
Gravur
 62
   255
 39
0.200
  6
CONTINUOUS
 10
87.88935
 20
5.13600
 30
 0
 11
88.55069
 21
2.86600
  0
LINE
  8
Gravur
 62
   255
 39
0.200
  6
CONTINUOUS
 10
88.55069
 20
2.86600
 30
 0
 11
89.19416
 21
5.13600
  0
LINE
  8
Gravur
 62
   255
 39
0.200
  6
CONTINUOUS
 10
89.19416
 20
5.13600
 30
 0
 11
89.35502
 21
5.13600
  0
LINE
  8
Gravur
 62
   255
 39
0.200
  6
CONTINUOUS
 10
89.35502
 20
5.13600
 30
 0
 11
89.35502
 21
2.86600
  0
LINE
  8
Gravur
 62
   255
 39
0.200
  6
CONTINUOUS
 10
13.53636
 20
3.57996
 30
 0
 11
13.53636
 21
3.27610
  0
LINE
  8
Gravur
 62
   255
 39
0.200
  6
CONTINUOUS
 10
13.53636
 20
3.27610
 30
 0
 11
13.57211
 21
3.11524
  0
LINE
  8
Gravur
 62
   255
 39
0.200
  6
CONTINUOUS
 10
13.57211
 20
3.11524
 30
 0
 11
13.66148
 21
2.97224
  0
LINE
  8
Gravur
 62
   255
 39
0.200
  6
CONTINUOUS
 10
13.66148
 20
2.97224
 30
 0
 11
13.78660
 21
2.88287
  0
LINE
  8
Gravur
 62
   255
 39
0.200
  6
CONTINUOUS
 10
13.78660
 20
2.88287
 30
 0
 11
13.96534
 21
2.84713
  0
LINE
  8
Gravur
 62
   255
 39
0.200
  6
CONTINUOUS
 10
13.96534
 20
2.84713
 30
 0
 11
14.17983
 21
2.84713
  0
LINE
  8
Gravur
 62
   255
 39
0.200
  6
CONTINUOUS
 10
14.17983
 20
2.84713
 30
 0
 11
14.30494
 21
2.86500
  0
LINE
  8
Gravur
 62
   255
 39
0.200
  6
CONTINUOUS
 10
14.30494
 20
2.86500
 30
 0
 11
14.46581
 21
2.95437
  0
LINE
  8
Gravur
 62
   255
 39
0.200
  6
CONTINUOUS
 10
14.46581
 20
2.95437
 30
 0
 11
14.57306
 21
3.09736
  0
LINE
  8
Gravur
 62
   255
 39
0.200
  6
CONTINUOUS
 10
14.57306
 20
3.09736
 30
 0
 11
14.60880
 21
3.27610
  0
LINE
  8
Gravur
 62
   255
 39
0.200
  6
CONTINUOUS
 10
14.60880
 20
3.27610
 30
 0
 11
14.60880
 21
3.40122
  0
LINE
  8
Gravur
 62
   255
 39
0.200
  6
CONTINUOUS
 10
14.60880
 20
3.40122
 30
 0
 11
14.57306
 21
3.52634
  0
LINE
  8
Gravur
 62
   255
 39
0.200
  6
CONTINUOUS
 10
14.57306
 20
3.52634
 30
 0
 11
14.50156
 21
3.66933
  0
LINE
  8
Gravur
 62
   255
 39
0.200
  6
CONTINUOUS
 10
14.50156
 20
3.66933
 30
 0
 11
14.43006
 21
3.74083
  0
LINE
  8
Gravur
 62
   255
 39
0.200
  6
CONTINUOUS
 10
14.43006
 20
3.74083
 30
 0
 11
14.32282
 21
3.83020
  0
LINE
  8
Gravur
 62
   255
 39
0.200
  6
CONTINUOUS
 10
14.32282
 20
3.83020
 30
 0
 11
13.80447
 21
4.29492
  0
LINE
  8
Gravur
 62
   255
 39
0.200
  6
CONTINUOUS
 10
13.80447
 20
4.29492
 30
 0
 11
13.71510
 21
4.36642
  0
LINE
  8
Gravur
 62
   255
 39
0.200
  6
CONTINUOUS
 10
13.71510
 20
4.36642
 30
 0
 11
13.62573
 21
4.47366
  0
LINE
  8
Gravur
 62
   255
 39
0.200
  6
CONTINUOUS
 10
13.62573
 20
4.47366
 30
 0
 11
13.58998
 21
4.52728
  0
LINE
  8
Gravur
 62
   255
 39
0.200
  6
CONTINUOUS
 10
13.58998
 20
4.52728
 30
 0
 11
13.57211
 21
4.61665
  0
LINE
  8
Gravur
 62
   255
 39
0.200
  6
CONTINUOUS
 10
13.57211
 20
4.61665
 30
 0
 11
13.57211
 21
4.77752
  0
LINE
  8
Gravur
 62
   255
 39
0.200
  6
CONTINUOUS
 10
13.57211
 20
4.77752
 30
 0
 11
13.62573
 21
4.93839
  0
LINE
  8
Gravur
 62
   255
 39
0.200
  6
CONTINUOUS
 10
13.62573
 20
4.93839
 30
 0
 11
13.69723
 21
5.04563
  0
LINE
  8
Gravur
 62
   255
 39
0.200
  6
CONTINUOUS
 10
13.69723
 20
5.04563
 30
 0
 11
13.80447
 21
5.11713
  0
LINE
  8
Gravur
 62
   255
 39
0.200
  6
CONTINUOUS
 10
13.80447
 20
5.11713
 30
 0
 11
13.98321
 21
5.15287
  0
LINE
  8
Gravur
 62
   255
 39
0.200
  6
CONTINUOUS
 10
13.98321
 20
5.15287
 30
 0
 11
14.16195
 21
5.15287
  0
LINE
  8
Gravur
 62
   255
 39
0.200
  6
CONTINUOUS
 10
14.16195
 20
5.15287
 30
 0
 11
14.26920
 21
5.13500
  0
LINE
  8
Gravur
 62
   255
 39
0.200
  6
CONTINUOUS
 10
14.26920
 20
5.13500
 30
 0
 11
14.39431
 21
5.08138
  0
LINE
  8
Gravur
 62
   255
 39
0.200
  6
CONTINUOUS
 10
14.39431
 20
5.08138
 30
 0
 11
14.48369
 21
4.99201
  0
LINE
  8
Gravur
 62
   255
 39
0.200
  6
CONTINUOUS
 10
14.48369
 20
4.99201
 30
 0
 11
14.55518
 21
4.86689
  0
LINE
  8
Gravur
 62
   255
 39
0.200
  6
CONTINUOUS
 10
14.55518
 20
4.86689
 30
 0
 11
14.57306
 21
4.74177
  0
LINE
  8
Gravur
 62
   255
 39
0.200
  6
CONTINUOUS
 10
14.57306
 20
4.74177
 30
 0
 11
14.57306
 21
4.58091
  0
LINE
  8
Gravur
 62
   255
 39
0.200
  6
CONTINUOUS
 10
15.05549
 20
4.00894
 30
 0
 11
15.05549
 21
3.27610
  0
LINE
  8
Gravur
 62
   255
 39
0.200
  6
CONTINUOUS
 10
15.05549
 20
3.27610
 30
 0
 11
15.09124
 21
3.09736
  0
LINE
  8
Gravur
 62
   255
 39
0.200
  6
CONTINUOUS
 10
15.09124
 20
3.09736
 30
 0
 11
15.16273
 21
2.99012
  0
LINE
  8
Gravur
 62
   255
 39
0.200
  6
CONTINUOUS
 10
15.16273
 20
2.99012
 30
 0
 11
15.25210
 21
2.91862
  0
LINE
  8
Gravur
 62
   255
 39
0.200
  6
CONTINUOUS
 10
15.25210
 20
2.91862
 30
 0
 11
15.37722
 21
2.84713
  0
LINE
  8
Gravur
 62
   255
 39
0.200
  6
CONTINUOUS
 10
15.37722
 20
2.84713
 30
 0
 11
15.48446
 21
2.84713
  0
LINE
  8
Gravur
 62
   255
 39
0.200
  6
CONTINUOUS
 10
15.48446
 20
2.84713
 30
 0
 11
15.77045
 21
2.84713
  0
LINE
  8
Gravur
 62
   255
 39
0.200
  6
CONTINUOUS
 10
15.77045
 20
2.84713
 30
 0
 11
15.93131
 21
2.86500
  0
LINE
  8
Gravur
 62
   255
 39
0.200
  6
CONTINUOUS
 10
15.93131
 20
2.86500
 30
 0
 11
16.05643
 21
2.93650
  0
LINE
  8
Gravur
 62
   255
 39
0.200
  6
CONTINUOUS
 10
16.05643
 20
2.93650
 30
 0
 11
16.16368
 21
3.07949
  0
LINE
  8
Gravur
 62
   255
 39
0.200
  6
CONTINUOUS
 10
16.16368
 20
3.07949
 30
 0
 11
16.21730
 21
3.27610
  0
LINE
  8
Gravur
 62
   255
 39
0.200
  6
CONTINUOUS
 10
16.21730
 20
3.27610
 30
 0
 11
16.21730
 21
4.72390
  0
LINE
  8
Gravur
 62
   255
 39
0.200
  6
CONTINUOUS
 10
16.21730
 20
4.72390
 30
 0
 11
16.18155
 21
4.86689
  0
LINE
  8
Gravur
 62
   255
 39
0.200
  6
CONTINUOUS
 10
16.18155
 20
4.86689
 30
 0
 11
16.11006
 21
5.00988
  0
LINE
  8
Gravur
 62
   255
 39
0.200
  6
CONTINUOUS
 10
16.11006
 20
5.00988
 30
 0
 11
16.02069
 21
5.08138
  0
LINE
  8
Gravur
 62
   255
 39
0.200
  6
CONTINUOUS
 10
16.02069
 20
5.08138
 30
 0
 11
15.93131
 21
5.13500
  0
LINE
  8
Gravur
 62
   255
 39
0.200
  6
CONTINUOUS
 10
15.93131
 20
5.13500
 30
 0
 11
15.77045
 21
5.15287
  0
LINE
  8
Gravur
 62
   255
 39
0.200
  6
CONTINUOUS
 10
15.77045
 20
5.15287
 30
 0
 11
15.48446
 21
5.15287
  0
LINE
  8
Gravur
 62
   255
 39
0.200
  6
CONTINUOUS
 10
15.48446
 20
5.15287
 30
 0
 11
15.34147
 21
5.13500
  0
LINE
  8
Gravur
 62
   255
 39
0.200
  6
CONTINUOUS
 10
15.34147
 20
5.13500
 30
 0
 11
15.21635
 21
5.06350
  0
LINE
  8
Gravur
 62
   255
 39
0.200
  6
CONTINUOUS
 10
15.21635
 20
5.06350
 30
 0
 11
15.12698
 21
4.97413
  0
LINE
  8
Gravur
 62
   255
 39
0.200
  6
CONTINUOUS
 10
15.12698
 20
4.97413
 30
 0
 11
15.07336
 21
4.86689
  0
LINE
  8
Gravur
 62
   255
 39
0.200
  6
CONTINUOUS
 10
15.07336
 20
4.86689
 30
 0
 11
15.05549
 21
4.72390
  0
LINE
  8
Gravur
 62
   255
 39
0.200
  6
CONTINUOUS
 10
15.05549
 20
4.72390
 30
 0
 11
15.05549
 21
4.00894
  0
LINE
  8
Gravur
 62
   255
 39
0.200
  6
CONTINUOUS
 10
16.68136
 20
5.13600
 30
 0
 11
16.68136
 21
3.29498
  0
LINE
  8
Gravur
 62
   255
 39
0.200
  6
CONTINUOUS
 10
16.68136
 20
3.29498
 30
 0
 11
16.73498
 21
3.08049
  0
LINE
  8
Gravur
 62
   255
 39
0.200
  6
CONTINUOUS
 10
16.73498
 20
3.08049
 30
 0
 11
16.80648
 21
2.97324
  0
LINE
  8
Gravur
 62
   255
 39
0.200
  6
CONTINUOUS
 10
16.80648
 20
2.97324
 30
 0
 11
16.94947
 21
2.88387
  0
LINE
  8
Gravur
 62
   255
 39
0.200
  6
CONTINUOUS
 10
16.94947
 20
2.88387
 30
 0
 11
17.12821
 21
2.84813
  0
LINE
  8
Gravur
 62
   255
 39
0.200
  6
CONTINUOUS
 10
17.12821
 20
2.84813
 30
 0
 11
17.36057
 21
2.84813
  0
LINE
  8
Gravur
 62
   255
 39
0.200
  6
CONTINUOUS
 10
17.36057
 20
2.84813
 30
 0
 11
17.50357
 21
2.86600
  0
LINE
  8
Gravur
 62
   255
 39
0.200
  6
CONTINUOUS
 10
17.50357
 20
2.86600
 30
 0
 11
17.66443
 21
2.95537
  0
LINE
  8
Gravur
 62
   255
 39
0.200
  6
CONTINUOUS
 10
17.66443
 20
2.95537
 30
 0
 11
17.78955
 21
3.11624
  0
LINE
  8
Gravur
 62
   255
 39
0.200
  6
CONTINUOUS
 10
17.78955
 20
3.11624
 30
 0
 11
17.82530
 21
3.29498
  0
LINE
  8
Gravur
 62
   255
 39
0.200
  6
CONTINUOUS
 10
17.82530
 20
3.29498
 30
 0
 11
17.82530
 21
5.13600
  0
LINE
  8
Gravur
 62
   255
 39
0.200
  6
CONTINUOUS
 10
18.27149
 20
2.86600
 30
 0
 11
18.27149
 21
5.13600
  0
LINE
  8
Gravur
 62
   255
 39
0.200
  6
CONTINUOUS
 10
18.27149
 20
5.13600
 30
 0
 11
18.43235
 21
5.13600
  0
LINE
  8
Gravur
 62
   255
 39
0.200
  6
CONTINUOUS
 10
18.43235
 20
5.13600
 30
 0
 11
19.50480
 21
2.86600
  0
LINE
  8
Gravur
 62
   255
 39
0.200
  6
CONTINUOUS
 10
19.50480
 20
2.86600
 30
 0
 11
19.50480
 21
5.13600
  0
LINE
  8
Gravur
 62
   255
 39
0.200
  6
CONTINUOUS
 10
19.95149
 20
4.04569
 30
 0
 11
19.95149
 21
2.86600
  0
LINE
  8
Gravur
 62
   255
 39
0.200
  6
CONTINUOUS
 10
19.95149
 20
2.86600
 30
 0
 11
20.68432
 21
2.86600
  0
LINE
  8
Gravur
 62
   255
 39
0.200
  6
CONTINUOUS
 10
20.68432
 20
2.86600
 30
 0
 11
20.82731
 21
2.90175
  0
LINE
  8
Gravur
 62
   255
 39
0.200
  6
CONTINUOUS
 10
20.82731
 20
2.90175
 30
 0
 11
20.95243
 21
2.97324
  0
LINE
  8
Gravur
 62
   255
 39
0.200
  6
CONTINUOUS
 10
20.95243
 20
2.97324
 30
 0
 11
21.04180
 21
3.08049
  0
LINE
  8
Gravur
 62
   255
 39
0.200
  6
CONTINUOUS
 10
21.04180
 20
3.08049
 30
 0
 11
21.11330
 21
3.24135
  0
LINE
  8
Gravur
 62
   255
 39
0.200
  6
CONTINUOUS
 10
21.11330
 20
3.24135
 30
 0
 11
21.11330
 21
3.34860
  0
LINE
  8
Gravur
 62
   255
 39
0.200
  6
CONTINUOUS
 10
21.11330
 20
3.34860
 30
 0
 11
21.11330
 21
4.70702
  0
LINE
  8
Gravur
 62
   255
 39
0.200
  6
CONTINUOUS
 10
21.11330
 20
4.70702
 30
 0
 11
21.09543
 21
4.81427
  0
LINE
  8
Gravur
 62
   255
 39
0.200
  6
CONTINUOUS
 10
21.09543
 20
4.81427
 30
 0
 11
21.04180
 21
4.93939
  0
LINE
  8
Gravur
 62
   255
 39
0.200
  6
CONTINUOUS
 10
21.04180
 20
4.93939
 30
 0
 11
20.95243
 21
5.02876
  0
LINE
  8
Gravur
 62
   255
 39
0.200
  6
CONTINUOUS
 10
20.95243
 20
5.02876
 30
 0
 11
20.82731
 21
5.11813
  0
LINE
  8
Gravur
 62
   255
 39
0.200
  6
CONTINUOUS
 10
20.82731
 20
5.11813
 30
 0
 11
20.68432
 21
5.13600
  0
LINE
  8
Gravur
 62
   255
 39
0.200
  6
CONTINUOUS
 10
20.68432
 20
5.13600
 30
 0
 11
19.95149
 21
5.13600
  0
LINE
  8
Gravur
 62
   255
 39
0.200
  6
CONTINUOUS
 10
19.95149
 20
5.13600
 30
 0
 11
19.95149
 21
4.04569
  0
LINE
  8
Kontur
 62
   7
 39
0.100
  6
CONTINUOUS
 10
160.14700
 20
34.80300
 30
 0
 11
160.20100
 21
34.80600
  0
LINE
  8
Kontur
 62
   7
 39
0.100
  6
CONTINUOUS
 10
160.20100
 20
34.80600
 30
 0
 11
160.25500
 21
34.81100
  0
LINE
  8
Kontur
 62
   7
 39
0.100
  6
CONTINUOUS
 10
160.25500
 20
34.81100
 30
 0
 11
160.43800
 21
34.83100
  0
LINE
  8
Kontur
 62
   7
 39
0.100
  6
CONTINUOUS
 10
160.43800
 20
34.83100
 30
 0
 11
160.49200
 21
34.83800
  0
LINE
  8
Kontur
 62
   7
 39
0.100
  6
CONTINUOUS
 10
160.49200
 20
34.83800
 30
 0
 11
160.54600
 21
34.84700
  0
LINE
  8
Kontur
 62
   7
 39
0.100
  6
CONTINUOUS
 10
160.54600
 20
34.84700
 30
 0
 11
160.60000
 21
34.85800
  0
LINE
  8
Kontur
 62
   7
 39
0.100
  6
CONTINUOUS
 10
160.60000
 20
34.85800
 30
 0
 11
160.78000
 21
34.89800
  0
LINE
  8
Kontur
 62
   7
 39
0.100
  6
CONTINUOUS
 10
160.78000
 20
34.89800
 30
 0
 11
160.83400
 21
34.91100
  0
LINE
  8
Kontur
 62
   7
 39
0.100
  6
CONTINUOUS
 10
160.83400
 20
34.91100
 30
 0
 11
160.88600
 21
34.92500
  0
LINE
  8
Kontur
 62
   7
 39
0.100
  6
CONTINUOUS
 10
160.88600
 20
34.92500
 30
 0
 11
160.93700
 21
34.94100
  0
LINE
  8
Kontur
 62
   7
 39
0.100
  6
CONTINUOUS
 10
160.93700
 20
34.94100
 30
 0
 11
161.11100
 21
35.00000
  0
LINE
  8
Kontur
 62
   7
 39
0.100
  6
CONTINUOUS
 10
161.11100
 20
35.00000
 30
 0
 11
161.16200
 21
35.01900
  0
LINE
  8
Kontur
 62
   7
 39
0.100
  6
CONTINUOUS
 10
161.16200
 20
35.01900
 30
 0
 11
161.21300
 21
35.03900
  0
LINE
  8
Kontur
 62
   7
 39
0.100
  6
CONTINUOUS
 10
161.21300
 20
35.03900
 30
 0
 11
161.25700
 21
35.05900
  0
LINE
  8
Kontur
 62
   7
 39
0.100
  6
CONTINUOUS
 10
161.25700
 20
35.05900
 30
 0
 11
161.42400
 21
35.13600
  0
LINE
  8
Kontur
 62
   7
 39
0.100
  6
CONTINUOUS
 10
161.42400
 20
35.13600
 30
 0
 11
161.47300
 21
35.16000
  0
LINE
  8
Kontur
 62
   7
 39
0.100
  6
CONTINUOUS
 10
161.47300
 20
35.16000
 30
 0
 11
161.52200
 21
35.18500
  0
LINE
  8
Kontur
 62
   7
 39
0.100
  6
CONTINUOUS
 10
161.52200
 20
35.18500
 30
 0
 11
161.56900
 21
35.21200
  0
LINE
  8
Kontur
 62
   7
 39
0.100
  6
CONTINUOUS
 10
161.56900
 20
35.21200
 30
 0
 11
161.72700
 21
35.30700
  0
LINE
  8
Kontur
 62
   7
 39
0.100
  6
CONTINUOUS
 10
161.72700
 20
35.30700
 30
 0
 11
161.81900
 21
35.36700
  0
LINE
  8
Kontur
 62
   7
 39
0.100
  6
CONTINUOUS
 10
161.81900
 20
35.36700
 30
 0
 11
161.85800
 21
35.39600
  0
LINE
  8
Kontur
 62
   7
 39
0.100
  6
CONTINUOUS
 10
161.85800
 20
35.39600
 30
 0
 11
162.00500
 21
35.50700
  0
LINE
  8
Kontur
 62
   7
 39
0.100
  6
CONTINUOUS
 10
162.00500
 20
35.50700
 30
 0
 11
162.04800
 21
35.54100
  0
LINE
  8
Kontur
 62
   7
 39
0.100
  6
CONTINUOUS
 10
162.04800
 20
35.54100
 30
 0
 11
162.09000
 21
35.57600
  0
LINE
  8
Kontur
 62
   7
 39
0.100
  6
CONTINUOUS
 10
162.09000
 20
35.57600
 30
 0
 11
162.13700
 21
35.61900
  0
LINE
  8
Kontur
 62
   7
 39
0.100
  6
CONTINUOUS
 10
162.13700
 20
35.61900
 30
 0
 11
162.27000
 21
35.74600
  0
LINE
  8
Kontur
 62
   7
 39
0.100
  6
CONTINUOUS
 10
162.27000
 20
35.74600
 30
 0
 11
162.30900
 21
35.78500
  0
LINE
  8
Kontur
 62
   7
 39
0.100
  6
CONTINUOUS
 10
162.30900
 20
35.78500
 30
 0
 11
162.34600
 21
35.82500
  0
LINE
  8
Kontur
 62
   7
 39
0.100
  6
CONTINUOUS
 10
162.34600
 20
35.82500
 30
 0
 11
162.37700
 21
35.86000
  0
LINE
  8
Kontur
 62
   7
 39
0.100
  6
CONTINUOUS
 10
162.37700
 20
35.86000
 30
 0
 11
162.49600
 21
36.00000
  0
LINE
  8
Kontur
 62
   7
 39
0.100
  6
CONTINUOUS
 10
162.49600
 20
36.00000
 30
 0
 11
162.53100
 21
36.04200
  0
LINE
  8
Kontur
 62
   7
 39
0.100
  6
CONTINUOUS
 10
162.53100
 20
36.04200
 30
 0
 11
162.56400
 21
36.08600
  0
LINE
  8
Kontur
 62
   7
 39
0.100
  6
CONTINUOUS
 10
162.56400
 20
36.08600
 30
 0
 11
162.59400
 21
36.12800
  0
LINE
  8
Kontur
 62
   7
 39
0.100
  6
CONTINUOUS
 10
162.59400
 20
36.12800
 30
 0
 11
162.69800
 21
36.28100
  0
LINE
  8
Kontur
 62
   7
 39
0.100
  6
CONTINUOUS
 10
162.69800
 20
36.28100
 30
 0
 11
162.72700
 21
36.32700
  0
LINE
  8
Kontur
 62
   7
 39
0.100
  6
CONTINUOUS
 10
162.72700
 20
36.32700
 30
 0
 11
162.75600
 21
36.37400
  0
LINE
  8
Kontur
 62
   7
 39
0.100
  6
CONTINUOUS
 10
162.75600
 20
36.37400
 30
 0
 11
162.78200
 21
36.42100
  0
LINE
  8
Kontur
 62
   7
 39
0.100
  6
CONTINUOUS
 10
162.78200
 20
36.42100
 30
 0
 11
162.86800
 21
36.58300
  0
LINE
  8
Kontur
 62
   7
 39
0.100
  6
CONTINUOUS
 10
162.86800
 20
36.58300
 30
 0
 11
162.89300
 21
36.63200
  0
LINE
  8
Kontur
 62
   7
 39
0.100
  6
CONTINUOUS
 10
162.89300
 20
36.63200
 30
 0
 11
162.91600
 21
36.68100
  0
LINE
  8
Kontur
 62
   7
 39
0.100
  6
CONTINUOUS
 10
162.91600
 20
36.68100
 30
 0
 11
162.93700
 21
36.73200
  0
LINE
  8
Kontur
 62
   7
 39
0.100
  6
CONTINUOUS
 10
162.93700
 20
36.73200
 30
 0
 11
163.00500
 21
36.90300
  0
LINE
  8
Kontur
 62
   7
 39
0.100
  6
CONTINUOUS
 10
163.00500
 20
36.90300
 30
 0
 11
163.02400
 21
36.95400
  0
LINE
  8
Kontur
 62
   7
 39
0.100
  6
CONTINUOUS
 10
163.02400
 20
36.95400
 30
 0
 11
163.04200
 21
37.00600
  0
LINE
  8
Kontur
 62
   7
 39
0.100
  6
CONTINUOUS
 10
163.04200
 20
37.00600
 30
 0
 11
163.05700
 21
37.05900
  0
LINE
  8
Kontur
 62
   7
 39
0.100
  6
CONTINUOUS
 10
163.05700
 20
37.05900
 30
 0
 11
163.10600
 21
37.23700
  0
LINE
  8
Kontur
 62
   7
 39
0.100
  6
CONTINUOUS
 10
163.10600
 20
37.23700
 30
 0
 11
163.12000
 21
37.29000
  0
LINE
  8
Kontur
 62
   7
 39
0.100
  6
CONTINUOUS
 10
163.12000
 20
37.29000
 30
 0
 11
163.13100
 21
37.34300
  0
LINE
  8
Kontur
 62
   7
 39
0.100
  6
CONTINUOUS
 10
163.13100
 20
37.34300
 30
 0
 11
163.14000
 21
37.39000
  0
LINE
  8
Kontur
 62
   7
 39
0.100
  6
CONTINUOUS
 10
163.14000
 20
37.39000
 30
 0
 11
163.17000
 21
37.57100
  0
LINE
  8
Kontur
 62
   7
 39
0.100
  6
CONTINUOUS
 10
163.17000
 20
37.57100
 30
 0
 11
163.17800
 21
37.62500
  0
LINE
  8
Kontur
 62
   7
 39
0.100
  6
CONTINUOUS
 10
163.17800
 20
37.62500
 30
 0
 11
163.18400
 21
37.67900
  0
LINE
  8
Kontur
 62
   7
 39
0.100
  6
CONTINUOUS
 10
163.18400
 20
37.67900
 30
 0
 11
163.18800
 21
37.73500
  0
LINE
  8
Kontur
 62
   7
 39
0.100
  6
CONTINUOUS
 10
163.18800
 20
37.73500
 30
 0
 11
163.19800
 21
37.91900
  0
LINE
  8
Kontur
 62
   7
 39
0.100
  6
CONTINUOUS
 10
163.19800
 20
37.91900
 30
 0
 11
163.20000
 21
37.97300
  0
LINE
  8
Kontur
 62
   7
 39
0.100
  6
CONTINUOUS
 10
163.20000
 20
37.97300
 30
 0
 11
163.20000
 21
38.02800
  0
LINE
  8
Kontur
 62
   7
 39
0.100
  6
CONTINUOUS
 10
163.20000
 20
38.02800
 30
 0
 11
163.19800
 21
38.08100
  0
LINE
  8
Kontur
 62
   7
 39
0.100
  6
CONTINUOUS
 10
163.19800
 20
38.08100
 30
 0
 11
163.18800
 21
38.26500
  0
LINE
  8
Kontur
 62
   7
 39
0.100
  6
CONTINUOUS
 10
163.18800
 20
38.26500
 30
 0
 11
163.18400
 21
38.32000
  0
LINE
  8
Kontur
 62
   7
 39
0.100
  6
CONTINUOUS
 10
163.18400
 20
38.32000
 30
 0
 11
163.17800
 21
38.37400
  0
LINE
  8
Kontur
 62
   7
 39
0.100
  6
CONTINUOUS
 10
163.17800
 20
38.37400
 30
 0
 11
163.17000
 21
38.42900
  0
LINE
  8
Kontur
 62
   7
 39
0.100
  6
CONTINUOUS
 10
163.17000
 20
38.42900
 30
 0
 11
163.14000
 21
38.61000
  0
LINE
  8
Kontur
 62
   7
 39
0.100
  6
CONTINUOUS
 10
163.14000
 20
38.61000
 30
 0
 11
163.13000
 21
38.66400
  0
LINE
  8
Kontur
 62
   7
 39
0.100
  6
CONTINUOUS
 10
163.13000
 20
38.66400
 30
 0
 11
163.11800
 21
38.71800
  0
LINE
  8
Kontur
 62
   7
 39
0.100
  6
CONTINUOUS
 10
163.11800
 20
38.71800
 30
 0
 11
163.10600
 21
38.76300
  0
LINE
  8
Kontur
 62
   7
 39
0.100
  6
CONTINUOUS
 10
163.10600
 20
38.76300
 30
 0
 11
163.05700
 21
38.94100
  0
LINE
  8
Kontur
 62
   7
 39
0.100
  6
CONTINUOUS
 10
163.05700
 20
38.94100
 30
 0
 11
163.04200
 21
38.99400
  0
LINE
  8
Kontur
 62
   7
 39
0.100
  6
CONTINUOUS
 10
163.04200
 20
38.99400
 30
 0
 11
163.02400
 21
39.04600
  0
LINE
  8
Kontur
 62
   7
 39
0.100
  6
CONTINUOUS
 10
163.02400
 20
39.04600
 30
 0
 11
163.00500
 21
39.09700
  0
LINE
  8
Kontur
 62
   7
 39
0.100
  6
CONTINUOUS
 10
163.00500
 20
39.09700
 30
 0
 11
162.93700
 21
39.26800
  0
LINE
  8
Kontur
 62
   7
 39
0.100
  6
CONTINUOUS
 10
162.93700
 20
39.26800
 30
 0
 11
162.91600
 21
39.31900
  0
LINE
  8
Kontur
 62
   7
 39
0.100
  6
CONTINUOUS
 10
162.91600
 20
39.31900
 30
 0
 11
162.89300
 21
39.36800
  0
LINE
  8
Kontur
 62
   7
 39
0.100
  6
CONTINUOUS
 10
162.89300
 20
39.36800
 30
 0
 11
162.86800
 21
39.41700
  0
LINE
  8
Kontur
 62
   7
 39
0.100
  6
CONTINUOUS
 10
162.86800
 20
39.41700
 30
 0
 11
162.78200
 21
39.57900
  0
LINE
  8
Kontur
 62
   7
 39
0.100
  6
CONTINUOUS
 10
162.78200
 20
39.57900
 30
 0
 11
162.75500
 21
39.62700
  0
LINE
  8
Kontur
 62
   7
 39
0.100
  6
CONTINUOUS
 10
162.75500
 20
39.62700
 30
 0
 11
162.72700
 21
39.67400
  0
LINE
  8
Kontur
 62
   7
 39
0.100
  6
CONTINUOUS
 10
162.72700
 20
39.67400
 30
 0
 11
162.69800
 21
39.71900
  0
LINE
  8
Kontur
 62
   7
 39
0.100
  6
CONTINUOUS
 10
162.69800
 20
39.71900
 30
 0
 11
162.59400
 21
39.87200
  0
LINE
  8
Kontur
 62
   7
 39
0.100
  6
CONTINUOUS
 10
162.59400
 20
39.87200
 30
 0
 11
162.56200
 21
39.91700
  0
LINE
  8
Kontur
 62
   7
 39
0.100
  6
CONTINUOUS
 10
162.56200
 20
39.91700
 30
 0
 11
162.52900
 21
39.96100
  0
LINE
  8
Kontur
 62
   7
 39
0.100
  6
CONTINUOUS
 10
162.52900
 20
39.96100
 30
 0
 11
162.49600
 21
40.00000
  0
LINE
  8
Kontur
 62
   7
 39
0.100
  6
CONTINUOUS
 10
162.49600
 20
40.00000
 30
 0
 11
162.37700
 21
40.14000
  0
LINE
  8
Kontur
 62
   7
 39
0.100
  6
CONTINUOUS
 10
162.37700
 20
40.14000
 30
 0
 11
162.34100
 21
40.18200
  0
LINE
  8
Kontur
 62
   7
 39
0.100
  6
CONTINUOUS
 10
162.34100
 20
40.18200
 30
 0
 11
162.30300
 21
40.22100
  0
LINE
  8
Kontur
 62
   7
 39
0.100
  6
CONTINUOUS
 10
162.30300
 20
40.22100
 30
 0
 11
162.27000
 21
40.25400
  0
LINE
  8
Kontur
 62
   7
 39
0.100
  6
CONTINUOUS
 10
162.27000
 20
40.25400
 30
 0
 11
162.13700
 21
40.38100
  0
LINE
  8
Kontur
 62
   7
 39
0.100
  6
CONTINUOUS
 10
162.13700
 20
40.38100
 30
 0
 11
162.09700
 21
40.41800
  0
LINE
  8
Kontur
 62
   7
 39
0.100
  6
CONTINUOUS
 10
162.09700
 20
40.41800
 30
 0
 11
162.05500
 21
40.45400
  0
LINE
  8
Kontur
 62
   7
 39
0.100
  6
CONTINUOUS
 10
162.05500
 20
40.45400
 30
 0
 11
162.00500
 21
40.49300
  0
LINE
  8
Kontur
 62
   7
 39
0.100
  6
CONTINUOUS
 10
162.00500
 20
40.49300
 30
 0
 11
161.85800
 21
40.60400
  0
LINE
  8
Kontur
 62
   7
 39
0.100
  6
CONTINUOUS
 10
161.85800
 20
40.60400
 30
 0
 11
161.81400
 21
40.63600
  0
LINE
  8
Kontur
 62
   7
 39
0.100
  6
CONTINUOUS
 10
161.81400
 20
40.63600
 30
 0
 11
161.76800
 21
40.66700
  0
LINE
  8
Kontur
 62
   7
 39
0.100
  6
CONTINUOUS
 10
161.76800
 20
40.66700
 30
 0
 11
161.72700
 21
40.69300
  0
LINE
  8
Kontur
 62
   7
 39
0.100
  6
CONTINUOUS
 10
161.72700
 20
40.69300
 30
 0
 11
161.56900
 21
40.78800
  0
LINE
  8
Kontur
 62
   7
 39
0.100
  6
CONTINUOUS
 10
161.56900
 20
40.78800
 30
 0
 11
161.52100
 21
40.81500
  0
LINE
  8
Kontur
 62
   7
 39
0.100
  6
CONTINUOUS
 10
161.52100
 20
40.81500
 30
 0
 11
161.47300
 21
40.84000
  0
LINE
  8
Kontur
 62
   7
 39
0.100
  6
CONTINUOUS
 10
161.47300
 20
40.84000
 30
 0
 11
161.42400
 21
40.86400
  0
LINE
  8
Kontur
 62
   7
 39
0.100
  6
CONTINUOUS
 10
161.42400
 20
40.86400
 30
 0
 11
161.25700
 21
40.94100
  0
LINE
  8
Kontur
 62
   7
 39
0.100
  6
CONTINUOUS
 10
161.25700
 20
40.94100
 30
 0
 11
161.20700
 21
40.96300
  0
LINE
  8
Kontur
 62
   7
 39
0.100
  6
CONTINUOUS
 10
161.20700
 20
40.96300
 30
 0
 11
161.15600
 21
40.98300
  0
LINE
  8
Kontur
 62
   7
 39
0.100
  6
CONTINUOUS
 10
161.15600
 20
40.98300
 30
 0
 11
161.11100
 21
41.00000
  0
LINE
  8
Kontur
 62
   7
 39
0.100
  6
CONTINUOUS
 10
161.11100
 20
41.00000
 30
 0
 11
160.93700
 21
41.05900
  0
LINE
  8
Kontur
 62
   7
 39
0.100
  6
CONTINUOUS
 10
160.93700
 20
41.05900
 30
 0
 11
160.88500
 21
41.07500
  0
LINE
  8
Kontur
 62
   7
 39
0.100
  6
CONTINUOUS
 10
160.88500
 20
41.07500
 30
 0
 11
160.83200
 21
41.09000
  0
LINE
  8
Kontur
 62
   7
 39
0.100
  6
CONTINUOUS
 10
160.83200
 20
41.09000
 30
 0
 11
160.78000
 21
41.10200
  0
LINE
  8
Kontur
 62
   7
 39
0.100
  6
CONTINUOUS
 10
160.78000
 20
41.10200
 30
 0
 11
160.60000
 21
41.14200
  0
LINE
  8
Kontur
 62
   7
 39
0.100
  6
CONTINUOUS
 10
160.60000
 20
41.14200
 30
 0
 11
160.54700
 21
41.15300
  0
LINE
  8
Kontur
 62
   7
 39
0.100
  6
CONTINUOUS
 10
160.54700
 20
41.15300
 30
 0
 11
160.49300
 21
41.16200
  0
LINE
  8
Kontur
 62
   7
 39
0.100
  6
CONTINUOUS
 10
160.49300
 20
41.16200
 30
 0
 11
160.43800
 21
41.16900
  0
LINE
  8
Kontur
 62
   7
 39
0.100
  6
CONTINUOUS
 10
160.43800
 20
41.16900
 30
 0
 11
160.25500
 21
41.18900
  0
LINE
  8
Kontur
 62
   7
 39
0.100
  6
CONTINUOUS
 10
160.25500
 20
41.18900
 30
 0
 11
160.20000
 21
41.19400
  0
LINE
  8
Kontur
 62
   7
 39
0.100
  6
CONTINUOUS
 10
160.20000
 20
41.19400
 30
 0
 11
160.14600
 21
41.19700
  0
LINE
  8
Kontur
 62
   7
 39
0.100
  6
CONTINUOUS
 10
160.14600
 20
41.19700
 30
 0
 11
160.09200
 21
41.19800
  0
LINE
  8
Kontur
 62
   7
 39
0.100
  6
CONTINUOUS
 10
160.09200
 20
41.19800
 30
 0
 11
159.90800
 21
41.19800
  0
LINE
  8
Kontur
 62
   7
 39
0.100
  6
CONTINUOUS
 10
159.90800
 20
41.19800
 30
 0
 11
159.85300
 21
41.19700
  0
LINE
  8
Kontur
 62
   7
 39
0.100
  6
CONTINUOUS
 10
159.85300
 20
41.19700
 30
 0
 11
159.79900
 21
41.19400
  0
LINE
  8
Kontur
 62
   7
 39
0.100
  6
CONTINUOUS
 10
159.79900
 20
41.19400
 30
 0
 11
159.74500
 21
41.18900
  0
LINE
  8
Kontur
 62
   7
 39
0.100
  6
CONTINUOUS
 10
159.74500
 20
41.18900
 30
 0
 11
159.56200
 21
41.16900
  0
LINE
  8
Kontur
 62
   7
 39
0.100
  6
CONTINUOUS
 10
159.56200
 20
41.16900
 30
 0
 11
159.50800
 21
41.16200
  0
LINE
  8
Kontur
 62
   7
 39
0.100
  6
CONTINUOUS
 10
159.50800
 20
41.16200
 30
 0
 11
159.45400
 21
41.15300
  0
LINE
  8
Kontur
 62
   7
 39
0.100
  6
CONTINUOUS
 10
159.45400
 20
41.15300
 30
 0
 11
159.40000
 21
41.14200
  0
LINE
  8
Kontur
 62
   7
 39
0.100
  6
CONTINUOUS
 10
159.40000
 20
41.14200
 30
 0
 11
159.22000
 21
41.10200
  0
LINE
  8
Kontur
 62
   7
 39
0.100
  6
CONTINUOUS
 10
159.22000
 20
41.10200
 30
 0
 11
159.16600
 21
41.08900
  0
LINE
  8
Kontur
 62
   7
 39
0.100
  6
CONTINUOUS
 10
159.16600
 20
41.08900
 30
 0
 11
159.11400
 21
41.07500
  0
LINE
  8
Kontur
 62
   7
 39
0.100
  6
CONTINUOUS
 10
159.11400
 20
41.07500
 30
 0
 11
159.06300
 21
41.05900
  0
LINE
  8
Kontur
 62
   7
 39
0.100
  6
CONTINUOUS
 10
159.06300
 20
41.05900
 30
 0
 11
158.88900
 21
41.00000
  0
LINE
  8
Kontur
 62
   7
 39
0.100
  6
CONTINUOUS
 10
158.88900
 20
41.00000
 30
 0
 11
158.83800
 21
40.98100
  0
LINE
  8
Kontur
 62
   7
 39
0.100
  6
CONTINUOUS
 10
158.83800
 20
40.98100
 30
 0
 11
158.78700
 21
40.96100
  0
LINE
  8
Kontur
 62
   7
 39
0.100
  6
CONTINUOUS
 10
158.78700
 20
40.96100
 30
 0
 11
158.74300
 21
40.94100
  0
LINE
  8
Kontur
 62
   7
 39
0.100
  6
CONTINUOUS
 10
158.74300
 20
40.94100
 30
 0
 11
158.57600
 21
40.86400
  0
LINE
  8
Kontur
 62
   7
 39
0.100
  6
CONTINUOUS
 10
158.57600
 20
40.86400
 30
 0
 11
158.52700
 21
40.84000
  0
LINE
  8
Kontur
 62
   7
 39
0.100
  6
CONTINUOUS
 10
158.52700
 20
40.84000
 30
 0
 11
158.47800
 21
40.81500
  0
LINE
  8
Kontur
 62
   7
 39
0.100
  6
CONTINUOUS
 10
158.47800
 20
40.81500
 30
 0
 11
158.43100
 21
40.78800
  0
LINE
  8
Kontur
 62
   7
 39
0.100
  6
CONTINUOUS
 10
158.43100
 20
40.78800
 30
 0
 11
158.27300
 21
40.69300
  0
LINE
  8
Kontur
 62
   7
 39
0.100
  6
CONTINUOUS
 10
158.27300
 20
40.69300
 30
 0
 11
158.18100
 21
40.63300
  0
LINE
  8
Kontur
 62
   7
 39
0.100
  6
CONTINUOUS
 10
158.18100
 20
40.63300
 30
 0
 11
158.14200
 21
40.60400
  0
LINE
  8
Kontur
 62
   7
 39
0.100
  6
CONTINUOUS
 10
158.14200
 20
40.60400
 30
 0
 11
157.99500
 21
40.49300
  0
LINE
  8
Kontur
 62
   7
 39
0.100
  6
CONTINUOUS
 10
157.99500
 20
40.49300
 30
 0
 11
157.95200
 21
40.45900
  0
LINE
  8
Kontur
 62
   7
 39
0.100
  6
CONTINUOUS
 10
157.95200
 20
40.45900
 30
 0
 11
157.91000
 21
40.42400
  0
LINE
  8
Kontur
 62
   7
 39
0.100
  6
CONTINUOUS
 10
157.91000
 20
40.42400
 30
 0
 11
157.86300
 21
40.38100
  0
LINE
  8
Kontur
 62
   7
 39
0.100
  6
CONTINUOUS
 10
157.86300
 20
40.38100
 30
 0
 11
157.73000
 21
40.25400
  0
LINE
  8
Kontur
 62
   7
 39
0.100
  6
CONTINUOUS
 10
157.73000
 20
40.25400
 30
 0
 11
157.69100
 21
40.21500
  0
LINE
  8
Kontur
 62
   7
 39
0.100
  6
CONTINUOUS
 10
157.69100
 20
40.21500
 30
 0
 11
157.65400
 21
40.17500
  0
LINE
  8
Kontur
 62
   7
 39
0.100
  6
CONTINUOUS
 10
157.65400
 20
40.17500
 30
 0
 11
157.62300
 21
40.14000
  0
LINE
  8
Kontur
 62
   7
 39
0.100
  6
CONTINUOUS
 10
157.62300
 20
40.14000
 30
 0
 11
157.50400
 21
40.00000
  0
LINE
  8
Kontur
 62
   7
 39
0.100
  6
CONTINUOUS
 10
157.50400
 20
40.00000
 30
 0
 11
157.46900
 21
39.95800
  0
LINE
  8
Kontur
 62
   7
 39
0.100
  6
CONTINUOUS
 10
157.46900
 20
39.95800
 30
 0
 11
157.43600
 21
39.91400
  0
LINE
  8
Kontur
 62
   7
 39
0.100
  6
CONTINUOUS
 10
157.43600
 20
39.91400
 30
 0
 11
157.40600
 21
39.87200
  0
LINE
  8
Kontur
 62
   7
 39
0.100
  6
CONTINUOUS
 10
157.40600
 20
39.87200
 30
 0
 11
157.30200
 21
39.71900
  0
LINE
  8
Kontur
 62
   7
 39
0.100
  6
CONTINUOUS
 10
157.30200
 20
39.71900
 30
 0
 11
157.27300
 21
39.67300
  0
LINE
  8
Kontur
 62
   7
 39
0.100
  6
CONTINUOUS
 10
157.27300
 20
39.67300
 30
 0
 11
157.24400
 21
39.62600
  0
LINE
  8
Kontur
 62
   7
 39
0.100
  6
CONTINUOUS
 10
157.24400
 20
39.62600
 30
 0
 11
157.21800
 21
39.57900
  0
LINE
  8
Kontur
 62
   7
 39
0.100
  6
CONTINUOUS
 10
157.21800
 20
39.57900
 30
 0
 11
157.13200
 21
39.41700
  0
LINE
  8
Kontur
 62
   7
 39
0.100
  6
CONTINUOUS
 10
157.13200
 20
39.41700
 30
 0
 11
157.10700
 21
39.36800
  0
LINE
  8
Kontur
 62
   7
 39
0.100
  6
CONTINUOUS
 10
157.10700
 20
39.36800
 30
 0
 11
157.08400
 21
39.31900
  0
LINE
  8
Kontur
 62
   7
 39
0.100
  6
CONTINUOUS
 10
157.08400
 20
39.31900
 30
 0
 11
157.06300
 21
39.26800
  0
LINE
  8
Kontur
 62
   7
 39
0.100
  6
CONTINUOUS
 10
157.06300
 20
39.26800
 30
 0
 11
156.99500
 21
39.09700
  0
LINE
  8
Kontur
 62
   7
 39
0.100
  6
CONTINUOUS
 10
156.99500
 20
39.09700
 30
 0
 11
156.97600
 21
39.04600
  0
LINE
  8
Kontur
 62
   7
 39
0.100
  6
CONTINUOUS
 10
156.97600
 20
39.04600
 30
 0
 11
156.95800
 21
38.99400
  0
LINE
  8
Kontur
 62
   7
 39
0.100
  6
CONTINUOUS
 10
156.95800
 20
38.99400
 30
 0
 11
156.94300
 21
38.94100
  0
LINE
  8
Kontur
 62
   7
 39
0.100
  6
CONTINUOUS
 10
156.94300
 20
38.94100
 30
 0
 11
156.89400
 21
38.76300
  0
LINE
  8
Kontur
 62
   7
 39
0.100
  6
CONTINUOUS
 10
156.89400
 20
38.76300
 30
 0
 11
156.88000
 21
38.71000
  0
LINE
  8
Kontur
 62
   7
 39
0.100
  6
CONTINUOUS
 10
156.88000
 20
38.71000
 30
 0
 11
156.86900
 21
38.65700
  0
LINE
  8
Kontur
 62
   7
 39
0.100
  6
CONTINUOUS
 10
156.86900
 20
38.65700
 30
 0
 11
156.86000
 21
38.61000
  0
LINE
  8
Kontur
 62
   7
 39
0.100
  6
CONTINUOUS
 10
156.86000
 20
38.61000
 30
 0
 11
156.83000
 21
38.42900
  0
LINE
  8
Kontur
 62
   7
 39
0.100
  6
CONTINUOUS
 10
156.83000
 20
38.42900
 30
 0
 11
156.82200
 21
38.37500
  0
LINE
  8
Kontur
 62
   7
 39
0.100
  6
CONTINUOUS
 10
156.82200
 20
38.37500
 30
 0
 11
156.81600
 21
38.32100
  0
LINE
  8
Kontur
 62
   7
 39
0.100
  6
CONTINUOUS
 10
156.81600
 20
38.32100
 30
 0
 11
156.81200
 21
38.26500
  0
LINE
  8
Kontur
 62
   7
 39
0.100
  6
CONTINUOUS
 10
156.81200
 20
38.26500
 30
 0
 11
156.80200
 21
38.08100
  0
LINE
  8
Kontur
 62
   7
 39
0.100
  6
CONTINUOUS
 10
156.80200
 20
38.08100
 30
 0
 11
156.80000
 21
38.02700
  0
LINE
  8
Kontur
 62
   7
 39
0.100
  6
CONTINUOUS
 10
156.80000
 20
38.02700
 30
 0
 11
156.80000
 21
37.97200
  0
LINE
  8
Kontur
 62
   7
 39
0.100
  6
CONTINUOUS
 10
156.80000
 20
37.97200
 30
 0
 11
156.80200
 21
37.91900
  0
LINE
  8
Kontur
 62
   7
 39
0.100
  6
CONTINUOUS
 10
156.80200
 20
37.91900
 30
 0
 11
156.81200
 21
37.73500
  0
LINE
  8
Kontur
 62
   7
 39
0.100
  6
CONTINUOUS
 10
156.81200
 20
37.73500
 30
 0
 11
156.81600
 21
37.68000
  0
LINE
  8
Kontur
 62
   7
 39
0.100
  6
CONTINUOUS
 10
156.81600
 20
37.68000
 30
 0
 11
156.82200
 21
37.62600
  0
LINE
  8
Kontur
 62
   7
 39
0.100
  6
CONTINUOUS
 10
156.82200
 20
37.62600
 30
 0
 11
156.83000
 21
37.57100
  0
LINE
  8
Kontur
 62
   7
 39
0.100
  6
CONTINUOUS
 10
156.83000
 20
37.57100
 30
 0
 11
156.86000
 21
37.39000
  0
LINE
  8
Kontur
 62
   7
 39
0.100
  6
CONTINUOUS
 10
156.86000
 20
37.39000
 30
 0
 11
156.87000
 21
37.33600
  0
LINE
  8
Kontur
 62
   7
 39
0.100
  6
CONTINUOUS
 10
156.87000
 20
37.33600
 30
 0
 11
156.88200
 21
37.28200
  0
LINE
  8
Kontur
 62
   7
 39
0.100
  6
CONTINUOUS
 10
156.88200
 20
37.28200
 30
 0
 11
156.89400
 21
37.23700
  0
LINE
  8
Kontur
 62
   7
 39
0.100
  6
CONTINUOUS
 10
156.89400
 20
37.23700
 30
 0
 11
156.94300
 21
37.05900
  0
LINE
  8
Kontur
 62
   7
 39
0.100
  6
CONTINUOUS
 10
156.94300
 20
37.05900
 30
 0
 11
156.95800
 21
37.00600
  0
LINE
  8
Kontur
 62
   7
 39
0.100
  6
CONTINUOUS
 10
156.95800
 20
37.00600
 30
 0
 11
156.97600
 21
36.95400
  0
LINE
  8
Kontur
 62
   7
 39
0.100
  6
CONTINUOUS
 10
156.97600
 20
36.95400
 30
 0
 11
156.99500
 21
36.90300
  0
LINE
  8
Kontur
 62
   7
 39
0.100
  6
CONTINUOUS
 10
156.99500
 20
36.90300
 30
 0
 11
157.06300
 21
36.73200
  0
LINE
  8
Kontur
 62
   7
 39
0.100
  6
CONTINUOUS
 10
157.06300
 20
36.73200
 30
 0
 11
157.08400
 21
36.68100
  0
LINE
  8
Kontur
 62
   7
 39
0.100
  6
CONTINUOUS
 10
157.08400
 20
36.68100
 30
 0
 11
157.10700
 21
36.63200
  0
LINE
  8
Kontur
 62
   7
 39
0.100
  6
CONTINUOUS
 10
157.10700
 20
36.63200
 30
 0
 11
157.13200
 21
36.58300
  0
LINE
  8
Kontur
 62
   7
 39
0.100
  6
CONTINUOUS
 10
157.13200
 20
36.58300
 30
 0
 11
157.21800
 21
36.42100
  0
LINE
  8
Kontur
 62
   7
 39
0.100
  6
CONTINUOUS
 10
157.21800
 20
36.42100
 30
 0
 11
157.24500
 21
36.37300
  0
LINE
  8
Kontur
 62
   7
 39
0.100
  6
CONTINUOUS
 10
157.24500
 20
36.37300
 30
 0
 11
157.27300
 21
36.32600
  0
LINE
  8
Kontur
 62
   7
 39
0.100
  6
CONTINUOUS
 10
157.27300
 20
36.32600
 30
 0
 11
157.30200
 21
36.28100
  0
LINE
  8
Kontur
 62
   7
 39
0.100
  6
CONTINUOUS
 10
157.30200
 20
36.28100
 30
 0
 11
157.40600
 21
36.12800
  0
LINE
  8
Kontur
 62
   7
 39
0.100
  6
CONTINUOUS
 10
157.40600
 20
36.12800
 30
 0
 11
157.43800
 21
36.08300
  0
LINE
  8
Kontur
 62
   7
 39
0.100
  6
CONTINUOUS
 10
157.43800
 20
36.08300
 30
 0
 11
157.47100
 21
36.03900
  0
LINE
  8
Kontur
 62
   7
 39
0.100
  6
CONTINUOUS
 10
157.47100
 20
36.03900
 30
 0
 11
157.50400
 21
36.00000
  0
LINE
  8
Kontur
 62
   7
 39
0.100
  6
CONTINUOUS
 10
157.50400
 20
36.00000
 30
 0
 11
157.62300
 21
35.86000
  0
LINE
  8
Kontur
 62
   7
 39
0.100
  6
CONTINUOUS
 10
157.62300
 20
35.86000
 30
 0
 11
157.65900
 21
35.81800
  0
LINE
  8
Kontur
 62
   7
 39
0.100
  6
CONTINUOUS
 10
157.65900
 20
35.81800
 30
 0
 11
157.69700
 21
35.77900
  0
LINE
  8
Kontur
 62
   7
 39
0.100
  6
CONTINUOUS
 10
157.69700
 20
35.77900
 30
 0
 11
157.73000
 21
35.74600
  0
LINE
  8
Kontur
 62
   7
 39
0.100
  6
CONTINUOUS
 10
157.73000
 20
35.74600
 30
 0
 11
157.86300
 21
35.61900
  0
LINE
  8
Kontur
 62
   7
 39
0.100
  6
CONTINUOUS
 10
157.86300
 20
35.61900
 30
 0
 11
157.90300
 21
35.58200
  0
LINE
  8
Kontur
 62
   7
 39
0.100
  6
CONTINUOUS
 10
157.90300
 20
35.58200
 30
 0
 11
157.94500
 21
35.54600
  0
LINE
  8
Kontur
 62
   7
 39
0.100
  6
CONTINUOUS
 10
157.94500
 20
35.54600
 30
 0
 11
157.99500
 21
35.50700
  0
LINE
  8
Kontur
 62
   7
 39
0.100
  6
CONTINUOUS
 10
157.99500
 20
35.50700
 30
 0
 11
158.14200
 21
35.39600
  0
LINE
  8
Kontur
 62
   7
 39
0.100
  6
CONTINUOUS
 10
158.14200
 20
35.39600
 30
 0
 11
158.18600
 21
35.36400
  0
LINE
  8
Kontur
 62
   7
 39
0.100
  6
CONTINUOUS
 10
158.18600
 20
35.36400
 30
 0
 11
158.23200
 21
35.33300
  0
LINE
  8
Kontur
 62
   7
 39
0.100
  6
CONTINUOUS
 10
158.23200
 20
35.33300
 30
 0
 11
158.27300
 21
35.30700
  0
LINE
  8
Kontur
 62
   7
 39
0.100
  6
CONTINUOUS
 10
158.27300
 20
35.30700
 30
 0
 11
158.43100
 21
35.21200
  0
LINE
  8
Kontur
 62
   7
 39
0.100
  6
CONTINUOUS
 10
158.43100
 20
35.21200
 30
 0
 11
158.47900
 21
35.18500
  0
LINE
  8
Kontur
 62
   7
 39
0.100
  6
CONTINUOUS
 10
158.47900
 20
35.18500
 30
 0
 11
158.52700
 21
35.16000
  0
LINE
  8
Kontur
 62
   7
 39
0.100
  6
CONTINUOUS
 10
158.52700
 20
35.16000
 30
 0
 11
158.57600
 21
35.13600
  0
LINE
  8
Kontur
 62
   7
 39
0.100
  6
CONTINUOUS
 10
158.57600
 20
35.13600
 30
 0
 11
158.74300
 21
35.05900
  0
LINE
  8
Kontur
 62
   7
 39
0.100
  6
CONTINUOUS
 10
158.74300
 20
35.05900
 30
 0
 11
158.79300
 21
35.03700
  0
LINE
  8
Kontur
 62
   7
 39
0.100
  6
CONTINUOUS
 10
158.79300
 20
35.03700
 30
 0
 11
158.84400
 21
35.01700
  0
LINE
  8
Kontur
 62
   7
 39
0.100
  6
CONTINUOUS
 10
158.84400
 20
35.01700
 30
 0
 11
158.88900
 21
35.00000
  0
LINE
  8
Kontur
 62
   7
 39
0.100
  6
CONTINUOUS
 10
158.88900
 20
35.00000
 30
 0
 11
159.06300
 21
34.94100
  0
LINE
  8
Kontur
 62
   7
 39
0.100
  6
CONTINUOUS
 10
159.06300
 20
34.94100
 30
 0
 11
159.11500
 21
34.92500
  0
LINE
  8
Kontur
 62
   7
 39
0.100
  6
CONTINUOUS
 10
159.11500
 20
34.92500
 30
 0
 11
159.16800
 21
34.91000
  0
LINE
  8
Kontur
 62
   7
 39
0.100
  6
CONTINUOUS
 10
159.16800
 20
34.91000
 30
 0
 11
159.22000
 21
34.89800
  0
LINE
  8
Kontur
 62
   7
 39
0.100
  6
CONTINUOUS
 10
159.22000
 20
34.89800
 30
 0
 11
159.40000
 21
34.85800
  0
LINE
  8
Kontur
 62
   7
 39
0.100
  6
CONTINUOUS
 10
159.40000
 20
34.85800
 30
 0
 11
159.45300
 21
34.84700
  0
LINE
  8
Kontur
 62
   7
 39
0.100
  6
CONTINUOUS
 10
159.45300
 20
34.84700
 30
 0
 11
159.50700
 21
34.83800
  0
LINE
  8
Kontur
 62
   7
 39
0.100
  6
CONTINUOUS
 10
159.50700
 20
34.83800
 30
 0
 11
159.56200
 21
34.83100
  0
LINE
  8
Kontur
 62
   7
 39
0.100
  6
CONTINUOUS
 10
159.56200
 20
34.83100
 30
 0
 11
159.74500
 21
34.81100
  0
LINE
  8
Kontur
 62
   7
 39
0.100
  6
CONTINUOUS
 10
159.74500
 20
34.81100
 30
 0
 11
159.80000
 21
34.80600
  0
LINE
  8
Kontur
 62
   7
 39
0.100
  6
CONTINUOUS
 10
159.80000
 20
34.80600
 30
 0
 11
159.85400
 21
34.80300
  0
LINE
  8
Kontur
 62
   7
 39
0.100
  6
CONTINUOUS
 10
159.85400
 20
34.80300
 30
 0
 11
159.90800
 21
34.80200
  0
LINE
  8
Kontur
 62
   7
 39
0.100
  6
CONTINUOUS
 10
159.90800
 20
34.80200
 30
 0
 11
160.09200
 21
34.80200
  0
LINE
  8
Kontur
 62
   7
 39
0.100
  6
CONTINUOUS
 10
160.09200
 20
34.80200
 30
 0
 11
160.14700
 21
34.80300
  0
CIRCLE
  8
Kontur
 62
   7
 39
0.100
  6
CONTINUOUS
 10
160.00000
 20
38.00000
 30
 0
 40
1.70000
  0
LINE
  8
Kontur
 62
   7
 39
0.100
  6
CONTINUOUS
 10
160.14700
 20
34.80300
 30
 0
 11
160.20100
 21
34.80600
  0
LINE
  8
Kontur
 62
   7
 39
0.100
  6
CONTINUOUS
 10
160.20100
 20
34.80600
 30
 0
 11
160.25500
 21
34.81100
  0
LINE
  8
Kontur
 62
   7
 39
0.100
  6
CONTINUOUS
 10
160.25500
 20
34.81100
 30
 0
 11
160.43800
 21
34.83100
  0
LINE
  8
Kontur
 62
   7
 39
0.100
  6
CONTINUOUS
 10
160.43800
 20
34.83100
 30
 0
 11
160.49200
 21
34.83800
  0
LINE
  8
Kontur
 62
   7
 39
0.100
  6
CONTINUOUS
 10
160.49200
 20
34.83800
 30
 0
 11
160.54600
 21
34.84700
  0
LINE
  8
Kontur
 62
   7
 39
0.100
  6
CONTINUOUS
 10
160.54600
 20
34.84700
 30
 0
 11
160.60000
 21
34.85800
  0
LINE
  8
Kontur
 62
   7
 39
0.100
  6
CONTINUOUS
 10
160.60000
 20
34.85800
 30
 0
 11
160.78000
 21
34.89800
  0
LINE
  8
Kontur
 62
   7
 39
0.100
  6
CONTINUOUS
 10
160.78000
 20
34.89800
 30
 0
 11
160.83400
 21
34.91100
  0
LINE
  8
Kontur
 62
   7
 39
0.100
  6
CONTINUOUS
 10
160.83400
 20
34.91100
 30
 0
 11
160.88600
 21
34.92500
  0
LINE
  8
Kontur
 62
   7
 39
0.100
  6
CONTINUOUS
 10
160.88600
 20
34.92500
 30
 0
 11
160.93700
 21
34.94100
  0
LINE
  8
Kontur
 62
   7
 39
0.100
  6
CONTINUOUS
 10
160.93700
 20
34.94100
 30
 0
 11
161.11100
 21
35.00000
  0
LINE
  8
Kontur
 62
   7
 39
0.100
  6
CONTINUOUS
 10
161.11100
 20
35.00000
 30
 0
 11
161.16200
 21
35.01900
  0
LINE
  8
Kontur
 62
   7
 39
0.100
  6
CONTINUOUS
 10
161.16200
 20
35.01900
 30
 0
 11
161.21300
 21
35.03900
  0
LINE
  8
Kontur
 62
   7
 39
0.100
  6
CONTINUOUS
 10
161.21300
 20
35.03900
 30
 0
 11
161.25700
 21
35.05900
  0
LINE
  8
Kontur
 62
   7
 39
0.100
  6
CONTINUOUS
 10
161.25700
 20
35.05900
 30
 0
 11
161.42400
 21
35.13600
  0
LINE
  8
Kontur
 62
   7
 39
0.100
  6
CONTINUOUS
 10
161.42400
 20
35.13600
 30
 0
 11
161.47300
 21
35.16000
  0
LINE
  8
Kontur
 62
   7
 39
0.100
  6
CONTINUOUS
 10
161.47300
 20
35.16000
 30
 0
 11
161.52200
 21
35.18500
  0
LINE
  8
Kontur
 62
   7
 39
0.100
  6
CONTINUOUS
 10
161.52200
 20
35.18500
 30
 0
 11
161.56900
 21
35.21200
  0
LINE
  8
Kontur
 62
   7
 39
0.100
  6
CONTINUOUS
 10
161.56900
 20
35.21200
 30
 0
 11
161.72700
 21
35.30700
  0
LINE
  8
Kontur
 62
   7
 39
0.100
  6
CONTINUOUS
 10
161.72700
 20
35.30700
 30
 0
 11
161.81900
 21
35.36700
  0
LINE
  8
Kontur
 62
   7
 39
0.100
  6
CONTINUOUS
 10
161.81900
 20
35.36700
 30
 0
 11
161.85800
 21
35.39600
  0
LINE
  8
Kontur
 62
   7
 39
0.100
  6
CONTINUOUS
 10
161.85800
 20
35.39600
 30
 0
 11
162.00500
 21
35.50700
  0
LINE
  8
Kontur
 62
   7
 39
0.100
  6
CONTINUOUS
 10
162.00500
 20
35.50700
 30
 0
 11
162.04800
 21
35.54100
  0
LINE
  8
Kontur
 62
   7
 39
0.100
  6
CONTINUOUS
 10
162.04800
 20
35.54100
 30
 0
 11
162.09000
 21
35.57600
  0
LINE
  8
Kontur
 62
   7
 39
0.100
  6
CONTINUOUS
 10
162.09000
 20
35.57600
 30
 0
 11
162.13700
 21
35.61900
  0
LINE
  8
Kontur
 62
   7
 39
0.100
  6
CONTINUOUS
 10
162.13700
 20
35.61900
 30
 0
 11
162.27000
 21
35.74600
  0
LINE
  8
Kontur
 62
   7
 39
0.100
  6
CONTINUOUS
 10
162.27000
 20
35.74600
 30
 0
 11
162.30900
 21
35.78500
  0
LINE
  8
Kontur
 62
   7
 39
0.100
  6
CONTINUOUS
 10
162.30900
 20
35.78500
 30
 0
 11
162.34600
 21
35.82500
  0
LINE
  8
Kontur
 62
   7
 39
0.100
  6
CONTINUOUS
 10
162.34600
 20
35.82500
 30
 0
 11
162.37700
 21
35.86000
  0
LINE
  8
Kontur
 62
   7
 39
0.100
  6
CONTINUOUS
 10
162.37700
 20
35.86000
 30
 0
 11
162.49600
 21
36.00000
  0
LINE
  8
Kontur
 62
   7
 39
0.100
  6
CONTINUOUS
 10
162.49600
 20
36.00000
 30
 0
 11
162.53100
 21
36.04200
  0
LINE
  8
Kontur
 62
   7
 39
0.100
  6
CONTINUOUS
 10
162.53100
 20
36.04200
 30
 0
 11
162.56400
 21
36.08600
  0
LINE
  8
Kontur
 62
   7
 39
0.100
  6
CONTINUOUS
 10
162.56400
 20
36.08600
 30
 0
 11
162.59400
 21
36.12800
  0
LINE
  8
Kontur
 62
   7
 39
0.100
  6
CONTINUOUS
 10
162.59400
 20
36.12800
 30
 0
 11
162.69800
 21
36.28100
  0
LINE
  8
Kontur
 62
   7
 39
0.100
  6
CONTINUOUS
 10
162.69800
 20
36.28100
 30
 0
 11
162.72700
 21
36.32700
  0
LINE
  8
Kontur
 62
   7
 39
0.100
  6
CONTINUOUS
 10
162.72700
 20
36.32700
 30
 0
 11
162.75600
 21
36.37400
  0
LINE
  8
Kontur
 62
   7
 39
0.100
  6
CONTINUOUS
 10
162.75600
 20
36.37400
 30
 0
 11
162.78200
 21
36.42100
  0
LINE
  8
Kontur
 62
   7
 39
0.100
  6
CONTINUOUS
 10
162.78200
 20
36.42100
 30
 0
 11
162.86800
 21
36.58300
  0
LINE
  8
Kontur
 62
   7
 39
0.100
  6
CONTINUOUS
 10
162.86800
 20
36.58300
 30
 0
 11
162.89300
 21
36.63200
  0
LINE
  8
Kontur
 62
   7
 39
0.100
  6
CONTINUOUS
 10
162.89300
 20
36.63200
 30
 0
 11
162.91600
 21
36.68100
  0
LINE
  8
Kontur
 62
   7
 39
0.100
  6
CONTINUOUS
 10
162.91600
 20
36.68100
 30
 0
 11
162.93700
 21
36.73200
  0
LINE
  8
Kontur
 62
   7
 39
0.100
  6
CONTINUOUS
 10
162.93700
 20
36.73200
 30
 0
 11
163.00500
 21
36.90300
  0
LINE
  8
Kontur
 62
   7
 39
0.100
  6
CONTINUOUS
 10
163.00500
 20
36.90300
 30
 0
 11
163.02400
 21
36.95400
  0
LINE
  8
Kontur
 62
   7
 39
0.100
  6
CONTINUOUS
 10
163.02400
 20
36.95400
 30
 0
 11
163.04200
 21
37.00600
  0
LINE
  8
Kontur
 62
   7
 39
0.100
  6
CONTINUOUS
 10
163.04200
 20
37.00600
 30
 0
 11
163.05700
 21
37.05900
  0
LINE
  8
Kontur
 62
   7
 39
0.100
  6
CONTINUOUS
 10
163.05700
 20
37.05900
 30
 0
 11
163.10600
 21
37.23700
  0
LINE
  8
Kontur
 62
   7
 39
0.100
  6
CONTINUOUS
 10
163.10600
 20
37.23700
 30
 0
 11
163.12000
 21
37.29000
  0
LINE
  8
Kontur
 62
   7
 39
0.100
  6
CONTINUOUS
 10
163.12000
 20
37.29000
 30
 0
 11
163.13100
 21
37.34300
  0
LINE
  8
Kontur
 62
   7
 39
0.100
  6
CONTINUOUS
 10
163.13100
 20
37.34300
 30
 0
 11
163.14000
 21
37.39000
  0
LINE
  8
Kontur
 62
   7
 39
0.100
  6
CONTINUOUS
 10
163.14000
 20
37.39000
 30
 0
 11
163.17000
 21
37.57100
  0
LINE
  8
Kontur
 62
   7
 39
0.100
  6
CONTINUOUS
 10
163.17000
 20
37.57100
 30
 0
 11
163.17800
 21
37.62500
  0
LINE
  8
Kontur
 62
   7
 39
0.100
  6
CONTINUOUS
 10
163.17800
 20
37.62500
 30
 0
 11
163.18400
 21
37.67900
  0
LINE
  8
Kontur
 62
   7
 39
0.100
  6
CONTINUOUS
 10
163.18400
 20
37.67900
 30
 0
 11
163.18800
 21
37.73500
  0
LINE
  8
Kontur
 62
   7
 39
0.100
  6
CONTINUOUS
 10
163.18800
 20
37.73500
 30
 0
 11
163.19800
 21
37.91900
  0
LINE
  8
Kontur
 62
   7
 39
0.100
  6
CONTINUOUS
 10
163.19800
 20
37.91900
 30
 0
 11
163.20000
 21
37.97300
  0
LINE
  8
Kontur
 62
   7
 39
0.100
  6
CONTINUOUS
 10
163.20000
 20
37.97300
 30
 0
 11
163.20000
 21
38.02800
  0
LINE
  8
Kontur
 62
   7
 39
0.100
  6
CONTINUOUS
 10
163.20000
 20
38.02800
 30
 0
 11
163.19800
 21
38.08100
  0
LINE
  8
Kontur
 62
   7
 39
0.100
  6
CONTINUOUS
 10
163.19800
 20
38.08100
 30
 0
 11
163.18800
 21
38.26500
  0
LINE
  8
Kontur
 62
   7
 39
0.100
  6
CONTINUOUS
 10
163.18800
 20
38.26500
 30
 0
 11
163.18400
 21
38.32000
  0
LINE
  8
Kontur
 62
   7
 39
0.100
  6
CONTINUOUS
 10
163.18400
 20
38.32000
 30
 0
 11
163.17800
 21
38.37400
  0
LINE
  8
Kontur
 62
   7
 39
0.100
  6
CONTINUOUS
 10
163.17800
 20
38.37400
 30
 0
 11
163.17000
 21
38.42900
  0
LINE
  8
Kontur
 62
   7
 39
0.100
  6
CONTINUOUS
 10
163.17000
 20
38.42900
 30
 0
 11
163.14000
 21
38.61000
  0
LINE
  8
Kontur
 62
   7
 39
0.100
  6
CONTINUOUS
 10
163.14000
 20
38.61000
 30
 0
 11
163.13000
 21
38.66400
  0
LINE
  8
Kontur
 62
   7
 39
0.100
  6
CONTINUOUS
 10
163.13000
 20
38.66400
 30
 0
 11
163.11800
 21
38.71800
  0
LINE
  8
Kontur
 62
   7
 39
0.100
  6
CONTINUOUS
 10
163.11800
 20
38.71800
 30
 0
 11
163.10600
 21
38.76300
  0
LINE
  8
Kontur
 62
   7
 39
0.100
  6
CONTINUOUS
 10
163.10600
 20
38.76300
 30
 0
 11
163.05700
 21
38.94100
  0
LINE
  8
Kontur
 62
   7
 39
0.100
  6
CONTINUOUS
 10
163.05700
 20
38.94100
 30
 0
 11
163.04200
 21
38.99400
  0
LINE
  8
Kontur
 62
   7
 39
0.100
  6
CONTINUOUS
 10
163.04200
 20
38.99400
 30
 0
 11
163.02400
 21
39.04600
  0
LINE
  8
Kontur
 62
   7
 39
0.100
  6
CONTINUOUS
 10
163.02400
 20
39.04600
 30
 0
 11
163.00500
 21
39.09700
  0
LINE
  8
Kontur
 62
   7
 39
0.100
  6
CONTINUOUS
 10
163.00500
 20
39.09700
 30
 0
 11
162.93700
 21
39.26800
  0
LINE
  8
Kontur
 62
   7
 39
0.100
  6
CONTINUOUS
 10
162.93700
 20
39.26800
 30
 0
 11
162.91600
 21
39.31900
  0
LINE
  8
Kontur
 62
   7
 39
0.100
  6
CONTINUOUS
 10
162.91600
 20
39.31900
 30
 0
 11
162.89300
 21
39.36800
  0
LINE
  8
Kontur
 62
   7
 39
0.100
  6
CONTINUOUS
 10
162.89300
 20
39.36800
 30
 0
 11
162.86800
 21
39.41700
  0
LINE
  8
Kontur
 62
   7
 39
0.100
  6
CONTINUOUS
 10
162.86800
 20
39.41700
 30
 0
 11
162.78200
 21
39.57900
  0
LINE
  8
Kontur
 62
   7
 39
0.100
  6
CONTINUOUS
 10
162.78200
 20
39.57900
 30
 0
 11
162.75500
 21
39.62700
  0
LINE
  8
Kontur
 62
   7
 39
0.100
  6
CONTINUOUS
 10
162.75500
 20
39.62700
 30
 0
 11
162.72700
 21
39.67400
  0
LINE
  8
Kontur
 62
   7
 39
0.100
  6
CONTINUOUS
 10
162.72700
 20
39.67400
 30
 0
 11
162.69800
 21
39.71900
  0
LINE
  8
Kontur
 62
   7
 39
0.100
  6
CONTINUOUS
 10
162.69800
 20
39.71900
 30
 0
 11
162.59400
 21
39.87200
  0
LINE
  8
Kontur
 62
   7
 39
0.100
  6
CONTINUOUS
 10
162.59400
 20
39.87200
 30
 0
 11
162.56200
 21
39.91700
  0
LINE
  8
Kontur
 62
   7
 39
0.100
  6
CONTINUOUS
 10
162.56200
 20
39.91700
 30
 0
 11
162.52900
 21
39.96100
  0
LINE
  8
Kontur
 62
   7
 39
0.100
  6
CONTINUOUS
 10
162.52900
 20
39.96100
 30
 0
 11
162.49600
 21
40.00000
  0
LINE
  8
Kontur
 62
   7
 39
0.100
  6
CONTINUOUS
 10
162.49600
 20
40.00000
 30
 0
 11
162.37700
 21
40.14000
  0
LINE
  8
Kontur
 62
   7
 39
0.100
  6
CONTINUOUS
 10
162.37700
 20
40.14000
 30
 0
 11
162.34100
 21
40.18200
  0
LINE
  8
Kontur
 62
   7
 39
0.100
  6
CONTINUOUS
 10
162.34100
 20
40.18200
 30
 0
 11
162.30300
 21
40.22100
  0
LINE
  8
Kontur
 62
   7
 39
0.100
  6
CONTINUOUS
 10
162.30300
 20
40.22100
 30
 0
 11
162.27000
 21
40.25400
  0
LINE
  8
Kontur
 62
   7
 39
0.100
  6
CONTINUOUS
 10
162.27000
 20
40.25400
 30
 0
 11
162.13700
 21
40.38100
  0
LINE
  8
Kontur
 62
   7
 39
0.100
  6
CONTINUOUS
 10
162.13700
 20
40.38100
 30
 0
 11
162.09700
 21
40.41800
  0
LINE
  8
Kontur
 62
   7
 39
0.100
  6
CONTINUOUS
 10
162.09700
 20
40.41800
 30
 0
 11
162.05500
 21
40.45400
  0
LINE
  8
Kontur
 62
   7
 39
0.100
  6
CONTINUOUS
 10
162.05500
 20
40.45400
 30
 0
 11
162.00500
 21
40.49300
  0
LINE
  8
Kontur
 62
   7
 39
0.100
  6
CONTINUOUS
 10
162.00500
 20
40.49300
 30
 0
 11
161.85800
 21
40.60400
  0
LINE
  8
Kontur
 62
   7
 39
0.100
  6
CONTINUOUS
 10
161.85800
 20
40.60400
 30
 0
 11
161.81400
 21
40.63600
  0
LINE
  8
Kontur
 62
   7
 39
0.100
  6
CONTINUOUS
 10
161.81400
 20
40.63600
 30
 0
 11
161.76800
 21
40.66700
  0
LINE
  8
Kontur
 62
   7
 39
0.100
  6
CONTINUOUS
 10
161.76800
 20
40.66700
 30
 0
 11
161.72700
 21
40.69300
  0
LINE
  8
Kontur
 62
   7
 39
0.100
  6
CONTINUOUS
 10
161.72700
 20
40.69300
 30
 0
 11
161.56900
 21
40.78800
  0
LINE
  8
Kontur
 62
   7
 39
0.100
  6
CONTINUOUS
 10
161.56900
 20
40.78800
 30
 0
 11
161.52100
 21
40.81500
  0
LINE
  8
Kontur
 62
   7
 39
0.100
  6
CONTINUOUS
 10
161.52100
 20
40.81500
 30
 0
 11
161.47300
 21
40.84000
  0
LINE
  8
Kontur
 62
   7
 39
0.100
  6
CONTINUOUS
 10
161.47300
 20
40.84000
 30
 0
 11
161.42400
 21
40.86400
  0
LINE
  8
Kontur
 62
   7
 39
0.100
  6
CONTINUOUS
 10
161.42400
 20
40.86400
 30
 0
 11
161.25700
 21
40.94100
  0
LINE
  8
Kontur
 62
   7
 39
0.100
  6
CONTINUOUS
 10
161.25700
 20
40.94100
 30
 0
 11
161.20700
 21
40.96300
  0
LINE
  8
Kontur
 62
   7
 39
0.100
  6
CONTINUOUS
 10
161.20700
 20
40.96300
 30
 0
 11
161.15600
 21
40.98300
  0
LINE
  8
Kontur
 62
   7
 39
0.100
  6
CONTINUOUS
 10
161.15600
 20
40.98300
 30
 0
 11
161.11100
 21
41.00000
  0
LINE
  8
Kontur
 62
   7
 39
0.100
  6
CONTINUOUS
 10
161.11100
 20
41.00000
 30
 0
 11
160.93700
 21
41.05900
  0
LINE
  8
Kontur
 62
   7
 39
0.100
  6
CONTINUOUS
 10
160.93700
 20
41.05900
 30
 0
 11
160.88500
 21
41.07500
  0
LINE
  8
Kontur
 62
   7
 39
0.100
  6
CONTINUOUS
 10
160.88500
 20
41.07500
 30
 0
 11
160.83200
 21
41.09000
  0
LINE
  8
Kontur
 62
   7
 39
0.100
  6
CONTINUOUS
 10
160.83200
 20
41.09000
 30
 0
 11
160.78000
 21
41.10200
  0
LINE
  8
Kontur
 62
   7
 39
0.100
  6
CONTINUOUS
 10
160.78000
 20
41.10200
 30
 0
 11
160.60000
 21
41.14200
  0
LINE
  8
Kontur
 62
   7
 39
0.100
  6
CONTINUOUS
 10
160.60000
 20
41.14200
 30
 0
 11
160.54700
 21
41.15300
  0
LINE
  8
Kontur
 62
   7
 39
0.100
  6
CONTINUOUS
 10
160.54700
 20
41.15300
 30
 0
 11
160.49300
 21
41.16200
  0
LINE
  8
Kontur
 62
   7
 39
0.100
  6
CONTINUOUS
 10
160.49300
 20
41.16200
 30
 0
 11
160.43800
 21
41.16900
  0
LINE
  8
Kontur
 62
   7
 39
0.100
  6
CONTINUOUS
 10
160.43800
 20
41.16900
 30
 0
 11
160.25500
 21
41.18900
  0
LINE
  8
Kontur
 62
   7
 39
0.100
  6
CONTINUOUS
 10
160.25500
 20
41.18900
 30
 0
 11
160.20000
 21
41.19400
  0
LINE
  8
Kontur
 62
   7
 39
0.100
  6
CONTINUOUS
 10
160.20000
 20
41.19400
 30
 0
 11
160.14600
 21
41.19700
  0
LINE
  8
Kontur
 62
   7
 39
0.100
  6
CONTINUOUS
 10
160.14600
 20
41.19700
 30
 0
 11
160.09200
 21
41.19800
  0
LINE
  8
Kontur
 62
   7
 39
0.100
  6
CONTINUOUS
 10
160.09200
 20
41.19800
 30
 0
 11
159.90800
 21
41.19800
  0
LINE
  8
Kontur
 62
   7
 39
0.100
  6
CONTINUOUS
 10
159.90800
 20
41.19800
 30
 0
 11
159.85300
 21
41.19700
  0
LINE
  8
Kontur
 62
   7
 39
0.100
  6
CONTINUOUS
 10
159.85300
 20
41.19700
 30
 0
 11
159.79900
 21
41.19400
  0
LINE
  8
Kontur
 62
   7
 39
0.100
  6
CONTINUOUS
 10
159.79900
 20
41.19400
 30
 0
 11
159.74500
 21
41.18900
  0
LINE
  8
Kontur
 62
   7
 39
0.100
  6
CONTINUOUS
 10
159.74500
 20
41.18900
 30
 0
 11
159.56200
 21
41.16900
  0
LINE
  8
Kontur
 62
   7
 39
0.100
  6
CONTINUOUS
 10
159.56200
 20
41.16900
 30
 0
 11
159.50800
 21
41.16200
  0
LINE
  8
Kontur
 62
   7
 39
0.100
  6
CONTINUOUS
 10
159.50800
 20
41.16200
 30
 0
 11
159.45400
 21
41.15300
  0
LINE
  8
Kontur
 62
   7
 39
0.100
  6
CONTINUOUS
 10
159.45400
 20
41.15300
 30
 0
 11
159.40000
 21
41.14200
  0
LINE
  8
Kontur
 62
   7
 39
0.100
  6
CONTINUOUS
 10
159.40000
 20
41.14200
 30
 0
 11
159.22000
 21
41.10200
  0
LINE
  8
Kontur
 62
   7
 39
0.100
  6
CONTINUOUS
 10
159.22000
 20
41.10200
 30
 0
 11
159.16600
 21
41.08900
  0
LINE
  8
Kontur
 62
   7
 39
0.100
  6
CONTINUOUS
 10
159.16600
 20
41.08900
 30
 0
 11
159.11400
 21
41.07500
  0
LINE
  8
Kontur
 62
   7
 39
0.100
  6
CONTINUOUS
 10
159.11400
 20
41.07500
 30
 0
 11
159.06300
 21
41.05900
  0
LINE
  8
Kontur
 62
   7
 39
0.100
  6
CONTINUOUS
 10
159.06300
 20
41.05900
 30
 0
 11
158.88900
 21
41.00000
  0
LINE
  8
Kontur
 62
   7
 39
0.100
  6
CONTINUOUS
 10
158.88900
 20
41.00000
 30
 0
 11
158.83800
 21
40.98100
  0
LINE
  8
Kontur
 62
   7
 39
0.100
  6
CONTINUOUS
 10
158.83800
 20
40.98100
 30
 0
 11
158.78700
 21
40.96100
  0
LINE
  8
Kontur
 62
   7
 39
0.100
  6
CONTINUOUS
 10
158.78700
 20
40.96100
 30
 0
 11
158.74300
 21
40.94100
  0
LINE
  8
Kontur
 62
   7
 39
0.100
  6
CONTINUOUS
 10
158.74300
 20
40.94100
 30
 0
 11
158.57600
 21
40.86400
  0
LINE
  8
Kontur
 62
   7
 39
0.100
  6
CONTINUOUS
 10
158.57600
 20
40.86400
 30
 0
 11
158.52700
 21
40.84000
  0
LINE
  8
Kontur
 62
   7
 39
0.100
  6
CONTINUOUS
 10
158.52700
 20
40.84000
 30
 0
 11
158.47800
 21
40.81500
  0
LINE
  8
Kontur
 62
   7
 39
0.100
  6
CONTINUOUS
 10
158.47800
 20
40.81500
 30
 0
 11
158.43100
 21
40.78800
  0
LINE
  8
Kontur
 62
   7
 39
0.100
  6
CONTINUOUS
 10
158.43100
 20
40.78800
 30
 0
 11
158.27300
 21
40.69300
  0
LINE
  8
Kontur
 62
   7
 39
0.100
  6
CONTINUOUS
 10
158.27300
 20
40.69300
 30
 0
 11
158.18100
 21
40.63300
  0
LINE
  8
Kontur
 62
   7
 39
0.100
  6
CONTINUOUS
 10
158.18100
 20
40.63300
 30
 0
 11
158.14200
 21
40.60400
  0
LINE
  8
Kontur
 62
   7
 39
0.100
  6
CONTINUOUS
 10
158.14200
 20
40.60400
 30
 0
 11
157.99500
 21
40.49300
  0
LINE
  8
Kontur
 62
   7
 39
0.100
  6
CONTINUOUS
 10
157.99500
 20
40.49300
 30
 0
 11
157.95200
 21
40.45900
  0
LINE
  8
Kontur
 62
   7
 39
0.100
  6
CONTINUOUS
 10
157.95200
 20
40.45900
 30
 0
 11
157.91000
 21
40.42400
  0
LINE
  8
Kontur
 62
   7
 39
0.100
  6
CONTINUOUS
 10
157.91000
 20
40.42400
 30
 0
 11
157.86300
 21
40.38100
  0
LINE
  8
Kontur
 62
   7
 39
0.100
  6
CONTINUOUS
 10
157.86300
 20
40.38100
 30
 0
 11
157.73000
 21
40.25400
  0
LINE
  8
Kontur
 62
   7
 39
0.100
  6
CONTINUOUS
 10
157.73000
 20
40.25400
 30
 0
 11
157.69100
 21
40.21500
  0
LINE
  8
Kontur
 62
   7
 39
0.100
  6
CONTINUOUS
 10
157.69100
 20
40.21500
 30
 0
 11
157.65400
 21
40.17500
  0
LINE
  8
Kontur
 62
   7
 39
0.100
  6
CONTINUOUS
 10
157.65400
 20
40.17500
 30
 0
 11
157.62300
 21
40.14000
  0
LINE
  8
Kontur
 62
   7
 39
0.100
  6
CONTINUOUS
 10
157.62300
 20
40.14000
 30
 0
 11
157.50400
 21
40.00000
  0
LINE
  8
Kontur
 62
   7
 39
0.100
  6
CONTINUOUS
 10
157.50400
 20
40.00000
 30
 0
 11
157.46900
 21
39.95800
  0
LINE
  8
Kontur
 62
   7
 39
0.100
  6
CONTINUOUS
 10
157.46900
 20
39.95800
 30
 0
 11
157.43600
 21
39.91400
  0
LINE
  8
Kontur
 62
   7
 39
0.100
  6
CONTINUOUS
 10
157.43600
 20
39.91400
 30
 0
 11
157.40600
 21
39.87200
  0
LINE
  8
Kontur
 62
   7
 39
0.100
  6
CONTINUOUS
 10
157.40600
 20
39.87200
 30
 0
 11
157.30200
 21
39.71900
  0
LINE
  8
Kontur
 62
   7
 39
0.100
  6
CONTINUOUS
 10
157.30200
 20
39.71900
 30
 0
 11
157.27300
 21
39.67300
  0
LINE
  8
Kontur
 62
   7
 39
0.100
  6
CONTINUOUS
 10
157.27300
 20
39.67300
 30
 0
 11
157.24400
 21
39.62600
  0
LINE
  8
Kontur
 62
   7
 39
0.100
  6
CONTINUOUS
 10
157.24400
 20
39.62600
 30
 0
 11
157.21800
 21
39.57900
  0
LINE
  8
Kontur
 62
   7
 39
0.100
  6
CONTINUOUS
 10
157.21800
 20
39.57900
 30
 0
 11
157.13200
 21
39.41700
  0
LINE
  8
Kontur
 62
   7
 39
0.100
  6
CONTINUOUS
 10
157.13200
 20
39.41700
 30
 0
 11
157.10700
 21
39.36800
  0
LINE
  8
Kontur
 62
   7
 39
0.100
  6
CONTINUOUS
 10
157.10700
 20
39.36800
 30
 0
 11
157.08400
 21
39.31900
  0
LINE
  8
Kontur
 62
   7
 39
0.100
  6
CONTINUOUS
 10
157.08400
 20
39.31900
 30
 0
 11
157.06300
 21
39.26800
  0
LINE
  8
Kontur
 62
   7
 39
0.100
  6
CONTINUOUS
 10
157.06300
 20
39.26800
 30
 0
 11
156.99500
 21
39.09700
  0
LINE
  8
Kontur
 62
   7
 39
0.100
  6
CONTINUOUS
 10
156.99500
 20
39.09700
 30
 0
 11
156.97600
 21
39.04600
  0
LINE
  8
Kontur
 62
   7
 39
0.100
  6
CONTINUOUS
 10
156.97600
 20
39.04600
 30
 0
 11
156.95800
 21
38.99400
  0
LINE
  8
Kontur
 62
   7
 39
0.100
  6
CONTINUOUS
 10
156.95800
 20
38.99400
 30
 0
 11
156.94300
 21
38.94100
  0
LINE
  8
Kontur
 62
   7
 39
0.100
  6
CONTINUOUS
 10
156.94300
 20
38.94100
 30
 0
 11
156.89400
 21
38.76300
  0
LINE
  8
Kontur
 62
   7
 39
0.100
  6
CONTINUOUS
 10
156.89400
 20
38.76300
 30
 0
 11
156.88000
 21
38.71000
  0
LINE
  8
Kontur
 62
   7
 39
0.100
  6
CONTINUOUS
 10
156.88000
 20
38.71000
 30
 0
 11
156.86900
 21
38.65700
  0
LINE
  8
Kontur
 62
   7
 39
0.100
  6
CONTINUOUS
 10
156.86900
 20
38.65700
 30
 0
 11
156.86000
 21
38.61000
  0
LINE
  8
Kontur
 62
   7
 39
0.100
  6
CONTINUOUS
 10
156.86000
 20
38.61000
 30
 0
 11
156.83000
 21
38.42900
  0
LINE
  8
Kontur
 62
   7
 39
0.100
  6
CONTINUOUS
 10
156.83000
 20
38.42900
 30
 0
 11
156.82200
 21
38.37500
  0
LINE
  8
Kontur
 62
   7
 39
0.100
  6
CONTINUOUS
 10
156.82200
 20
38.37500
 30
 0
 11
156.81600
 21
38.32100
  0
LINE
  8
Kontur
 62
   7
 39
0.100
  6
CONTINUOUS
 10
156.81600
 20
38.32100
 30
 0
 11
156.81200
 21
38.26500
  0
LINE
  8
Kontur
 62
   7
 39
0.100
  6
CONTINUOUS
 10
156.81200
 20
38.26500
 30
 0
 11
156.80200
 21
38.08100
  0
LINE
  8
Kontur
 62
   7
 39
0.100
  6
CONTINUOUS
 10
156.80200
 20
38.08100
 30
 0
 11
156.80000
 21
38.02700
  0
LINE
  8
Kontur
 62
   7
 39
0.100
  6
CONTINUOUS
 10
156.80000
 20
38.02700
 30
 0
 11
156.80000
 21
37.97200
  0
LINE
  8
Kontur
 62
   7
 39
0.100
  6
CONTINUOUS
 10
156.80000
 20
37.97200
 30
 0
 11
156.80200
 21
37.91900
  0
LINE
  8
Kontur
 62
   7
 39
0.100
  6
CONTINUOUS
 10
156.80200
 20
37.91900
 30
 0
 11
156.81200
 21
37.73500
  0
LINE
  8
Kontur
 62
   7
 39
0.100
  6
CONTINUOUS
 10
156.81200
 20
37.73500
 30
 0
 11
156.81600
 21
37.68000
  0
LINE
  8
Kontur
 62
   7
 39
0.100
  6
CONTINUOUS
 10
156.81600
 20
37.68000
 30
 0
 11
156.82200
 21
37.62600
  0
LINE
  8
Kontur
 62
   7
 39
0.100
  6
CONTINUOUS
 10
156.82200
 20
37.62600
 30
 0
 11
156.83000
 21
37.57100
  0
LINE
  8
Kontur
 62
   7
 39
0.100
  6
CONTINUOUS
 10
156.83000
 20
37.57100
 30
 0
 11
156.86000
 21
37.39000
  0
LINE
  8
Kontur
 62
   7
 39
0.100
  6
CONTINUOUS
 10
156.86000
 20
37.39000
 30
 0
 11
156.87000
 21
37.33600
  0
LINE
  8
Kontur
 62
   7
 39
0.100
  6
CONTINUOUS
 10
156.87000
 20
37.33600
 30
 0
 11
156.88200
 21
37.28200
  0
LINE
  8
Kontur
 62
   7
 39
0.100
  6
CONTINUOUS
 10
156.88200
 20
37.28200
 30
 0
 11
156.89400
 21
37.23700
  0
LINE
  8
Kontur
 62
   7
 39
0.100
  6
CONTINUOUS
 10
156.89400
 20
37.23700
 30
 0
 11
156.94300
 21
37.05900
  0
LINE
  8
Kontur
 62
   7
 39
0.100
  6
CONTINUOUS
 10
156.94300
 20
37.05900
 30
 0
 11
156.95800
 21
37.00600
  0
LINE
  8
Kontur
 62
   7
 39
0.100
  6
CONTINUOUS
 10
156.95800
 20
37.00600
 30
 0
 11
156.97600
 21
36.95400
  0
LINE
  8
Kontur
 62
   7
 39
0.100
  6
CONTINUOUS
 10
156.97600
 20
36.95400
 30
 0
 11
156.99500
 21
36.90300
  0
LINE
  8
Kontur
 62
   7
 39
0.100
  6
CONTINUOUS
 10
156.99500
 20
36.90300
 30
 0
 11
157.06300
 21
36.73200
  0
LINE
  8
Kontur
 62
   7
 39
0.100
  6
CONTINUOUS
 10
157.06300
 20
36.73200
 30
 0
 11
157.08400
 21
36.68100
  0
LINE
  8
Kontur
 62
   7
 39
0.100
  6
CONTINUOUS
 10
157.08400
 20
36.68100
 30
 0
 11
157.10700
 21
36.63200
  0
LINE
  8
Kontur
 62
   7
 39
0.100
  6
CONTINUOUS
 10
157.10700
 20
36.63200
 30
 0
 11
157.13200
 21
36.58300
  0
LINE
  8
Kontur
 62
   7
 39
0.100
  6
CONTINUOUS
 10
157.13200
 20
36.58300
 30
 0
 11
157.21800
 21
36.42100
  0
LINE
  8
Kontur
 62
   7
 39
0.100
  6
CONTINUOUS
 10
157.21800
 20
36.42100
 30
 0
 11
157.24500
 21
36.37300
  0
LINE
  8
Kontur
 62
   7
 39
0.100
  6
CONTINUOUS
 10
157.24500
 20
36.37300
 30
 0
 11
157.27300
 21
36.32600
  0
LINE
  8
Kontur
 62
   7
 39
0.100
  6
CONTINUOUS
 10
157.27300
 20
36.32600
 30
 0
 11
157.30200
 21
36.28100
  0
LINE
  8
Kontur
 62
   7
 39
0.100
  6
CONTINUOUS
 10
157.30200
 20
36.28100
 30
 0
 11
157.40600
 21
36.12800
  0
LINE
  8
Kontur
 62
   7
 39
0.100
  6
CONTINUOUS
 10
157.40600
 20
36.12800
 30
 0
 11
157.43800
 21
36.08300
  0
LINE
  8
Kontur
 62
   7
 39
0.100
  6
CONTINUOUS
 10
157.43800
 20
36.08300
 30
 0
 11
157.47100
 21
36.03900
  0
LINE
  8
Kontur
 62
   7
 39
0.100
  6
CONTINUOUS
 10
157.47100
 20
36.03900
 30
 0
 11
157.50400
 21
36.00000
  0
LINE
  8
Kontur
 62
   7
 39
0.100
  6
CONTINUOUS
 10
157.50400
 20
36.00000
 30
 0
 11
157.62300
 21
35.86000
  0
LINE
  8
Kontur
 62
   7
 39
0.100
  6
CONTINUOUS
 10
157.62300
 20
35.86000
 30
 0
 11
157.65900
 21
35.81800
  0
LINE
  8
Kontur
 62
   7
 39
0.100
  6
CONTINUOUS
 10
157.65900
 20
35.81800
 30
 0
 11
157.69700
 21
35.77900
  0
LINE
  8
Kontur
 62
   7
 39
0.100
  6
CONTINUOUS
 10
157.69700
 20
35.77900
 30
 0
 11
157.73000
 21
35.74600
  0
LINE
  8
Kontur
 62
   7
 39
0.100
  6
CONTINUOUS
 10
157.73000
 20
35.74600
 30
 0
 11
157.86300
 21
35.61900
  0
LINE
  8
Kontur
 62
   7
 39
0.100
  6
CONTINUOUS
 10
157.86300
 20
35.61900
 30
 0
 11
157.90300
 21
35.58200
  0
LINE
  8
Kontur
 62
   7
 39
0.100
  6
CONTINUOUS
 10
157.90300
 20
35.58200
 30
 0
 11
157.94500
 21
35.54600
  0
LINE
  8
Kontur
 62
   7
 39
0.100
  6
CONTINUOUS
 10
157.94500
 20
35.54600
 30
 0
 11
157.99500
 21
35.50700
  0
LINE
  8
Kontur
 62
   7
 39
0.100
  6
CONTINUOUS
 10
157.99500
 20
35.50700
 30
 0
 11
158.14200
 21
35.39600
  0
LINE
  8
Kontur
 62
   7
 39
0.100
  6
CONTINUOUS
 10
158.14200
 20
35.39600
 30
 0
 11
158.18600
 21
35.36400
  0
LINE
  8
Kontur
 62
   7
 39
0.100
  6
CONTINUOUS
 10
158.18600
 20
35.36400
 30
 0
 11
158.23200
 21
35.33300
  0
LINE
  8
Kontur
 62
   7
 39
0.100
  6
CONTINUOUS
 10
158.23200
 20
35.33300
 30
 0
 11
158.27300
 21
35.30700
  0
LINE
  8
Kontur
 62
   7
 39
0.100
  6
CONTINUOUS
 10
158.27300
 20
35.30700
 30
 0
 11
158.43100
 21
35.21200
  0
LINE
  8
Kontur
 62
   7
 39
0.100
  6
CONTINUOUS
 10
158.43100
 20
35.21200
 30
 0
 11
158.47900
 21
35.18500
  0
LINE
  8
Kontur
 62
   7
 39
0.100
  6
CONTINUOUS
 10
158.47900
 20
35.18500
 30
 0
 11
158.52700
 21
35.16000
  0
LINE
  8
Kontur
 62
   7
 39
0.100
  6
CONTINUOUS
 10
158.52700
 20
35.16000
 30
 0
 11
158.57600
 21
35.13600
  0
LINE
  8
Kontur
 62
   7
 39
0.100
  6
CONTINUOUS
 10
158.57600
 20
35.13600
 30
 0
 11
158.74300
 21
35.05900
  0
LINE
  8
Kontur
 62
   7
 39
0.100
  6
CONTINUOUS
 10
158.74300
 20
35.05900
 30
 0
 11
158.79300
 21
35.03700
  0
LINE
  8
Kontur
 62
   7
 39
0.100
  6
CONTINUOUS
 10
158.79300
 20
35.03700
 30
 0
 11
158.84400
 21
35.01700
  0
LINE
  8
Kontur
 62
   7
 39
0.100
  6
CONTINUOUS
 10
158.84400
 20
35.01700
 30
 0
 11
158.88900
 21
35.00000
  0
LINE
  8
Kontur
 62
   7
 39
0.100
  6
CONTINUOUS
 10
158.88900
 20
35.00000
 30
 0
 11
159.06300
 21
34.94100
  0
LINE
  8
Kontur
 62
   7
 39
0.100
  6
CONTINUOUS
 10
159.06300
 20
34.94100
 30
 0
 11
159.11500
 21
34.92500
  0
LINE
  8
Kontur
 62
   7
 39
0.100
  6
CONTINUOUS
 10
159.11500
 20
34.92500
 30
 0
 11
159.16800
 21
34.91000
  0
LINE
  8
Kontur
 62
   7
 39
0.100
  6
CONTINUOUS
 10
159.16800
 20
34.91000
 30
 0
 11
159.22000
 21
34.89800
  0
LINE
  8
Kontur
 62
   7
 39
0.100
  6
CONTINUOUS
 10
159.22000
 20
34.89800
 30
 0
 11
159.40000
 21
34.85800
  0
LINE
  8
Kontur
 62
   7
 39
0.100
  6
CONTINUOUS
 10
159.40000
 20
34.85800
 30
 0
 11
159.45300
 21
34.84700
  0
LINE
  8
Kontur
 62
   7
 39
0.100
  6
CONTINUOUS
 10
159.45300
 20
34.84700
 30
 0
 11
159.50700
 21
34.83800
  0
LINE
  8
Kontur
 62
   7
 39
0.100
  6
CONTINUOUS
 10
159.50700
 20
34.83800
 30
 0
 11
159.56200
 21
34.83100
  0
LINE
  8
Kontur
 62
   7
 39
0.100
  6
CONTINUOUS
 10
159.56200
 20
34.83100
 30
 0
 11
159.74500
 21
34.81100
  0
LINE
  8
Kontur
 62
   7
 39
0.100
  6
CONTINUOUS
 10
159.74500
 20
34.81100
 30
 0
 11
159.80000
 21
34.80600
  0
LINE
  8
Kontur
 62
   7
 39
0.100
  6
CONTINUOUS
 10
159.80000
 20
34.80600
 30
 0
 11
159.85400
 21
34.80300
  0
LINE
  8
Kontur
 62
   7
 39
0.100
  6
CONTINUOUS
 10
159.85400
 20
34.80300
 30
 0
 11
159.90800
 21
34.80200
  0
LINE
  8
Kontur
 62
   7
 39
0.100
  6
CONTINUOUS
 10
159.90800
 20
34.80200
 30
 0
 11
160.09200
 21
34.80200
  0
LINE
  8
Kontur
 62
   7
 39
0.100
  6
CONTINUOUS
 10
160.09200
 20
34.80200
 30
 0
 11
160.14700
 21
34.80300
  0
CIRCLE
  8
Kontur
 62
   7
 39
0.100
  6
CONTINUOUS
 10
160.00000
 20
38.00000
 30
 0
 40
1.70000
  0
LINE
  8
Kontur
 62
   7
 39
0.100
  6
CONTINUOUS
 10
4.14700
 20
34.80300
 30
 0
 11
4.20100
 21
34.80600
  0
LINE
  8
Kontur
 62
   7
 39
0.100
  6
CONTINUOUS
 10
4.20100
 20
34.80600
 30
 0
 11
4.25500
 21
34.81100
  0
LINE
  8
Kontur
 62
   7
 39
0.100
  6
CONTINUOUS
 10
4.25500
 20
34.81100
 30
 0
 11
4.43800
 21
34.83100
  0
LINE
  8
Kontur
 62
   7
 39
0.100
  6
CONTINUOUS
 10
4.43800
 20
34.83100
 30
 0
 11
4.49200
 21
34.83800
  0
LINE
  8
Kontur
 62
   7
 39
0.100
  6
CONTINUOUS
 10
4.49200
 20
34.83800
 30
 0
 11
4.54600
 21
34.84700
  0
LINE
  8
Kontur
 62
   7
 39
0.100
  6
CONTINUOUS
 10
4.54600
 20
34.84700
 30
 0
 11
4.60000
 21
34.85800
  0
LINE
  8
Kontur
 62
   7
 39
0.100
  6
CONTINUOUS
 10
4.60000
 20
34.85800
 30
 0
 11
4.78000
 21
34.89800
  0
LINE
  8
Kontur
 62
   7
 39
0.100
  6
CONTINUOUS
 10
4.78000
 20
34.89800
 30
 0
 11
4.83400
 21
34.91100
  0
LINE
  8
Kontur
 62
   7
 39
0.100
  6
CONTINUOUS
 10
4.83400
 20
34.91100
 30
 0
 11
4.88600
 21
34.92500
  0
LINE
  8
Kontur
 62
   7
 39
0.100
  6
CONTINUOUS
 10
4.88600
 20
34.92500
 30
 0
 11
4.93700
 21
34.94100
  0
LINE
  8
Kontur
 62
   7
 39
0.100
  6
CONTINUOUS
 10
4.93700
 20
34.94100
 30
 0
 11
5.11100
 21
35.00000
  0
LINE
  8
Kontur
 62
   7
 39
0.100
  6
CONTINUOUS
 10
5.11100
 20
35.00000
 30
 0
 11
5.16200
 21
35.01900
  0
LINE
  8
Kontur
 62
   7
 39
0.100
  6
CONTINUOUS
 10
5.16200
 20
35.01900
 30
 0
 11
5.21300
 21
35.03900
  0
LINE
  8
Kontur
 62
   7
 39
0.100
  6
CONTINUOUS
 10
5.21300
 20
35.03900
 30
 0
 11
5.25700
 21
35.05900
  0
LINE
  8
Kontur
 62
   7
 39
0.100
  6
CONTINUOUS
 10
5.25700
 20
35.05900
 30
 0
 11
5.42400
 21
35.13600
  0
LINE
  8
Kontur
 62
   7
 39
0.100
  6
CONTINUOUS
 10
5.42400
 20
35.13600
 30
 0
 11
5.47300
 21
35.16000
  0
LINE
  8
Kontur
 62
   7
 39
0.100
  6
CONTINUOUS
 10
5.47300
 20
35.16000
 30
 0
 11
5.52200
 21
35.18500
  0
LINE
  8
Kontur
 62
   7
 39
0.100
  6
CONTINUOUS
 10
5.52200
 20
35.18500
 30
 0
 11
5.56900
 21
35.21200
  0
LINE
  8
Kontur
 62
   7
 39
0.100
  6
CONTINUOUS
 10
5.56900
 20
35.21200
 30
 0
 11
5.72700
 21
35.30700
  0
LINE
  8
Kontur
 62
   7
 39
0.100
  6
CONTINUOUS
 10
5.72700
 20
35.30700
 30
 0
 11
5.81900
 21
35.36700
  0
LINE
  8
Kontur
 62
   7
 39
0.100
  6
CONTINUOUS
 10
5.81900
 20
35.36700
 30
 0
 11
5.85800
 21
35.39600
  0
LINE
  8
Kontur
 62
   7
 39
0.100
  6
CONTINUOUS
 10
5.85800
 20
35.39600
 30
 0
 11
6.00500
 21
35.50700
  0
LINE
  8
Kontur
 62
   7
 39
0.100
  6
CONTINUOUS
 10
6.00500
 20
35.50700
 30
 0
 11
6.04800
 21
35.54100
  0
LINE
  8
Kontur
 62
   7
 39
0.100
  6
CONTINUOUS
 10
6.04800
 20
35.54100
 30
 0
 11
6.09000
 21
35.57600
  0
LINE
  8
Kontur
 62
   7
 39
0.100
  6
CONTINUOUS
 10
6.09000
 20
35.57600
 30
 0
 11
6.13700
 21
35.61900
  0
LINE
  8
Kontur
 62
   7
 39
0.100
  6
CONTINUOUS
 10
6.13700
 20
35.61900
 30
 0
 11
6.27000
 21
35.74600
  0
LINE
  8
Kontur
 62
   7
 39
0.100
  6
CONTINUOUS
 10
6.27000
 20
35.74600
 30
 0
 11
6.30900
 21
35.78500
  0
LINE
  8
Kontur
 62
   7
 39
0.100
  6
CONTINUOUS
 10
6.30900
 20
35.78500
 30
 0
 11
6.34600
 21
35.82500
  0
LINE
  8
Kontur
 62
   7
 39
0.100
  6
CONTINUOUS
 10
6.34600
 20
35.82500
 30
 0
 11
6.37700
 21
35.86000
  0
LINE
  8
Kontur
 62
   7
 39
0.100
  6
CONTINUOUS
 10
6.37700
 20
35.86000
 30
 0
 11
6.49600
 21
36.00000
  0
LINE
  8
Kontur
 62
   7
 39
0.100
  6
CONTINUOUS
 10
6.49600
 20
36.00000
 30
 0
 11
6.53100
 21
36.04200
  0
LINE
  8
Kontur
 62
   7
 39
0.100
  6
CONTINUOUS
 10
6.53100
 20
36.04200
 30
 0
 11
6.56400
 21
36.08600
  0
LINE
  8
Kontur
 62
   7
 39
0.100
  6
CONTINUOUS
 10
6.56400
 20
36.08600
 30
 0
 11
6.59400
 21
36.12800
  0
LINE
  8
Kontur
 62
   7
 39
0.100
  6
CONTINUOUS
 10
6.59400
 20
36.12800
 30
 0
 11
6.69800
 21
36.28100
  0
LINE
  8
Kontur
 62
   7
 39
0.100
  6
CONTINUOUS
 10
6.69800
 20
36.28100
 30
 0
 11
6.72700
 21
36.32700
  0
LINE
  8
Kontur
 62
   7
 39
0.100
  6
CONTINUOUS
 10
6.72700
 20
36.32700
 30
 0
 11
6.75600
 21
36.37400
  0
LINE
  8
Kontur
 62
   7
 39
0.100
  6
CONTINUOUS
 10
6.75600
 20
36.37400
 30
 0
 11
6.78200
 21
36.42100
  0
LINE
  8
Kontur
 62
   7
 39
0.100
  6
CONTINUOUS
 10
6.78200
 20
36.42100
 30
 0
 11
6.86800
 21
36.58300
  0
LINE
  8
Kontur
 62
   7
 39
0.100
  6
CONTINUOUS
 10
6.86800
 20
36.58300
 30
 0
 11
6.89300
 21
36.63200
  0
LINE
  8
Kontur
 62
   7
 39
0.100
  6
CONTINUOUS
 10
6.89300
 20
36.63200
 30
 0
 11
6.91600
 21
36.68100
  0
LINE
  8
Kontur
 62
   7
 39
0.100
  6
CONTINUOUS
 10
6.91600
 20
36.68100
 30
 0
 11
6.93700
 21
36.73200
  0
LINE
  8
Kontur
 62
   7
 39
0.100
  6
CONTINUOUS
 10
6.93700
 20
36.73200
 30
 0
 11
7.00500
 21
36.90300
  0
LINE
  8
Kontur
 62
   7
 39
0.100
  6
CONTINUOUS
 10
7.00500
 20
36.90300
 30
 0
 11
7.02400
 21
36.95400
  0
LINE
  8
Kontur
 62
   7
 39
0.100
  6
CONTINUOUS
 10
7.02400
 20
36.95400
 30
 0
 11
7.04200
 21
37.00600
  0
LINE
  8
Kontur
 62
   7
 39
0.100
  6
CONTINUOUS
 10
7.04200
 20
37.00600
 30
 0
 11
7.05700
 21
37.05900
  0
LINE
  8
Kontur
 62
   7
 39
0.100
  6
CONTINUOUS
 10
7.05700
 20
37.05900
 30
 0
 11
7.10600
 21
37.23700
  0
LINE
  8
Kontur
 62
   7
 39
0.100
  6
CONTINUOUS
 10
7.10600
 20
37.23700
 30
 0
 11
7.12000
 21
37.29000
  0
LINE
  8
Kontur
 62
   7
 39
0.100
  6
CONTINUOUS
 10
7.12000
 20
37.29000
 30
 0
 11
7.13100
 21
37.34300
  0
LINE
  8
Kontur
 62
   7
 39
0.100
  6
CONTINUOUS
 10
7.13100
 20
37.34300
 30
 0
 11
7.14000
 21
37.39000
  0
LINE
  8
Kontur
 62
   7
 39
0.100
  6
CONTINUOUS
 10
7.14000
 20
37.39000
 30
 0
 11
7.17000
 21
37.57100
  0
LINE
  8
Kontur
 62
   7
 39
0.100
  6
CONTINUOUS
 10
7.17000
 20
37.57100
 30
 0
 11
7.17800
 21
37.62500
  0
LINE
  8
Kontur
 62
   7
 39
0.100
  6
CONTINUOUS
 10
7.17800
 20
37.62500
 30
 0
 11
7.18400
 21
37.67900
  0
LINE
  8
Kontur
 62
   7
 39
0.100
  6
CONTINUOUS
 10
7.18400
 20
37.67900
 30
 0
 11
7.18800
 21
37.73500
  0
LINE
  8
Kontur
 62
   7
 39
0.100
  6
CONTINUOUS
 10
7.18800
 20
37.73500
 30
 0
 11
7.19800
 21
37.91900
  0
LINE
  8
Kontur
 62
   7
 39
0.100
  6
CONTINUOUS
 10
7.19800
 20
37.91900
 30
 0
 11
7.20000
 21
37.97300
  0
LINE
  8
Kontur
 62
   7
 39
0.100
  6
CONTINUOUS
 10
7.20000
 20
37.97300
 30
 0
 11
7.20000
 21
38.02800
  0
LINE
  8
Kontur
 62
   7
 39
0.100
  6
CONTINUOUS
 10
7.20000
 20
38.02800
 30
 0
 11
7.19800
 21
38.08100
  0
LINE
  8
Kontur
 62
   7
 39
0.100
  6
CONTINUOUS
 10
7.19800
 20
38.08100
 30
 0
 11
7.18800
 21
38.26500
  0
LINE
  8
Kontur
 62
   7
 39
0.100
  6
CONTINUOUS
 10
7.18800
 20
38.26500
 30
 0
 11
7.18400
 21
38.32000
  0
LINE
  8
Kontur
 62
   7
 39
0.100
  6
CONTINUOUS
 10
7.18400
 20
38.32000
 30
 0
 11
7.17800
 21
38.37400
  0
LINE
  8
Kontur
 62
   7
 39
0.100
  6
CONTINUOUS
 10
7.17800
 20
38.37400
 30
 0
 11
7.17000
 21
38.42900
  0
LINE
  8
Kontur
 62
   7
 39
0.100
  6
CONTINUOUS
 10
7.17000
 20
38.42900
 30
 0
 11
7.14000
 21
38.61000
  0
LINE
  8
Kontur
 62
   7
 39
0.100
  6
CONTINUOUS
 10
7.14000
 20
38.61000
 30
 0
 11
7.13000
 21
38.66400
  0
LINE
  8
Kontur
 62
   7
 39
0.100
  6
CONTINUOUS
 10
7.13000
 20
38.66400
 30
 0
 11
7.11800
 21
38.71800
  0
LINE
  8
Kontur
 62
   7
 39
0.100
  6
CONTINUOUS
 10
7.11800
 20
38.71800
 30
 0
 11
7.10600
 21
38.76300
  0
LINE
  8
Kontur
 62
   7
 39
0.100
  6
CONTINUOUS
 10
7.10600
 20
38.76300
 30
 0
 11
7.05700
 21
38.94100
  0
LINE
  8
Kontur
 62
   7
 39
0.100
  6
CONTINUOUS
 10
7.05700
 20
38.94100
 30
 0
 11
7.04200
 21
38.99400
  0
LINE
  8
Kontur
 62
   7
 39
0.100
  6
CONTINUOUS
 10
7.04200
 20
38.99400
 30
 0
 11
7.02400
 21
39.04600
  0
LINE
  8
Kontur
 62
   7
 39
0.100
  6
CONTINUOUS
 10
7.02400
 20
39.04600
 30
 0
 11
7.00500
 21
39.09700
  0
LINE
  8
Kontur
 62
   7
 39
0.100
  6
CONTINUOUS
 10
7.00500
 20
39.09700
 30
 0
 11
6.93700
 21
39.26800
  0
LINE
  8
Kontur
 62
   7
 39
0.100
  6
CONTINUOUS
 10
6.93700
 20
39.26800
 30
 0
 11
6.91600
 21
39.31900
  0
LINE
  8
Kontur
 62
   7
 39
0.100
  6
CONTINUOUS
 10
6.91600
 20
39.31900
 30
 0
 11
6.89300
 21
39.36800
  0
LINE
  8
Kontur
 62
   7
 39
0.100
  6
CONTINUOUS
 10
6.89300
 20
39.36800
 30
 0
 11
6.86800
 21
39.41700
  0
LINE
  8
Kontur
 62
   7
 39
0.100
  6
CONTINUOUS
 10
6.86800
 20
39.41700
 30
 0
 11
6.78200
 21
39.57900
  0
LINE
  8
Kontur
 62
   7
 39
0.100
  6
CONTINUOUS
 10
6.78200
 20
39.57900
 30
 0
 11
6.75500
 21
39.62700
  0
LINE
  8
Kontur
 62
   7
 39
0.100
  6
CONTINUOUS
 10
6.75500
 20
39.62700
 30
 0
 11
6.72700
 21
39.67400
  0
LINE
  8
Kontur
 62
   7
 39
0.100
  6
CONTINUOUS
 10
6.72700
 20
39.67400
 30
 0
 11
6.69800
 21
39.71900
  0
LINE
  8
Kontur
 62
   7
 39
0.100
  6
CONTINUOUS
 10
6.69800
 20
39.71900
 30
 0
 11
6.59400
 21
39.87200
  0
LINE
  8
Kontur
 62
   7
 39
0.100
  6
CONTINUOUS
 10
6.59400
 20
39.87200
 30
 0
 11
6.56200
 21
39.91700
  0
LINE
  8
Kontur
 62
   7
 39
0.100
  6
CONTINUOUS
 10
6.56200
 20
39.91700
 30
 0
 11
6.52900
 21
39.96100
  0
LINE
  8
Kontur
 62
   7
 39
0.100
  6
CONTINUOUS
 10
6.52900
 20
39.96100
 30
 0
 11
6.49600
 21
40.00000
  0
LINE
  8
Kontur
 62
   7
 39
0.100
  6
CONTINUOUS
 10
6.49600
 20
40.00000
 30
 0
 11
6.37700
 21
40.14000
  0
LINE
  8
Kontur
 62
   7
 39
0.100
  6
CONTINUOUS
 10
6.37700
 20
40.14000
 30
 0
 11
6.34100
 21
40.18200
  0
LINE
  8
Kontur
 62
   7
 39
0.100
  6
CONTINUOUS
 10
6.34100
 20
40.18200
 30
 0
 11
6.30300
 21
40.22100
  0
LINE
  8
Kontur
 62
   7
 39
0.100
  6
CONTINUOUS
 10
6.30300
 20
40.22100
 30
 0
 11
6.27000
 21
40.25400
  0
LINE
  8
Kontur
 62
   7
 39
0.100
  6
CONTINUOUS
 10
6.27000
 20
40.25400
 30
 0
 11
6.13700
 21
40.38100
  0
LINE
  8
Kontur
 62
   7
 39
0.100
  6
CONTINUOUS
 10
6.13700
 20
40.38100
 30
 0
 11
6.09700
 21
40.41800
  0
LINE
  8
Kontur
 62
   7
 39
0.100
  6
CONTINUOUS
 10
6.09700
 20
40.41800
 30
 0
 11
6.05500
 21
40.45400
  0
LINE
  8
Kontur
 62
   7
 39
0.100
  6
CONTINUOUS
 10
6.05500
 20
40.45400
 30
 0
 11
6.00500
 21
40.49300
  0
LINE
  8
Kontur
 62
   7
 39
0.100
  6
CONTINUOUS
 10
6.00500
 20
40.49300
 30
 0
 11
5.85800
 21
40.60400
  0
LINE
  8
Kontur
 62
   7
 39
0.100
  6
CONTINUOUS
 10
5.85800
 20
40.60400
 30
 0
 11
5.81400
 21
40.63600
  0
LINE
  8
Kontur
 62
   7
 39
0.100
  6
CONTINUOUS
 10
5.81400
 20
40.63600
 30
 0
 11
5.76800
 21
40.66700
  0
LINE
  8
Kontur
 62
   7
 39
0.100
  6
CONTINUOUS
 10
5.76800
 20
40.66700
 30
 0
 11
5.72700
 21
40.69300
  0
LINE
  8
Kontur
 62
   7
 39
0.100
  6
CONTINUOUS
 10
5.72700
 20
40.69300
 30
 0
 11
5.56900
 21
40.78800
  0
LINE
  8
Kontur
 62
   7
 39
0.100
  6
CONTINUOUS
 10
5.56900
 20
40.78800
 30
 0
 11
5.52100
 21
40.81500
  0
LINE
  8
Kontur
 62
   7
 39
0.100
  6
CONTINUOUS
 10
5.52100
 20
40.81500
 30
 0
 11
5.47300
 21
40.84000
  0
LINE
  8
Kontur
 62
   7
 39
0.100
  6
CONTINUOUS
 10
5.47300
 20
40.84000
 30
 0
 11
5.42400
 21
40.86400
  0
LINE
  8
Kontur
 62
   7
 39
0.100
  6
CONTINUOUS
 10
5.42400
 20
40.86400
 30
 0
 11
5.25700
 21
40.94100
  0
LINE
  8
Kontur
 62
   7
 39
0.100
  6
CONTINUOUS
 10
5.25700
 20
40.94100
 30
 0
 11
5.20700
 21
40.96300
  0
LINE
  8
Kontur
 62
   7
 39
0.100
  6
CONTINUOUS
 10
5.20700
 20
40.96300
 30
 0
 11
5.15600
 21
40.98300
  0
LINE
  8
Kontur
 62
   7
 39
0.100
  6
CONTINUOUS
 10
5.15600
 20
40.98300
 30
 0
 11
5.11100
 21
41.00000
  0
LINE
  8
Kontur
 62
   7
 39
0.100
  6
CONTINUOUS
 10
5.11100
 20
41.00000
 30
 0
 11
4.93700
 21
41.05900
  0
LINE
  8
Kontur
 62
   7
 39
0.100
  6
CONTINUOUS
 10
4.93700
 20
41.05900
 30
 0
 11
4.88500
 21
41.07500
  0
LINE
  8
Kontur
 62
   7
 39
0.100
  6
CONTINUOUS
 10
4.88500
 20
41.07500
 30
 0
 11
4.83200
 21
41.09000
  0
LINE
  8
Kontur
 62
   7
 39
0.100
  6
CONTINUOUS
 10
4.83200
 20
41.09000
 30
 0
 11
4.78000
 21
41.10200
  0
LINE
  8
Kontur
 62
   7
 39
0.100
  6
CONTINUOUS
 10
4.78000
 20
41.10200
 30
 0
 11
4.60000
 21
41.14200
  0
LINE
  8
Kontur
 62
   7
 39
0.100
  6
CONTINUOUS
 10
4.60000
 20
41.14200
 30
 0
 11
4.54700
 21
41.15300
  0
LINE
  8
Kontur
 62
   7
 39
0.100
  6
CONTINUOUS
 10
4.54700
 20
41.15300
 30
 0
 11
4.49300
 21
41.16200
  0
LINE
  8
Kontur
 62
   7
 39
0.100
  6
CONTINUOUS
 10
4.49300
 20
41.16200
 30
 0
 11
4.43800
 21
41.16900
  0
LINE
  8
Kontur
 62
   7
 39
0.100
  6
CONTINUOUS
 10
4.43800
 20
41.16900
 30
 0
 11
4.25500
 21
41.18900
  0
LINE
  8
Kontur
 62
   7
 39
0.100
  6
CONTINUOUS
 10
4.25500
 20
41.18900
 30
 0
 11
4.20000
 21
41.19400
  0
LINE
  8
Kontur
 62
   7
 39
0.100
  6
CONTINUOUS
 10
4.20000
 20
41.19400
 30
 0
 11
4.14600
 21
41.19700
  0
LINE
  8
Kontur
 62
   7
 39
0.100
  6
CONTINUOUS
 10
4.14600
 20
41.19700
 30
 0
 11
4.09200
 21
41.19800
  0
LINE
  8
Kontur
 62
   7
 39
0.100
  6
CONTINUOUS
 10
4.09200
 20
41.19800
 30
 0
 11
3.90800
 21
41.19800
  0
LINE
  8
Kontur
 62
   7
 39
0.100
  6
CONTINUOUS
 10
3.90800
 20
41.19800
 30
 0
 11
3.85300
 21
41.19700
  0
LINE
  8
Kontur
 62
   7
 39
0.100
  6
CONTINUOUS
 10
3.85300
 20
41.19700
 30
 0
 11
3.79900
 21
41.19400
  0
LINE
  8
Kontur
 62
   7
 39
0.100
  6
CONTINUOUS
 10
3.79900
 20
41.19400
 30
 0
 11
3.74500
 21
41.18900
  0
LINE
  8
Kontur
 62
   7
 39
0.100
  6
CONTINUOUS
 10
3.74500
 20
41.18900
 30
 0
 11
3.56200
 21
41.16900
  0
LINE
  8
Kontur
 62
   7
 39
0.100
  6
CONTINUOUS
 10
3.56200
 20
41.16900
 30
 0
 11
3.50800
 21
41.16200
  0
LINE
  8
Kontur
 62
   7
 39
0.100
  6
CONTINUOUS
 10
3.50800
 20
41.16200
 30
 0
 11
3.45400
 21
41.15300
  0
LINE
  8
Kontur
 62
   7
 39
0.100
  6
CONTINUOUS
 10
3.45400
 20
41.15300
 30
 0
 11
3.40000
 21
41.14200
  0
LINE
  8
Kontur
 62
   7
 39
0.100
  6
CONTINUOUS
 10
3.40000
 20
41.14200
 30
 0
 11
3.22000
 21
41.10200
  0
LINE
  8
Kontur
 62
   7
 39
0.100
  6
CONTINUOUS
 10
3.22000
 20
41.10200
 30
 0
 11
3.16600
 21
41.08900
  0
LINE
  8
Kontur
 62
   7
 39
0.100
  6
CONTINUOUS
 10
3.16600
 20
41.08900
 30
 0
 11
3.11400
 21
41.07500
  0
LINE
  8
Kontur
 62
   7
 39
0.100
  6
CONTINUOUS
 10
3.11400
 20
41.07500
 30
 0
 11
3.06300
 21
41.05900
  0
LINE
  8
Kontur
 62
   7
 39
0.100
  6
CONTINUOUS
 10
3.06300
 20
41.05900
 30
 0
 11
2.88900
 21
41.00000
  0
LINE
  8
Kontur
 62
   7
 39
0.100
  6
CONTINUOUS
 10
2.88900
 20
41.00000
 30
 0
 11
2.83800
 21
40.98100
  0
LINE
  8
Kontur
 62
   7
 39
0.100
  6
CONTINUOUS
 10
2.83800
 20
40.98100
 30
 0
 11
2.78700
 21
40.96100
  0
LINE
  8
Kontur
 62
   7
 39
0.100
  6
CONTINUOUS
 10
2.78700
 20
40.96100
 30
 0
 11
2.74300
 21
40.94100
  0
LINE
  8
Kontur
 62
   7
 39
0.100
  6
CONTINUOUS
 10
2.74300
 20
40.94100
 30
 0
 11
2.57600
 21
40.86400
  0
LINE
  8
Kontur
 62
   7
 39
0.100
  6
CONTINUOUS
 10
2.57600
 20
40.86400
 30
 0
 11
2.52700
 21
40.84000
  0
LINE
  8
Kontur
 62
   7
 39
0.100
  6
CONTINUOUS
 10
2.52700
 20
40.84000
 30
 0
 11
2.47800
 21
40.81500
  0
LINE
  8
Kontur
 62
   7
 39
0.100
  6
CONTINUOUS
 10
2.47800
 20
40.81500
 30
 0
 11
2.43100
 21
40.78800
  0
LINE
  8
Kontur
 62
   7
 39
0.100
  6
CONTINUOUS
 10
2.43100
 20
40.78800
 30
 0
 11
2.27300
 21
40.69300
  0
LINE
  8
Kontur
 62
   7
 39
0.100
  6
CONTINUOUS
 10
2.27300
 20
40.69300
 30
 0
 11
2.18100
 21
40.63300
  0
LINE
  8
Kontur
 62
   7
 39
0.100
  6
CONTINUOUS
 10
2.18100
 20
40.63300
 30
 0
 11
2.14200
 21
40.60400
  0
LINE
  8
Kontur
 62
   7
 39
0.100
  6
CONTINUOUS
 10
2.14200
 20
40.60400
 30
 0
 11
1.99500
 21
40.49300
  0
LINE
  8
Kontur
 62
   7
 39
0.100
  6
CONTINUOUS
 10
1.99500
 20
40.49300
 30
 0
 11
1.95200
 21
40.45900
  0
LINE
  8
Kontur
 62
   7
 39
0.100
  6
CONTINUOUS
 10
1.95200
 20
40.45900
 30
 0
 11
1.91000
 21
40.42400
  0
LINE
  8
Kontur
 62
   7
 39
0.100
  6
CONTINUOUS
 10
1.91000
 20
40.42400
 30
 0
 11
1.86300
 21
40.38100
  0
LINE
  8
Kontur
 62
   7
 39
0.100
  6
CONTINUOUS
 10
1.86300
 20
40.38100
 30
 0
 11
1.73000
 21
40.25400
  0
LINE
  8
Kontur
 62
   7
 39
0.100
  6
CONTINUOUS
 10
1.73000
 20
40.25400
 30
 0
 11
1.69100
 21
40.21500
  0
LINE
  8
Kontur
 62
   7
 39
0.100
  6
CONTINUOUS
 10
1.69100
 20
40.21500
 30
 0
 11
1.65400
 21
40.17500
  0
LINE
  8
Kontur
 62
   7
 39
0.100
  6
CONTINUOUS
 10
1.65400
 20
40.17500
 30
 0
 11
1.62300
 21
40.14000
  0
LINE
  8
Kontur
 62
   7
 39
0.100
  6
CONTINUOUS
 10
1.62300
 20
40.14000
 30
 0
 11
1.50400
 21
40.00000
  0
LINE
  8
Kontur
 62
   7
 39
0.100
  6
CONTINUOUS
 10
1.50400
 20
40.00000
 30
 0
 11
1.46900
 21
39.95800
  0
LINE
  8
Kontur
 62
   7
 39
0.100
  6
CONTINUOUS
 10
1.46900
 20
39.95800
 30
 0
 11
1.43600
 21
39.91400
  0
LINE
  8
Kontur
 62
   7
 39
0.100
  6
CONTINUOUS
 10
1.43600
 20
39.91400
 30
 0
 11
1.40600
 21
39.87200
  0
LINE
  8
Kontur
 62
   7
 39
0.100
  6
CONTINUOUS
 10
1.40600
 20
39.87200
 30
 0
 11
1.30200
 21
39.71900
  0
LINE
  8
Kontur
 62
   7
 39
0.100
  6
CONTINUOUS
 10
1.30200
 20
39.71900
 30
 0
 11
1.27300
 21
39.67300
  0
LINE
  8
Kontur
 62
   7
 39
0.100
  6
CONTINUOUS
 10
1.27300
 20
39.67300
 30
 0
 11
1.24400
 21
39.62600
  0
LINE
  8
Kontur
 62
   7
 39
0.100
  6
CONTINUOUS
 10
1.24400
 20
39.62600
 30
 0
 11
1.21800
 21
39.57900
  0
LINE
  8
Kontur
 62
   7
 39
0.100
  6
CONTINUOUS
 10
1.21800
 20
39.57900
 30
 0
 11
1.13200
 21
39.41700
  0
LINE
  8
Kontur
 62
   7
 39
0.100
  6
CONTINUOUS
 10
1.13200
 20
39.41700
 30
 0
 11
1.10700
 21
39.36800
  0
LINE
  8
Kontur
 62
   7
 39
0.100
  6
CONTINUOUS
 10
1.10700
 20
39.36800
 30
 0
 11
1.08400
 21
39.31900
  0
LINE
  8
Kontur
 62
   7
 39
0.100
  6
CONTINUOUS
 10
1.08400
 20
39.31900
 30
 0
 11
1.06300
 21
39.26800
  0
LINE
  8
Kontur
 62
   7
 39
0.100
  6
CONTINUOUS
 10
1.06300
 20
39.26800
 30
 0
 11
0.99500
 21
39.09700
  0
LINE
  8
Kontur
 62
   7
 39
0.100
  6
CONTINUOUS
 10
0.99500
 20
39.09700
 30
 0
 11
0.97600
 21
39.04600
  0
LINE
  8
Kontur
 62
   7
 39
0.100
  6
CONTINUOUS
 10
0.97600
 20
39.04600
 30
 0
 11
0.95800
 21
38.99400
  0
LINE
  8
Kontur
 62
   7
 39
0.100
  6
CONTINUOUS
 10
0.95800
 20
38.99400
 30
 0
 11
0.94300
 21
38.94100
  0
LINE
  8
Kontur
 62
   7
 39
0.100
  6
CONTINUOUS
 10
0.94300
 20
38.94100
 30
 0
 11
0.89400
 21
38.76300
  0
LINE
  8
Kontur
 62
   7
 39
0.100
  6
CONTINUOUS
 10
0.89400
 20
38.76300
 30
 0
 11
0.88000
 21
38.71000
  0
LINE
  8
Kontur
 62
   7
 39
0.100
  6
CONTINUOUS
 10
0.88000
 20
38.71000
 30
 0
 11
0.86900
 21
38.65700
  0
LINE
  8
Kontur
 62
   7
 39
0.100
  6
CONTINUOUS
 10
0.86900
 20
38.65700
 30
 0
 11
0.86000
 21
38.61000
  0
LINE
  8
Kontur
 62
   7
 39
0.100
  6
CONTINUOUS
 10
0.86000
 20
38.61000
 30
 0
 11
0.83000
 21
38.42900
  0
LINE
  8
Kontur
 62
   7
 39
0.100
  6
CONTINUOUS
 10
0.83000
 20
38.42900
 30
 0
 11
0.82200
 21
38.37500
  0
LINE
  8
Kontur
 62
   7
 39
0.100
  6
CONTINUOUS
 10
0.82200
 20
38.37500
 30
 0
 11
0.81600
 21
38.32100
  0
LINE
  8
Kontur
 62
   7
 39
0.100
  6
CONTINUOUS
 10
0.81600
 20
38.32100
 30
 0
 11
0.81200
 21
38.26500
  0
LINE
  8
Kontur
 62
   7
 39
0.100
  6
CONTINUOUS
 10
0.81200
 20
38.26500
 30
 0
 11
0.80200
 21
38.08100
  0
LINE
  8
Kontur
 62
   7
 39
0.100
  6
CONTINUOUS
 10
0.80200
 20
38.08100
 30
 0
 11
0.80000
 21
38.02700
  0
LINE
  8
Kontur
 62
   7
 39
0.100
  6
CONTINUOUS
 10
0.80000
 20
38.02700
 30
 0
 11
0.80000
 21
37.97200
  0
LINE
  8
Kontur
 62
   7
 39
0.100
  6
CONTINUOUS
 10
0.80000
 20
37.97200
 30
 0
 11
0.80200
 21
37.91900
  0
LINE
  8
Kontur
 62
   7
 39
0.100
  6
CONTINUOUS
 10
0.80200
 20
37.91900
 30
 0
 11
0.81200
 21
37.73500
  0
LINE
  8
Kontur
 62
   7
 39
0.100
  6
CONTINUOUS
 10
0.81200
 20
37.73500
 30
 0
 11
0.81600
 21
37.68000
  0
LINE
  8
Kontur
 62
   7
 39
0.100
  6
CONTINUOUS
 10
0.81600
 20
37.68000
 30
 0
 11
0.82200
 21
37.62600
  0
LINE
  8
Kontur
 62
   7
 39
0.100
  6
CONTINUOUS
 10
0.82200
 20
37.62600
 30
 0
 11
0.83000
 21
37.57100
  0
LINE
  8
Kontur
 62
   7
 39
0.100
  6
CONTINUOUS
 10
0.83000
 20
37.57100
 30
 0
 11
0.86000
 21
37.39000
  0
LINE
  8
Kontur
 62
   7
 39
0.100
  6
CONTINUOUS
 10
0.86000
 20
37.39000
 30
 0
 11
0.87000
 21
37.33600
  0
LINE
  8
Kontur
 62
   7
 39
0.100
  6
CONTINUOUS
 10
0.87000
 20
37.33600
 30
 0
 11
0.88200
 21
37.28200
  0
LINE
  8
Kontur
 62
   7
 39
0.100
  6
CONTINUOUS
 10
0.88200
 20
37.28200
 30
 0
 11
0.89400
 21
37.23700
  0
LINE
  8
Kontur
 62
   7
 39
0.100
  6
CONTINUOUS
 10
0.89400
 20
37.23700
 30
 0
 11
0.94300
 21
37.05900
  0
LINE
  8
Kontur
 62
   7
 39
0.100
  6
CONTINUOUS
 10
0.94300
 20
37.05900
 30
 0
 11
0.95800
 21
37.00600
  0
LINE
  8
Kontur
 62
   7
 39
0.100
  6
CONTINUOUS
 10
0.95800
 20
37.00600
 30
 0
 11
0.97600
 21
36.95400
  0
LINE
  8
Kontur
 62
   7
 39
0.100
  6
CONTINUOUS
 10
0.97600
 20
36.95400
 30
 0
 11
0.99500
 21
36.90300
  0
LINE
  8
Kontur
 62
   7
 39
0.100
  6
CONTINUOUS
 10
0.99500
 20
36.90300
 30
 0
 11
1.06300
 21
36.73200
  0
LINE
  8
Kontur
 62
   7
 39
0.100
  6
CONTINUOUS
 10
1.06300
 20
36.73200
 30
 0
 11
1.08400
 21
36.68100
  0
LINE
  8
Kontur
 62
   7
 39
0.100
  6
CONTINUOUS
 10
1.08400
 20
36.68100
 30
 0
 11
1.10700
 21
36.63200
  0
LINE
  8
Kontur
 62
   7
 39
0.100
  6
CONTINUOUS
 10
1.10700
 20
36.63200
 30
 0
 11
1.13200
 21
36.58300
  0
LINE
  8
Kontur
 62
   7
 39
0.100
  6
CONTINUOUS
 10
1.13200
 20
36.58300
 30
 0
 11
1.21800
 21
36.42100
  0
LINE
  8
Kontur
 62
   7
 39
0.100
  6
CONTINUOUS
 10
1.21800
 20
36.42100
 30
 0
 11
1.24500
 21
36.37300
  0
LINE
  8
Kontur
 62
   7
 39
0.100
  6
CONTINUOUS
 10
1.24500
 20
36.37300
 30
 0
 11
1.27300
 21
36.32600
  0
LINE
  8
Kontur
 62
   7
 39
0.100
  6
CONTINUOUS
 10
1.27300
 20
36.32600
 30
 0
 11
1.30200
 21
36.28100
  0
LINE
  8
Kontur
 62
   7
 39
0.100
  6
CONTINUOUS
 10
1.30200
 20
36.28100
 30
 0
 11
1.40600
 21
36.12800
  0
LINE
  8
Kontur
 62
   7
 39
0.100
  6
CONTINUOUS
 10
1.40600
 20
36.12800
 30
 0
 11
1.43800
 21
36.08300
  0
LINE
  8
Kontur
 62
   7
 39
0.100
  6
CONTINUOUS
 10
1.43800
 20
36.08300
 30
 0
 11
1.47100
 21
36.03900
  0
LINE
  8
Kontur
 62
   7
 39
0.100
  6
CONTINUOUS
 10
1.47100
 20
36.03900
 30
 0
 11
1.50400
 21
36.00000
  0
LINE
  8
Kontur
 62
   7
 39
0.100
  6
CONTINUOUS
 10
1.50400
 20
36.00000
 30
 0
 11
1.62300
 21
35.86000
  0
LINE
  8
Kontur
 62
   7
 39
0.100
  6
CONTINUOUS
 10
1.62300
 20
35.86000
 30
 0
 11
1.65900
 21
35.81800
  0
LINE
  8
Kontur
 62
   7
 39
0.100
  6
CONTINUOUS
 10
1.65900
 20
35.81800
 30
 0
 11
1.69700
 21
35.77900
  0
LINE
  8
Kontur
 62
   7
 39
0.100
  6
CONTINUOUS
 10
1.69700
 20
35.77900
 30
 0
 11
1.73000
 21
35.74600
  0
LINE
  8
Kontur
 62
   7
 39
0.100
  6
CONTINUOUS
 10
1.73000
 20
35.74600
 30
 0
 11
1.86300
 21
35.61900
  0
LINE
  8
Kontur
 62
   7
 39
0.100
  6
CONTINUOUS
 10
1.86300
 20
35.61900
 30
 0
 11
1.90300
 21
35.58200
  0
LINE
  8
Kontur
 62
   7
 39
0.100
  6
CONTINUOUS
 10
1.90300
 20
35.58200
 30
 0
 11
1.94500
 21
35.54600
  0
LINE
  8
Kontur
 62
   7
 39
0.100
  6
CONTINUOUS
 10
1.94500
 20
35.54600
 30
 0
 11
1.99500
 21
35.50700
  0
LINE
  8
Kontur
 62
   7
 39
0.100
  6
CONTINUOUS
 10
1.99500
 20
35.50700
 30
 0
 11
2.14200
 21
35.39600
  0
LINE
  8
Kontur
 62
   7
 39
0.100
  6
CONTINUOUS
 10
2.14200
 20
35.39600
 30
 0
 11
2.18600
 21
35.36400
  0
LINE
  8
Kontur
 62
   7
 39
0.100
  6
CONTINUOUS
 10
2.18600
 20
35.36400
 30
 0
 11
2.23200
 21
35.33300
  0
LINE
  8
Kontur
 62
   7
 39
0.100
  6
CONTINUOUS
 10
2.23200
 20
35.33300
 30
 0
 11
2.27300
 21
35.30700
  0
LINE
  8
Kontur
 62
   7
 39
0.100
  6
CONTINUOUS
 10
2.27300
 20
35.30700
 30
 0
 11
2.43100
 21
35.21200
  0
LINE
  8
Kontur
 62
   7
 39
0.100
  6
CONTINUOUS
 10
2.43100
 20
35.21200
 30
 0
 11
2.47900
 21
35.18500
  0
LINE
  8
Kontur
 62
   7
 39
0.100
  6
CONTINUOUS
 10
2.47900
 20
35.18500
 30
 0
 11
2.52700
 21
35.16000
  0
LINE
  8
Kontur
 62
   7
 39
0.100
  6
CONTINUOUS
 10
2.52700
 20
35.16000
 30
 0
 11
2.57600
 21
35.13600
  0
LINE
  8
Kontur
 62
   7
 39
0.100
  6
CONTINUOUS
 10
2.57600
 20
35.13600
 30
 0
 11
2.74300
 21
35.05900
  0
LINE
  8
Kontur
 62
   7
 39
0.100
  6
CONTINUOUS
 10
2.74300
 20
35.05900
 30
 0
 11
2.79300
 21
35.03700
  0
LINE
  8
Kontur
 62
   7
 39
0.100
  6
CONTINUOUS
 10
2.79300
 20
35.03700
 30
 0
 11
2.84400
 21
35.01700
  0
LINE
  8
Kontur
 62
   7
 39
0.100
  6
CONTINUOUS
 10
2.84400
 20
35.01700
 30
 0
 11
2.88900
 21
35.00000
  0
LINE
  8
Kontur
 62
   7
 39
0.100
  6
CONTINUOUS
 10
2.88900
 20
35.00000
 30
 0
 11
3.06300
 21
34.94100
  0
LINE
  8
Kontur
 62
   7
 39
0.100
  6
CONTINUOUS
 10
3.06300
 20
34.94100
 30
 0
 11
3.11500
 21
34.92500
  0
LINE
  8
Kontur
 62
   7
 39
0.100
  6
CONTINUOUS
 10
3.11500
 20
34.92500
 30
 0
 11
3.16800
 21
34.91000
  0
LINE
  8
Kontur
 62
   7
 39
0.100
  6
CONTINUOUS
 10
3.16800
 20
34.91000
 30
 0
 11
3.22000
 21
34.89800
  0
LINE
  8
Kontur
 62
   7
 39
0.100
  6
CONTINUOUS
 10
3.22000
 20
34.89800
 30
 0
 11
3.40000
 21
34.85800
  0
LINE
  8
Kontur
 62
   7
 39
0.100
  6
CONTINUOUS
 10
3.40000
 20
34.85800
 30
 0
 11
3.45300
 21
34.84700
  0
LINE
  8
Kontur
 62
   7
 39
0.100
  6
CONTINUOUS
 10
3.45300
 20
34.84700
 30
 0
 11
3.50700
 21
34.83800
  0
LINE
  8
Kontur
 62
   7
 39
0.100
  6
CONTINUOUS
 10
3.50700
 20
34.83800
 30
 0
 11
3.56200
 21
34.83100
  0
LINE
  8
Kontur
 62
   7
 39
0.100
  6
CONTINUOUS
 10
3.56200
 20
34.83100
 30
 0
 11
3.74500
 21
34.81100
  0
LINE
  8
Kontur
 62
   7
 39
0.100
  6
CONTINUOUS
 10
3.74500
 20
34.81100
 30
 0
 11
3.80000
 21
34.80600
  0
LINE
  8
Kontur
 62
   7
 39
0.100
  6
CONTINUOUS
 10
3.80000
 20
34.80600
 30
 0
 11
3.85400
 21
34.80300
  0
LINE
  8
Kontur
 62
   7
 39
0.100
  6
CONTINUOUS
 10
3.85400
 20
34.80300
 30
 0
 11
3.90800
 21
34.80200
  0
LINE
  8
Kontur
 62
   7
 39
0.100
  6
CONTINUOUS
 10
3.90800
 20
34.80200
 30
 0
 11
4.09200
 21
34.80200
  0
LINE
  8
Kontur
 62
   7
 39
0.100
  6
CONTINUOUS
 10
4.09200
 20
34.80200
 30
 0
 11
4.14700
 21
34.80300
  0
CIRCLE
  8
Kontur
 62
   7
 39
0.100
  6
CONTINUOUS
 10
4.00000
 20
38.00000
 30
 0
 40
1.70000
  0
LINE
  8
Kontur
 62
   7
 39
0.100
  6
CONTINUOUS
 10
4.14700
 20
34.80300
 30
 0
 11
4.20100
 21
34.80600
  0
LINE
  8
Kontur
 62
   7
 39
0.100
  6
CONTINUOUS
 10
4.20100
 20
34.80600
 30
 0
 11
4.25500
 21
34.81100
  0
LINE
  8
Kontur
 62
   7
 39
0.100
  6
CONTINUOUS
 10
4.25500
 20
34.81100
 30
 0
 11
4.43800
 21
34.83100
  0
LINE
  8
Kontur
 62
   7
 39
0.100
  6
CONTINUOUS
 10
4.43800
 20
34.83100
 30
 0
 11
4.49200
 21
34.83800
  0
LINE
  8
Kontur
 62
   7
 39
0.100
  6
CONTINUOUS
 10
4.49200
 20
34.83800
 30
 0
 11
4.54600
 21
34.84700
  0
LINE
  8
Kontur
 62
   7
 39
0.100
  6
CONTINUOUS
 10
4.54600
 20
34.84700
 30
 0
 11
4.60000
 21
34.85800
  0
LINE
  8
Kontur
 62
   7
 39
0.100
  6
CONTINUOUS
 10
4.60000
 20
34.85800
 30
 0
 11
4.78000
 21
34.89800
  0
LINE
  8
Kontur
 62
   7
 39
0.100
  6
CONTINUOUS
 10
4.78000
 20
34.89800
 30
 0
 11
4.83400
 21
34.91100
  0
LINE
  8
Kontur
 62
   7
 39
0.100
  6
CONTINUOUS
 10
4.83400
 20
34.91100
 30
 0
 11
4.88600
 21
34.92500
  0
LINE
  8
Kontur
 62
   7
 39
0.100
  6
CONTINUOUS
 10
4.88600
 20
34.92500
 30
 0
 11
4.93700
 21
34.94100
  0
LINE
  8
Kontur
 62
   7
 39
0.100
  6
CONTINUOUS
 10
4.93700
 20
34.94100
 30
 0
 11
5.11100
 21
35.00000
  0
LINE
  8
Kontur
 62
   7
 39
0.100
  6
CONTINUOUS
 10
5.11100
 20
35.00000
 30
 0
 11
5.16200
 21
35.01900
  0
LINE
  8
Kontur
 62
   7
 39
0.100
  6
CONTINUOUS
 10
5.16200
 20
35.01900
 30
 0
 11
5.21300
 21
35.03900
  0
LINE
  8
Kontur
 62
   7
 39
0.100
  6
CONTINUOUS
 10
5.21300
 20
35.03900
 30
 0
 11
5.25700
 21
35.05900
  0
LINE
  8
Kontur
 62
   7
 39
0.100
  6
CONTINUOUS
 10
5.25700
 20
35.05900
 30
 0
 11
5.42400
 21
35.13600
  0
LINE
  8
Kontur
 62
   7
 39
0.100
  6
CONTINUOUS
 10
5.42400
 20
35.13600
 30
 0
 11
5.47300
 21
35.16000
  0
LINE
  8
Kontur
 62
   7
 39
0.100
  6
CONTINUOUS
 10
5.47300
 20
35.16000
 30
 0
 11
5.52200
 21
35.18500
  0
LINE
  8
Kontur
 62
   7
 39
0.100
  6
CONTINUOUS
 10
5.52200
 20
35.18500
 30
 0
 11
5.56900
 21
35.21200
  0
LINE
  8
Kontur
 62
   7
 39
0.100
  6
CONTINUOUS
 10
5.56900
 20
35.21200
 30
 0
 11
5.72700
 21
35.30700
  0
LINE
  8
Kontur
 62
   7
 39
0.100
  6
CONTINUOUS
 10
5.72700
 20
35.30700
 30
 0
 11
5.81900
 21
35.36700
  0
LINE
  8
Kontur
 62
   7
 39
0.100
  6
CONTINUOUS
 10
5.81900
 20
35.36700
 30
 0
 11
5.85800
 21
35.39600
  0
LINE
  8
Kontur
 62
   7
 39
0.100
  6
CONTINUOUS
 10
5.85800
 20
35.39600
 30
 0
 11
6.00500
 21
35.50700
  0
LINE
  8
Kontur
 62
   7
 39
0.100
  6
CONTINUOUS
 10
6.00500
 20
35.50700
 30
 0
 11
6.04800
 21
35.54100
  0
LINE
  8
Kontur
 62
   7
 39
0.100
  6
CONTINUOUS
 10
6.04800
 20
35.54100
 30
 0
 11
6.09000
 21
35.57600
  0
LINE
  8
Kontur
 62
   7
 39
0.100
  6
CONTINUOUS
 10
6.09000
 20
35.57600
 30
 0
 11
6.13700
 21
35.61900
  0
LINE
  8
Kontur
 62
   7
 39
0.100
  6
CONTINUOUS
 10
6.13700
 20
35.61900
 30
 0
 11
6.27000
 21
35.74600
  0
LINE
  8
Kontur
 62
   7
 39
0.100
  6
CONTINUOUS
 10
6.27000
 20
35.74600
 30
 0
 11
6.30900
 21
35.78500
  0
LINE
  8
Kontur
 62
   7
 39
0.100
  6
CONTINUOUS
 10
6.30900
 20
35.78500
 30
 0
 11
6.34600
 21
35.82500
  0
LINE
  8
Kontur
 62
   7
 39
0.100
  6
CONTINUOUS
 10
6.34600
 20
35.82500
 30
 0
 11
6.37700
 21
35.86000
  0
LINE
  8
Kontur
 62
   7
 39
0.100
  6
CONTINUOUS
 10
6.37700
 20
35.86000
 30
 0
 11
6.49600
 21
36.00000
  0
LINE
  8
Kontur
 62
   7
 39
0.100
  6
CONTINUOUS
 10
6.49600
 20
36.00000
 30
 0
 11
6.53100
 21
36.04200
  0
LINE
  8
Kontur
 62
   7
 39
0.100
  6
CONTINUOUS
 10
6.53100
 20
36.04200
 30
 0
 11
6.56400
 21
36.08600
  0
LINE
  8
Kontur
 62
   7
 39
0.100
  6
CONTINUOUS
 10
6.56400
 20
36.08600
 30
 0
 11
6.59400
 21
36.12800
  0
LINE
  8
Kontur
 62
   7
 39
0.100
  6
CONTINUOUS
 10
6.59400
 20
36.12800
 30
 0
 11
6.69800
 21
36.28100
  0
LINE
  8
Kontur
 62
   7
 39
0.100
  6
CONTINUOUS
 10
6.69800
 20
36.28100
 30
 0
 11
6.72700
 21
36.32700
  0
LINE
  8
Kontur
 62
   7
 39
0.100
  6
CONTINUOUS
 10
6.72700
 20
36.32700
 30
 0
 11
6.75600
 21
36.37400
  0
LINE
  8
Kontur
 62
   7
 39
0.100
  6
CONTINUOUS
 10
6.75600
 20
36.37400
 30
 0
 11
6.78200
 21
36.42100
  0
LINE
  8
Kontur
 62
   7
 39
0.100
  6
CONTINUOUS
 10
6.78200
 20
36.42100
 30
 0
 11
6.86800
 21
36.58300
  0
LINE
  8
Kontur
 62
   7
 39
0.100
  6
CONTINUOUS
 10
6.86800
 20
36.58300
 30
 0
 11
6.89300
 21
36.63200
  0
LINE
  8
Kontur
 62
   7
 39
0.100
  6
CONTINUOUS
 10
6.89300
 20
36.63200
 30
 0
 11
6.91600
 21
36.68100
  0
LINE
  8
Kontur
 62
   7
 39
0.100
  6
CONTINUOUS
 10
6.91600
 20
36.68100
 30
 0
 11
6.93700
 21
36.73200
  0
LINE
  8
Kontur
 62
   7
 39
0.100
  6
CONTINUOUS
 10
6.93700
 20
36.73200
 30
 0
 11
7.00500
 21
36.90300
  0
LINE
  8
Kontur
 62
   7
 39
0.100
  6
CONTINUOUS
 10
7.00500
 20
36.90300
 30
 0
 11
7.02400
 21
36.95400
  0
LINE
  8
Kontur
 62
   7
 39
0.100
  6
CONTINUOUS
 10
7.02400
 20
36.95400
 30
 0
 11
7.04200
 21
37.00600
  0
LINE
  8
Kontur
 62
   7
 39
0.100
  6
CONTINUOUS
 10
7.04200
 20
37.00600
 30
 0
 11
7.05700
 21
37.05900
  0
LINE
  8
Kontur
 62
   7
 39
0.100
  6
CONTINUOUS
 10
7.05700
 20
37.05900
 30
 0
 11
7.10600
 21
37.23700
  0
LINE
  8
Kontur
 62
   7
 39
0.100
  6
CONTINUOUS
 10
7.10600
 20
37.23700
 30
 0
 11
7.12000
 21
37.29000
  0
LINE
  8
Kontur
 62
   7
 39
0.100
  6
CONTINUOUS
 10
7.12000
 20
37.29000
 30
 0
 11
7.13100
 21
37.34300
  0
LINE
  8
Kontur
 62
   7
 39
0.100
  6
CONTINUOUS
 10
7.13100
 20
37.34300
 30
 0
 11
7.14000
 21
37.39000
  0
LINE
  8
Kontur
 62
   7
 39
0.100
  6
CONTINUOUS
 10
7.14000
 20
37.39000
 30
 0
 11
7.17000
 21
37.57100
  0
LINE
  8
Kontur
 62
   7
 39
0.100
  6
CONTINUOUS
 10
7.17000
 20
37.57100
 30
 0
 11
7.17800
 21
37.62500
  0
LINE
  8
Kontur
 62
   7
 39
0.100
  6
CONTINUOUS
 10
7.17800
 20
37.62500
 30
 0
 11
7.18400
 21
37.67900
  0
LINE
  8
Kontur
 62
   7
 39
0.100
  6
CONTINUOUS
 10
7.18400
 20
37.67900
 30
 0
 11
7.18800
 21
37.73500
  0
LINE
  8
Kontur
 62
   7
 39
0.100
  6
CONTINUOUS
 10
7.18800
 20
37.73500
 30
 0
 11
7.19800
 21
37.91900
  0
LINE
  8
Kontur
 62
   7
 39
0.100
  6
CONTINUOUS
 10
7.19800
 20
37.91900
 30
 0
 11
7.20000
 21
37.97300
  0
LINE
  8
Kontur
 62
   7
 39
0.100
  6
CONTINUOUS
 10
7.20000
 20
37.97300
 30
 0
 11
7.20000
 21
38.02800
  0
LINE
  8
Kontur
 62
   7
 39
0.100
  6
CONTINUOUS
 10
7.20000
 20
38.02800
 30
 0
 11
7.19800
 21
38.08100
  0
LINE
  8
Kontur
 62
   7
 39
0.100
  6
CONTINUOUS
 10
7.19800
 20
38.08100
 30
 0
 11
7.18800
 21
38.26500
  0
LINE
  8
Kontur
 62
   7
 39
0.100
  6
CONTINUOUS
 10
7.18800
 20
38.26500
 30
 0
 11
7.18400
 21
38.32000
  0
LINE
  8
Kontur
 62
   7
 39
0.100
  6
CONTINUOUS
 10
7.18400
 20
38.32000
 30
 0
 11
7.17800
 21
38.37400
  0
LINE
  8
Kontur
 62
   7
 39
0.100
  6
CONTINUOUS
 10
7.17800
 20
38.37400
 30
 0
 11
7.17000
 21
38.42900
  0
LINE
  8
Kontur
 62
   7
 39
0.100
  6
CONTINUOUS
 10
7.17000
 20
38.42900
 30
 0
 11
7.14000
 21
38.61000
  0
LINE
  8
Kontur
 62
   7
 39
0.100
  6
CONTINUOUS
 10
7.14000
 20
38.61000
 30
 0
 11
7.13000
 21
38.66400
  0
LINE
  8
Kontur
 62
   7
 39
0.100
  6
CONTINUOUS
 10
7.13000
 20
38.66400
 30
 0
 11
7.11800
 21
38.71800
  0
LINE
  8
Kontur
 62
   7
 39
0.100
  6
CONTINUOUS
 10
7.11800
 20
38.71800
 30
 0
 11
7.10600
 21
38.76300
  0
LINE
  8
Kontur
 62
   7
 39
0.100
  6
CONTINUOUS
 10
7.10600
 20
38.76300
 30
 0
 11
7.05700
 21
38.94100
  0
LINE
  8
Kontur
 62
   7
 39
0.100
  6
CONTINUOUS
 10
7.05700
 20
38.94100
 30
 0
 11
7.04200
 21
38.99400
  0
LINE
  8
Kontur
 62
   7
 39
0.100
  6
CONTINUOUS
 10
7.04200
 20
38.99400
 30
 0
 11
7.02400
 21
39.04600
  0
LINE
  8
Kontur
 62
   7
 39
0.100
  6
CONTINUOUS
 10
7.02400
 20
39.04600
 30
 0
 11
7.00500
 21
39.09700
  0
LINE
  8
Kontur
 62
   7
 39
0.100
  6
CONTINUOUS
 10
7.00500
 20
39.09700
 30
 0
 11
6.93700
 21
39.26800
  0
LINE
  8
Kontur
 62
   7
 39
0.100
  6
CONTINUOUS
 10
6.93700
 20
39.26800
 30
 0
 11
6.91600
 21
39.31900
  0
LINE
  8
Kontur
 62
   7
 39
0.100
  6
CONTINUOUS
 10
6.91600
 20
39.31900
 30
 0
 11
6.89300
 21
39.36800
  0
LINE
  8
Kontur
 62
   7
 39
0.100
  6
CONTINUOUS
 10
6.89300
 20
39.36800
 30
 0
 11
6.86800
 21
39.41700
  0
LINE
  8
Kontur
 62
   7
 39
0.100
  6
CONTINUOUS
 10
6.86800
 20
39.41700
 30
 0
 11
6.78200
 21
39.57900
  0
LINE
  8
Kontur
 62
   7
 39
0.100
  6
CONTINUOUS
 10
6.78200
 20
39.57900
 30
 0
 11
6.75500
 21
39.62700
  0
LINE
  8
Kontur
 62
   7
 39
0.100
  6
CONTINUOUS
 10
6.75500
 20
39.62700
 30
 0
 11
6.72700
 21
39.67400
  0
LINE
  8
Kontur
 62
   7
 39
0.100
  6
CONTINUOUS
 10
6.72700
 20
39.67400
 30
 0
 11
6.69800
 21
39.71900
  0
LINE
  8
Kontur
 62
   7
 39
0.100
  6
CONTINUOUS
 10
6.69800
 20
39.71900
 30
 0
 11
6.59400
 21
39.87200
  0
LINE
  8
Kontur
 62
   7
 39
0.100
  6
CONTINUOUS
 10
6.59400
 20
39.87200
 30
 0
 11
6.56200
 21
39.91700
  0
LINE
  8
Kontur
 62
   7
 39
0.100
  6
CONTINUOUS
 10
6.56200
 20
39.91700
 30
 0
 11
6.52900
 21
39.96100
  0
LINE
  8
Kontur
 62
   7
 39
0.100
  6
CONTINUOUS
 10
6.52900
 20
39.96100
 30
 0
 11
6.49600
 21
40.00000
  0
LINE
  8
Kontur
 62
   7
 39
0.100
  6
CONTINUOUS
 10
6.49600
 20
40.00000
 30
 0
 11
6.37700
 21
40.14000
  0
LINE
  8
Kontur
 62
   7
 39
0.100
  6
CONTINUOUS
 10
6.37700
 20
40.14000
 30
 0
 11
6.34100
 21
40.18200
  0
LINE
  8
Kontur
 62
   7
 39
0.100
  6
CONTINUOUS
 10
6.34100
 20
40.18200
 30
 0
 11
6.30300
 21
40.22100
  0
LINE
  8
Kontur
 62
   7
 39
0.100
  6
CONTINUOUS
 10
6.30300
 20
40.22100
 30
 0
 11
6.27000
 21
40.25400
  0
LINE
  8
Kontur
 62
   7
 39
0.100
  6
CONTINUOUS
 10
6.27000
 20
40.25400
 30
 0
 11
6.13700
 21
40.38100
  0
LINE
  8
Kontur
 62
   7
 39
0.100
  6
CONTINUOUS
 10
6.13700
 20
40.38100
 30
 0
 11
6.09700
 21
40.41800
  0
LINE
  8
Kontur
 62
   7
 39
0.100
  6
CONTINUOUS
 10
6.09700
 20
40.41800
 30
 0
 11
6.05500
 21
40.45400
  0
LINE
  8
Kontur
 62
   7
 39
0.100
  6
CONTINUOUS
 10
6.05500
 20
40.45400
 30
 0
 11
6.00500
 21
40.49300
  0
LINE
  8
Kontur
 62
   7
 39
0.100
  6
CONTINUOUS
 10
6.00500
 20
40.49300
 30
 0
 11
5.85800
 21
40.60400
  0
LINE
  8
Kontur
 62
   7
 39
0.100
  6
CONTINUOUS
 10
5.85800
 20
40.60400
 30
 0
 11
5.81400
 21
40.63600
  0
LINE
  8
Kontur
 62
   7
 39
0.100
  6
CONTINUOUS
 10
5.81400
 20
40.63600
 30
 0
 11
5.76800
 21
40.66700
  0
LINE
  8
Kontur
 62
   7
 39
0.100
  6
CONTINUOUS
 10
5.76800
 20
40.66700
 30
 0
 11
5.72700
 21
40.69300
  0
LINE
  8
Kontur
 62
   7
 39
0.100
  6
CONTINUOUS
 10
5.72700
 20
40.69300
 30
 0
 11
5.56900
 21
40.78800
  0
LINE
  8
Kontur
 62
   7
 39
0.100
  6
CONTINUOUS
 10
5.56900
 20
40.78800
 30
 0
 11
5.52100
 21
40.81500
  0
LINE
  8
Kontur
 62
   7
 39
0.100
  6
CONTINUOUS
 10
5.52100
 20
40.81500
 30
 0
 11
5.47300
 21
40.84000
  0
LINE
  8
Kontur
 62
   7
 39
0.100
  6
CONTINUOUS
 10
5.47300
 20
40.84000
 30
 0
 11
5.42400
 21
40.86400
  0
LINE
  8
Kontur
 62
   7
 39
0.100
  6
CONTINUOUS
 10
5.42400
 20
40.86400
 30
 0
 11
5.25700
 21
40.94100
  0
LINE
  8
Kontur
 62
   7
 39
0.100
  6
CONTINUOUS
 10
5.25700
 20
40.94100
 30
 0
 11
5.20700
 21
40.96300
  0
LINE
  8
Kontur
 62
   7
 39
0.100
  6
CONTINUOUS
 10
5.20700
 20
40.96300
 30
 0
 11
5.15600
 21
40.98300
  0
LINE
  8
Kontur
 62
   7
 39
0.100
  6
CONTINUOUS
 10
5.15600
 20
40.98300
 30
 0
 11
5.11100
 21
41.00000
  0
LINE
  8
Kontur
 62
   7
 39
0.100
  6
CONTINUOUS
 10
5.11100
 20
41.00000
 30
 0
 11
4.93700
 21
41.05900
  0
LINE
  8
Kontur
 62
   7
 39
0.100
  6
CONTINUOUS
 10
4.93700
 20
41.05900
 30
 0
 11
4.88500
 21
41.07500
  0
LINE
  8
Kontur
 62
   7
 39
0.100
  6
CONTINUOUS
 10
4.88500
 20
41.07500
 30
 0
 11
4.83200
 21
41.09000
  0
LINE
  8
Kontur
 62
   7
 39
0.100
  6
CONTINUOUS
 10
4.83200
 20
41.09000
 30
 0
 11
4.78000
 21
41.10200
  0
LINE
  8
Kontur
 62
   7
 39
0.100
  6
CONTINUOUS
 10
4.78000
 20
41.10200
 30
 0
 11
4.60000
 21
41.14200
  0
LINE
  8
Kontur
 62
   7
 39
0.100
  6
CONTINUOUS
 10
4.60000
 20
41.14200
 30
 0
 11
4.54700
 21
41.15300
  0
LINE
  8
Kontur
 62
   7
 39
0.100
  6
CONTINUOUS
 10
4.54700
 20
41.15300
 30
 0
 11
4.49300
 21
41.16200
  0
LINE
  8
Kontur
 62
   7
 39
0.100
  6
CONTINUOUS
 10
4.49300
 20
41.16200
 30
 0
 11
4.43800
 21
41.16900
  0
LINE
  8
Kontur
 62
   7
 39
0.100
  6
CONTINUOUS
 10
4.43800
 20
41.16900
 30
 0
 11
4.25500
 21
41.18900
  0
LINE
  8
Kontur
 62
   7
 39
0.100
  6
CONTINUOUS
 10
4.25500
 20
41.18900
 30
 0
 11
4.20000
 21
41.19400
  0
LINE
  8
Kontur
 62
   7
 39
0.100
  6
CONTINUOUS
 10
4.20000
 20
41.19400
 30
 0
 11
4.14600
 21
41.19700
  0
LINE
  8
Kontur
 62
   7
 39
0.100
  6
CONTINUOUS
 10
4.14600
 20
41.19700
 30
 0
 11
4.09200
 21
41.19800
  0
LINE
  8
Kontur
 62
   7
 39
0.100
  6
CONTINUOUS
 10
4.09200
 20
41.19800
 30
 0
 11
3.90800
 21
41.19800
  0
LINE
  8
Kontur
 62
   7
 39
0.100
  6
CONTINUOUS
 10
3.90800
 20
41.19800
 30
 0
 11
3.85300
 21
41.19700
  0
LINE
  8
Kontur
 62
   7
 39
0.100
  6
CONTINUOUS
 10
3.85300
 20
41.19700
 30
 0
 11
3.79900
 21
41.19400
  0
LINE
  8
Kontur
 62
   7
 39
0.100
  6
CONTINUOUS
 10
3.79900
 20
41.19400
 30
 0
 11
3.74500
 21
41.18900
  0
LINE
  8
Kontur
 62
   7
 39
0.100
  6
CONTINUOUS
 10
3.74500
 20
41.18900
 30
 0
 11
3.56200
 21
41.16900
  0
LINE
  8
Kontur
 62
   7
 39
0.100
  6
CONTINUOUS
 10
3.56200
 20
41.16900
 30
 0
 11
3.50800
 21
41.16200
  0
LINE
  8
Kontur
 62
   7
 39
0.100
  6
CONTINUOUS
 10
3.50800
 20
41.16200
 30
 0
 11
3.45400
 21
41.15300
  0
LINE
  8
Kontur
 62
   7
 39
0.100
  6
CONTINUOUS
 10
3.45400
 20
41.15300
 30
 0
 11
3.40000
 21
41.14200
  0
LINE
  8
Kontur
 62
   7
 39
0.100
  6
CONTINUOUS
 10
3.40000
 20
41.14200
 30
 0
 11
3.22000
 21
41.10200
  0
LINE
  8
Kontur
 62
   7
 39
0.100
  6
CONTINUOUS
 10
3.22000
 20
41.10200
 30
 0
 11
3.16600
 21
41.08900
  0
LINE
  8
Kontur
 62
   7
 39
0.100
  6
CONTINUOUS
 10
3.16600
 20
41.08900
 30
 0
 11
3.11400
 21
41.07500
  0
LINE
  8
Kontur
 62
   7
 39
0.100
  6
CONTINUOUS
 10
3.11400
 20
41.07500
 30
 0
 11
3.06300
 21
41.05900
  0
LINE
  8
Kontur
 62
   7
 39
0.100
  6
CONTINUOUS
 10
3.06300
 20
41.05900
 30
 0
 11
2.88900
 21
41.00000
  0
LINE
  8
Kontur
 62
   7
 39
0.100
  6
CONTINUOUS
 10
2.88900
 20
41.00000
 30
 0
 11
2.83800
 21
40.98100
  0
LINE
  8
Kontur
 62
   7
 39
0.100
  6
CONTINUOUS
 10
2.83800
 20
40.98100
 30
 0
 11
2.78700
 21
40.96100
  0
LINE
  8
Kontur
 62
   7
 39
0.100
  6
CONTINUOUS
 10
2.78700
 20
40.96100
 30
 0
 11
2.74300
 21
40.94100
  0
LINE
  8
Kontur
 62
   7
 39
0.100
  6
CONTINUOUS
 10
2.74300
 20
40.94100
 30
 0
 11
2.57600
 21
40.86400
  0
LINE
  8
Kontur
 62
   7
 39
0.100
  6
CONTINUOUS
 10
2.57600
 20
40.86400
 30
 0
 11
2.52700
 21
40.84000
  0
LINE
  8
Kontur
 62
   7
 39
0.100
  6
CONTINUOUS
 10
2.52700
 20
40.84000
 30
 0
 11
2.47800
 21
40.81500
  0
LINE
  8
Kontur
 62
   7
 39
0.100
  6
CONTINUOUS
 10
2.47800
 20
40.81500
 30
 0
 11
2.43100
 21
40.78800
  0
LINE
  8
Kontur
 62
   7
 39
0.100
  6
CONTINUOUS
 10
2.43100
 20
40.78800
 30
 0
 11
2.27300
 21
40.69300
  0
LINE
  8
Kontur
 62
   7
 39
0.100
  6
CONTINUOUS
 10
2.27300
 20
40.69300
 30
 0
 11
2.18100
 21
40.63300
  0
LINE
  8
Kontur
 62
   7
 39
0.100
  6
CONTINUOUS
 10
2.18100
 20
40.63300
 30
 0
 11
2.14200
 21
40.60400
  0
LINE
  8
Kontur
 62
   7
 39
0.100
  6
CONTINUOUS
 10
2.14200
 20
40.60400
 30
 0
 11
1.99500
 21
40.49300
  0
LINE
  8
Kontur
 62
   7
 39
0.100
  6
CONTINUOUS
 10
1.99500
 20
40.49300
 30
 0
 11
1.95200
 21
40.45900
  0
LINE
  8
Kontur
 62
   7
 39
0.100
  6
CONTINUOUS
 10
1.95200
 20
40.45900
 30
 0
 11
1.91000
 21
40.42400
  0
LINE
  8
Kontur
 62
   7
 39
0.100
  6
CONTINUOUS
 10
1.91000
 20
40.42400
 30
 0
 11
1.86300
 21
40.38100
  0
LINE
  8
Kontur
 62
   7
 39
0.100
  6
CONTINUOUS
 10
1.86300
 20
40.38100
 30
 0
 11
1.73000
 21
40.25400
  0
LINE
  8
Kontur
 62
   7
 39
0.100
  6
CONTINUOUS
 10
1.73000
 20
40.25400
 30
 0
 11
1.69100
 21
40.21500
  0
LINE
  8
Kontur
 62
   7
 39
0.100
  6
CONTINUOUS
 10
1.69100
 20
40.21500
 30
 0
 11
1.65400
 21
40.17500
  0
LINE
  8
Kontur
 62
   7
 39
0.100
  6
CONTINUOUS
 10
1.65400
 20
40.17500
 30
 0
 11
1.62300
 21
40.14000
  0
LINE
  8
Kontur
 62
   7
 39
0.100
  6
CONTINUOUS
 10
1.62300
 20
40.14000
 30
 0
 11
1.50400
 21
40.00000
  0
LINE
  8
Kontur
 62
   7
 39
0.100
  6
CONTINUOUS
 10
1.50400
 20
40.00000
 30
 0
 11
1.46900
 21
39.95800
  0
LINE
  8
Kontur
 62
   7
 39
0.100
  6
CONTINUOUS
 10
1.46900
 20
39.95800
 30
 0
 11
1.43600
 21
39.91400
  0
LINE
  8
Kontur
 62
   7
 39
0.100
  6
CONTINUOUS
 10
1.43600
 20
39.91400
 30
 0
 11
1.40600
 21
39.87200
  0
LINE
  8
Kontur
 62
   7
 39
0.100
  6
CONTINUOUS
 10
1.40600
 20
39.87200
 30
 0
 11
1.30200
 21
39.71900
  0
LINE
  8
Kontur
 62
   7
 39
0.100
  6
CONTINUOUS
 10
1.30200
 20
39.71900
 30
 0
 11
1.27300
 21
39.67300
  0
LINE
  8
Kontur
 62
   7
 39
0.100
  6
CONTINUOUS
 10
1.27300
 20
39.67300
 30
 0
 11
1.24400
 21
39.62600
  0
LINE
  8
Kontur
 62
   7
 39
0.100
  6
CONTINUOUS
 10
1.24400
 20
39.62600
 30
 0
 11
1.21800
 21
39.57900
  0
LINE
  8
Kontur
 62
   7
 39
0.100
  6
CONTINUOUS
 10
1.21800
 20
39.57900
 30
 0
 11
1.13200
 21
39.41700
  0
LINE
  8
Kontur
 62
   7
 39
0.100
  6
CONTINUOUS
 10
1.13200
 20
39.41700
 30
 0
 11
1.10700
 21
39.36800
  0
LINE
  8
Kontur
 62
   7
 39
0.100
  6
CONTINUOUS
 10
1.10700
 20
39.36800
 30
 0
 11
1.08400
 21
39.31900
  0
LINE
  8
Kontur
 62
   7
 39
0.100
  6
CONTINUOUS
 10
1.08400
 20
39.31900
 30
 0
 11
1.06300
 21
39.26800
  0
LINE
  8
Kontur
 62
   7
 39
0.100
  6
CONTINUOUS
 10
1.06300
 20
39.26800
 30
 0
 11
0.99500
 21
39.09700
  0
LINE
  8
Kontur
 62
   7
 39
0.100
  6
CONTINUOUS
 10
0.99500
 20
39.09700
 30
 0
 11
0.97600
 21
39.04600
  0
LINE
  8
Kontur
 62
   7
 39
0.100
  6
CONTINUOUS
 10
0.97600
 20
39.04600
 30
 0
 11
0.95800
 21
38.99400
  0
LINE
  8
Kontur
 62
   7
 39
0.100
  6
CONTINUOUS
 10
0.95800
 20
38.99400
 30
 0
 11
0.94300
 21
38.94100
  0
LINE
  8
Kontur
 62
   7
 39
0.100
  6
CONTINUOUS
 10
0.94300
 20
38.94100
 30
 0
 11
0.89400
 21
38.76300
  0
LINE
  8
Kontur
 62
   7
 39
0.100
  6
CONTINUOUS
 10
0.89400
 20
38.76300
 30
 0
 11
0.88000
 21
38.71000
  0
LINE
  8
Kontur
 62
   7
 39
0.100
  6
CONTINUOUS
 10
0.88000
 20
38.71000
 30
 0
 11
0.86900
 21
38.65700
  0
LINE
  8
Kontur
 62
   7
 39
0.100
  6
CONTINUOUS
 10
0.86900
 20
38.65700
 30
 0
 11
0.86000
 21
38.61000
  0
LINE
  8
Kontur
 62
   7
 39
0.100
  6
CONTINUOUS
 10
0.86000
 20
38.61000
 30
 0
 11
0.83000
 21
38.42900
  0
LINE
  8
Kontur
 62
   7
 39
0.100
  6
CONTINUOUS
 10
0.83000
 20
38.42900
 30
 0
 11
0.82200
 21
38.37500
  0
LINE
  8
Kontur
 62
   7
 39
0.100
  6
CONTINUOUS
 10
0.82200
 20
38.37500
 30
 0
 11
0.81600
 21
38.32100
  0
LINE
  8
Kontur
 62
   7
 39
0.100
  6
CONTINUOUS
 10
0.81600
 20
38.32100
 30
 0
 11
0.81200
 21
38.26500
  0
LINE
  8
Kontur
 62
   7
 39
0.100
  6
CONTINUOUS
 10
0.81200
 20
38.26500
 30
 0
 11
0.80200
 21
38.08100
  0
LINE
  8
Kontur
 62
   7
 39
0.100
  6
CONTINUOUS
 10
0.80200
 20
38.08100
 30
 0
 11
0.80000
 21
38.02700
  0
LINE
  8
Kontur
 62
   7
 39
0.100
  6
CONTINUOUS
 10
0.80000
 20
38.02700
 30
 0
 11
0.80000
 21
37.97200
  0
LINE
  8
Kontur
 62
   7
 39
0.100
  6
CONTINUOUS
 10
0.80000
 20
37.97200
 30
 0
 11
0.80200
 21
37.91900
  0
LINE
  8
Kontur
 62
   7
 39
0.100
  6
CONTINUOUS
 10
0.80200
 20
37.91900
 30
 0
 11
0.81200
 21
37.73500
  0
LINE
  8
Kontur
 62
   7
 39
0.100
  6
CONTINUOUS
 10
0.81200
 20
37.73500
 30
 0
 11
0.81600
 21
37.68000
  0
LINE
  8
Kontur
 62
   7
 39
0.100
  6
CONTINUOUS
 10
0.81600
 20
37.68000
 30
 0
 11
0.82200
 21
37.62600
  0
LINE
  8
Kontur
 62
   7
 39
0.100
  6
CONTINUOUS
 10
0.82200
 20
37.62600
 30
 0
 11
0.83000
 21
37.57100
  0
LINE
  8
Kontur
 62
   7
 39
0.100
  6
CONTINUOUS
 10
0.83000
 20
37.57100
 30
 0
 11
0.86000
 21
37.39000
  0
LINE
  8
Kontur
 62
   7
 39
0.100
  6
CONTINUOUS
 10
0.86000
 20
37.39000
 30
 0
 11
0.87000
 21
37.33600
  0
LINE
  8
Kontur
 62
   7
 39
0.100
  6
CONTINUOUS
 10
0.87000
 20
37.33600
 30
 0
 11
0.88200
 21
37.28200
  0
LINE
  8
Kontur
 62
   7
 39
0.100
  6
CONTINUOUS
 10
0.88200
 20
37.28200
 30
 0
 11
0.89400
 21
37.23700
  0
LINE
  8
Kontur
 62
   7
 39
0.100
  6
CONTINUOUS
 10
0.89400
 20
37.23700
 30
 0
 11
0.94300
 21
37.05900
  0
LINE
  8
Kontur
 62
   7
 39
0.100
  6
CONTINUOUS
 10
0.94300
 20
37.05900
 30
 0
 11
0.95800
 21
37.00600
  0
LINE
  8
Kontur
 62
   7
 39
0.100
  6
CONTINUOUS
 10
0.95800
 20
37.00600
 30
 0
 11
0.97600
 21
36.95400
  0
LINE
  8
Kontur
 62
   7
 39
0.100
  6
CONTINUOUS
 10
0.97600
 20
36.95400
 30
 0
 11
0.99500
 21
36.90300
  0
LINE
  8
Kontur
 62
   7
 39
0.100
  6
CONTINUOUS
 10
0.99500
 20
36.90300
 30
 0
 11
1.06300
 21
36.73200
  0
LINE
  8
Kontur
 62
   7
 39
0.100
  6
CONTINUOUS
 10
1.06300
 20
36.73200
 30
 0
 11
1.08400
 21
36.68100
  0
LINE
  8
Kontur
 62
   7
 39
0.100
  6
CONTINUOUS
 10
1.08400
 20
36.68100
 30
 0
 11
1.10700
 21
36.63200
  0
LINE
  8
Kontur
 62
   7
 39
0.100
  6
CONTINUOUS
 10
1.10700
 20
36.63200
 30
 0
 11
1.13200
 21
36.58300
  0
LINE
  8
Kontur
 62
   7
 39
0.100
  6
CONTINUOUS
 10
1.13200
 20
36.58300
 30
 0
 11
1.21800
 21
36.42100
  0
LINE
  8
Kontur
 62
   7
 39
0.100
  6
CONTINUOUS
 10
1.21800
 20
36.42100
 30
 0
 11
1.24500
 21
36.37300
  0
LINE
  8
Kontur
 62
   7
 39
0.100
  6
CONTINUOUS
 10
1.24500
 20
36.37300
 30
 0
 11
1.27300
 21
36.32600
  0
LINE
  8
Kontur
 62
   7
 39
0.100
  6
CONTINUOUS
 10
1.27300
 20
36.32600
 30
 0
 11
1.30200
 21
36.28100
  0
LINE
  8
Kontur
 62
   7
 39
0.100
  6
CONTINUOUS
 10
1.30200
 20
36.28100
 30
 0
 11
1.40600
 21
36.12800
  0
LINE
  8
Kontur
 62
   7
 39
0.100
  6
CONTINUOUS
 10
1.40600
 20
36.12800
 30
 0
 11
1.43800
 21
36.08300
  0
LINE
  8
Kontur
 62
   7
 39
0.100
  6
CONTINUOUS
 10
1.43800
 20
36.08300
 30
 0
 11
1.47100
 21
36.03900
  0
LINE
  8
Kontur
 62
   7
 39
0.100
  6
CONTINUOUS
 10
1.47100
 20
36.03900
 30
 0
 11
1.50400
 21
36.00000
  0
LINE
  8
Kontur
 62
   7
 39
0.100
  6
CONTINUOUS
 10
1.50400
 20
36.00000
 30
 0
 11
1.62300
 21
35.86000
  0
LINE
  8
Kontur
 62
   7
 39
0.100
  6
CONTINUOUS
 10
1.62300
 20
35.86000
 30
 0
 11
1.65900
 21
35.81800
  0
LINE
  8
Kontur
 62
   7
 39
0.100
  6
CONTINUOUS
 10
1.65900
 20
35.81800
 30
 0
 11
1.69700
 21
35.77900
  0
LINE
  8
Kontur
 62
   7
 39
0.100
  6
CONTINUOUS
 10
1.69700
 20
35.77900
 30
 0
 11
1.73000
 21
35.74600
  0
LINE
  8
Kontur
 62
   7
 39
0.100
  6
CONTINUOUS
 10
1.73000
 20
35.74600
 30
 0
 11
1.86300
 21
35.61900
  0
LINE
  8
Kontur
 62
   7
 39
0.100
  6
CONTINUOUS
 10
1.86300
 20
35.61900
 30
 0
 11
1.90300
 21
35.58200
  0
LINE
  8
Kontur
 62
   7
 39
0.100
  6
CONTINUOUS
 10
1.90300
 20
35.58200
 30
 0
 11
1.94500
 21
35.54600
  0
LINE
  8
Kontur
 62
   7
 39
0.100
  6
CONTINUOUS
 10
1.94500
 20
35.54600
 30
 0
 11
1.99500
 21
35.50700
  0
LINE
  8
Kontur
 62
   7
 39
0.100
  6
CONTINUOUS
 10
1.99500
 20
35.50700
 30
 0
 11
2.14200
 21
35.39600
  0
LINE
  8
Kontur
 62
   7
 39
0.100
  6
CONTINUOUS
 10
2.14200
 20
35.39600
 30
 0
 11
2.18600
 21
35.36400
  0
LINE
  8
Kontur
 62
   7
 39
0.100
  6
CONTINUOUS
 10
2.18600
 20
35.36400
 30
 0
 11
2.23200
 21
35.33300
  0
LINE
  8
Kontur
 62
   7
 39
0.100
  6
CONTINUOUS
 10
2.23200
 20
35.33300
 30
 0
 11
2.27300
 21
35.30700
  0
LINE
  8
Kontur
 62
   7
 39
0.100
  6
CONTINUOUS
 10
2.27300
 20
35.30700
 30
 0
 11
2.43100
 21
35.21200
  0
LINE
  8
Kontur
 62
   7
 39
0.100
  6
CONTINUOUS
 10
2.43100
 20
35.21200
 30
 0
 11
2.47900
 21
35.18500
  0
LINE
  8
Kontur
 62
   7
 39
0.100
  6
CONTINUOUS
 10
2.47900
 20
35.18500
 30
 0
 11
2.52700
 21
35.16000
  0
LINE
  8
Kontur
 62
   7
 39
0.100
  6
CONTINUOUS
 10
2.52700
 20
35.16000
 30
 0
 11
2.57600
 21
35.13600
  0
LINE
  8
Kontur
 62
   7
 39
0.100
  6
CONTINUOUS
 10
2.57600
 20
35.13600
 30
 0
 11
2.74300
 21
35.05900
  0
LINE
  8
Kontur
 62
   7
 39
0.100
  6
CONTINUOUS
 10
2.74300
 20
35.05900
 30
 0
 11
2.79300
 21
35.03700
  0
LINE
  8
Kontur
 62
   7
 39
0.100
  6
CONTINUOUS
 10
2.79300
 20
35.03700
 30
 0
 11
2.84400
 21
35.01700
  0
LINE
  8
Kontur
 62
   7
 39
0.100
  6
CONTINUOUS
 10
2.84400
 20
35.01700
 30
 0
 11
2.88900
 21
35.00000
  0
LINE
  8
Kontur
 62
   7
 39
0.100
  6
CONTINUOUS
 10
2.88900
 20
35.00000
 30
 0
 11
3.06300
 21
34.94100
  0
LINE
  8
Kontur
 62
   7
 39
0.100
  6
CONTINUOUS
 10
3.06300
 20
34.94100
 30
 0
 11
3.11500
 21
34.92500
  0
LINE
  8
Kontur
 62
   7
 39
0.100
  6
CONTINUOUS
 10
3.11500
 20
34.92500
 30
 0
 11
3.16800
 21
34.91000
  0
LINE
  8
Kontur
 62
   7
 39
0.100
  6
CONTINUOUS
 10
3.16800
 20
34.91000
 30
 0
 11
3.22000
 21
34.89800
  0
LINE
  8
Kontur
 62
   7
 39
0.100
  6
CONTINUOUS
 10
3.22000
 20
34.89800
 30
 0
 11
3.40000
 21
34.85800
  0
LINE
  8
Kontur
 62
   7
 39
0.100
  6
CONTINUOUS
 10
3.40000
 20
34.85800
 30
 0
 11
3.45300
 21
34.84700
  0
LINE
  8
Kontur
 62
   7
 39
0.100
  6
CONTINUOUS
 10
3.45300
 20
34.84700
 30
 0
 11
3.50700
 21
34.83800
  0
LINE
  8
Kontur
 62
   7
 39
0.100
  6
CONTINUOUS
 10
3.50700
 20
34.83800
 30
 0
 11
3.56200
 21
34.83100
  0
LINE
  8
Kontur
 62
   7
 39
0.100
  6
CONTINUOUS
 10
3.56200
 20
34.83100
 30
 0
 11
3.74500
 21
34.81100
  0
LINE
  8
Kontur
 62
   7
 39
0.100
  6
CONTINUOUS
 10
3.74500
 20
34.81100
 30
 0
 11
3.80000
 21
34.80600
  0
LINE
  8
Kontur
 62
   7
 39
0.100
  6
CONTINUOUS
 10
3.80000
 20
34.80600
 30
 0
 11
3.85400
 21
34.80300
  0
LINE
  8
Kontur
 62
   7
 39
0.100
  6
CONTINUOUS
 10
3.85400
 20
34.80300
 30
 0
 11
3.90800
 21
34.80200
  0
LINE
  8
Kontur
 62
   7
 39
0.100
  6
CONTINUOUS
 10
3.90800
 20
34.80200
 30
 0
 11
4.09200
 21
34.80200
  0
LINE
  8
Kontur
 62
   7
 39
0.100
  6
CONTINUOUS
 10
4.09200
 20
34.80200
 30
 0
 11
4.14700
 21
34.80300
  0
CIRCLE
  8
Kontur
 62
   7
 39
0.100
  6
CONTINUOUS
 10
4.00000
 20
38.00000
 30
 0
 40
1.70000
  0
LINE
  8
Kontur
 62
   7
 39
0.100
  6
CONTINUOUS
 10
160.14700
 20
0.80300
 30
 0
 11
160.20100
 21
0.80600
  0
LINE
  8
Kontur
 62
   7
 39
0.100
  6
CONTINUOUS
 10
160.20100
 20
0.80600
 30
 0
 11
160.25500
 21
0.81100
  0
LINE
  8
Kontur
 62
   7
 39
0.100
  6
CONTINUOUS
 10
160.25500
 20
0.81100
 30
 0
 11
160.43800
 21
0.83100
  0
LINE
  8
Kontur
 62
   7
 39
0.100
  6
CONTINUOUS
 10
160.43800
 20
0.83100
 30
 0
 11
160.49200
 21
0.83800
  0
LINE
  8
Kontur
 62
   7
 39
0.100
  6
CONTINUOUS
 10
160.49200
 20
0.83800
 30
 0
 11
160.54600
 21
0.84700
  0
LINE
  8
Kontur
 62
   7
 39
0.100
  6
CONTINUOUS
 10
160.54600
 20
0.84700
 30
 0
 11
160.60000
 21
0.85800
  0
LINE
  8
Kontur
 62
   7
 39
0.100
  6
CONTINUOUS
 10
160.60000
 20
0.85800
 30
 0
 11
160.78000
 21
0.89800
  0
LINE
  8
Kontur
 62
   7
 39
0.100
  6
CONTINUOUS
 10
160.78000
 20
0.89800
 30
 0
 11
160.83400
 21
0.91100
  0
LINE
  8
Kontur
 62
   7
 39
0.100
  6
CONTINUOUS
 10
160.83400
 20
0.91100
 30
 0
 11
160.88600
 21
0.92500
  0
LINE
  8
Kontur
 62
   7
 39
0.100
  6
CONTINUOUS
 10
160.88600
 20
0.92500
 30
 0
 11
160.93700
 21
0.94100
  0
LINE
  8
Kontur
 62
   7
 39
0.100
  6
CONTINUOUS
 10
160.93700
 20
0.94100
 30
 0
 11
161.11100
 21
1.00000
  0
LINE
  8
Kontur
 62
   7
 39
0.100
  6
CONTINUOUS
 10
161.11100
 20
1.00000
 30
 0
 11
161.16200
 21
1.01900
  0
LINE
  8
Kontur
 62
   7
 39
0.100
  6
CONTINUOUS
 10
161.16200
 20
1.01900
 30
 0
 11
161.21300
 21
1.03900
  0
LINE
  8
Kontur
 62
   7
 39
0.100
  6
CONTINUOUS
 10
161.21300
 20
1.03900
 30
 0
 11
161.25700
 21
1.05900
  0
LINE
  8
Kontur
 62
   7
 39
0.100
  6
CONTINUOUS
 10
161.25700
 20
1.05900
 30
 0
 11
161.42400
 21
1.13600
  0
LINE
  8
Kontur
 62
   7
 39
0.100
  6
CONTINUOUS
 10
161.42400
 20
1.13600
 30
 0
 11
161.47300
 21
1.16000
  0
LINE
  8
Kontur
 62
   7
 39
0.100
  6
CONTINUOUS
 10
161.47300
 20
1.16000
 30
 0
 11
161.52200
 21
1.18500
  0
LINE
  8
Kontur
 62
   7
 39
0.100
  6
CONTINUOUS
 10
161.52200
 20
1.18500
 30
 0
 11
161.56900
 21
1.21200
  0
LINE
  8
Kontur
 62
   7
 39
0.100
  6
CONTINUOUS
 10
161.56900
 20
1.21200
 30
 0
 11
161.72700
 21
1.30700
  0
LINE
  8
Kontur
 62
   7
 39
0.100
  6
CONTINUOUS
 10
161.72700
 20
1.30700
 30
 0
 11
161.81900
 21
1.36700
  0
LINE
  8
Kontur
 62
   7
 39
0.100
  6
CONTINUOUS
 10
161.81900
 20
1.36700
 30
 0
 11
161.85800
 21
1.39600
  0
LINE
  8
Kontur
 62
   7
 39
0.100
  6
CONTINUOUS
 10
161.85800
 20
1.39600
 30
 0
 11
162.00500
 21
1.50700
  0
LINE
  8
Kontur
 62
   7
 39
0.100
  6
CONTINUOUS
 10
162.00500
 20
1.50700
 30
 0
 11
162.04800
 21
1.54100
  0
LINE
  8
Kontur
 62
   7
 39
0.100
  6
CONTINUOUS
 10
162.04800
 20
1.54100
 30
 0
 11
162.09000
 21
1.57600
  0
LINE
  8
Kontur
 62
   7
 39
0.100
  6
CONTINUOUS
 10
162.09000
 20
1.57600
 30
 0
 11
162.13700
 21
1.61900
  0
LINE
  8
Kontur
 62
   7
 39
0.100
  6
CONTINUOUS
 10
162.13700
 20
1.61900
 30
 0
 11
162.27000
 21
1.74600
  0
LINE
  8
Kontur
 62
   7
 39
0.100
  6
CONTINUOUS
 10
162.27000
 20
1.74600
 30
 0
 11
162.30900
 21
1.78500
  0
LINE
  8
Kontur
 62
   7
 39
0.100
  6
CONTINUOUS
 10
162.30900
 20
1.78500
 30
 0
 11
162.34600
 21
1.82500
  0
LINE
  8
Kontur
 62
   7
 39
0.100
  6
CONTINUOUS
 10
162.34600
 20
1.82500
 30
 0
 11
162.37700
 21
1.86000
  0
LINE
  8
Kontur
 62
   7
 39
0.100
  6
CONTINUOUS
 10
162.37700
 20
1.86000
 30
 0
 11
162.49600
 21
2.00000
  0
LINE
  8
Kontur
 62
   7
 39
0.100
  6
CONTINUOUS
 10
162.49600
 20
2.00000
 30
 0
 11
162.53100
 21
2.04200
  0
LINE
  8
Kontur
 62
   7
 39
0.100
  6
CONTINUOUS
 10
162.53100
 20
2.04200
 30
 0
 11
162.56400
 21
2.08600
  0
LINE
  8
Kontur
 62
   7
 39
0.100
  6
CONTINUOUS
 10
162.56400
 20
2.08600
 30
 0
 11
162.59400
 21
2.12800
  0
LINE
  8
Kontur
 62
   7
 39
0.100
  6
CONTINUOUS
 10
162.59400
 20
2.12800
 30
 0
 11
162.69800
 21
2.28100
  0
LINE
  8
Kontur
 62
   7
 39
0.100
  6
CONTINUOUS
 10
162.69800
 20
2.28100
 30
 0
 11
162.72700
 21
2.32700
  0
LINE
  8
Kontur
 62
   7
 39
0.100
  6
CONTINUOUS
 10
162.72700
 20
2.32700
 30
 0
 11
162.75600
 21
2.37400
  0
LINE
  8
Kontur
 62
   7
 39
0.100
  6
CONTINUOUS
 10
162.75600
 20
2.37400
 30
 0
 11
162.78200
 21
2.42100
  0
LINE
  8
Kontur
 62
   7
 39
0.100
  6
CONTINUOUS
 10
162.78200
 20
2.42100
 30
 0
 11
162.86800
 21
2.58300
  0
LINE
  8
Kontur
 62
   7
 39
0.100
  6
CONTINUOUS
 10
162.86800
 20
2.58300
 30
 0
 11
162.89300
 21
2.63200
  0
LINE
  8
Kontur
 62
   7
 39
0.100
  6
CONTINUOUS
 10
162.89300
 20
2.63200
 30
 0
 11
162.91600
 21
2.68100
  0
LINE
  8
Kontur
 62
   7
 39
0.100
  6
CONTINUOUS
 10
162.91600
 20
2.68100
 30
 0
 11
162.93700
 21
2.73200
  0
LINE
  8
Kontur
 62
   7
 39
0.100
  6
CONTINUOUS
 10
162.93700
 20
2.73200
 30
 0
 11
163.00500
 21
2.90300
  0
LINE
  8
Kontur
 62
   7
 39
0.100
  6
CONTINUOUS
 10
163.00500
 20
2.90300
 30
 0
 11
163.02400
 21
2.95400
  0
LINE
  8
Kontur
 62
   7
 39
0.100
  6
CONTINUOUS
 10
163.02400
 20
2.95400
 30
 0
 11
163.04200
 21
3.00600
  0
LINE
  8
Kontur
 62
   7
 39
0.100
  6
CONTINUOUS
 10
163.04200
 20
3.00600
 30
 0
 11
163.05700
 21
3.05900
  0
LINE
  8
Kontur
 62
   7
 39
0.100
  6
CONTINUOUS
 10
163.05700
 20
3.05900
 30
 0
 11
163.10600
 21
3.23700
  0
LINE
  8
Kontur
 62
   7
 39
0.100
  6
CONTINUOUS
 10
163.10600
 20
3.23700
 30
 0
 11
163.12000
 21
3.29000
  0
LINE
  8
Kontur
 62
   7
 39
0.100
  6
CONTINUOUS
 10
163.12000
 20
3.29000
 30
 0
 11
163.13100
 21
3.34300
  0
LINE
  8
Kontur
 62
   7
 39
0.100
  6
CONTINUOUS
 10
163.13100
 20
3.34300
 30
 0
 11
163.14000
 21
3.39000
  0
LINE
  8
Kontur
 62
   7
 39
0.100
  6
CONTINUOUS
 10
163.14000
 20
3.39000
 30
 0
 11
163.17000
 21
3.57100
  0
LINE
  8
Kontur
 62
   7
 39
0.100
  6
CONTINUOUS
 10
163.17000
 20
3.57100
 30
 0
 11
163.17800
 21
3.62500
  0
LINE
  8
Kontur
 62
   7
 39
0.100
  6
CONTINUOUS
 10
163.17800
 20
3.62500
 30
 0
 11
163.18400
 21
3.67900
  0
LINE
  8
Kontur
 62
   7
 39
0.100
  6
CONTINUOUS
 10
163.18400
 20
3.67900
 30
 0
 11
163.18800
 21
3.73500
  0
LINE
  8
Kontur
 62
   7
 39
0.100
  6
CONTINUOUS
 10
163.18800
 20
3.73500
 30
 0
 11
163.19800
 21
3.91900
  0
LINE
  8
Kontur
 62
   7
 39
0.100
  6
CONTINUOUS
 10
163.19800
 20
3.91900
 30
 0
 11
163.20000
 21
3.97300
  0
LINE
  8
Kontur
 62
   7
 39
0.100
  6
CONTINUOUS
 10
163.20000
 20
3.97300
 30
 0
 11
163.20000
 21
4.02800
  0
LINE
  8
Kontur
 62
   7
 39
0.100
  6
CONTINUOUS
 10
163.20000
 20
4.02800
 30
 0
 11
163.19800
 21
4.08100
  0
LINE
  8
Kontur
 62
   7
 39
0.100
  6
CONTINUOUS
 10
163.19800
 20
4.08100
 30
 0
 11
163.18800
 21
4.26500
  0
LINE
  8
Kontur
 62
   7
 39
0.100
  6
CONTINUOUS
 10
163.18800
 20
4.26500
 30
 0
 11
163.18400
 21
4.32000
  0
LINE
  8
Kontur
 62
   7
 39
0.100
  6
CONTINUOUS
 10
163.18400
 20
4.32000
 30
 0
 11
163.17800
 21
4.37400
  0
LINE
  8
Kontur
 62
   7
 39
0.100
  6
CONTINUOUS
 10
163.17800
 20
4.37400
 30
 0
 11
163.17000
 21
4.42900
  0
LINE
  8
Kontur
 62
   7
 39
0.100
  6
CONTINUOUS
 10
163.17000
 20
4.42900
 30
 0
 11
163.14000
 21
4.61000
  0
LINE
  8
Kontur
 62
   7
 39
0.100
  6
CONTINUOUS
 10
163.14000
 20
4.61000
 30
 0
 11
163.13000
 21
4.66400
  0
LINE
  8
Kontur
 62
   7
 39
0.100
  6
CONTINUOUS
 10
163.13000
 20
4.66400
 30
 0
 11
163.11800
 21
4.71800
  0
LINE
  8
Kontur
 62
   7
 39
0.100
  6
CONTINUOUS
 10
163.11800
 20
4.71800
 30
 0
 11
163.10600
 21
4.76300
  0
LINE
  8
Kontur
 62
   7
 39
0.100
  6
CONTINUOUS
 10
163.10600
 20
4.76300
 30
 0
 11
163.05700
 21
4.94100
  0
LINE
  8
Kontur
 62
   7
 39
0.100
  6
CONTINUOUS
 10
163.05700
 20
4.94100
 30
 0
 11
163.04200
 21
4.99400
  0
LINE
  8
Kontur
 62
   7
 39
0.100
  6
CONTINUOUS
 10
163.04200
 20
4.99400
 30
 0
 11
163.02400
 21
5.04600
  0
LINE
  8
Kontur
 62
   7
 39
0.100
  6
CONTINUOUS
 10
163.02400
 20
5.04600
 30
 0
 11
163.00500
 21
5.09700
  0
LINE
  8
Kontur
 62
   7
 39
0.100
  6
CONTINUOUS
 10
163.00500
 20
5.09700
 30
 0
 11
162.93700
 21
5.26800
  0
LINE
  8
Kontur
 62
   7
 39
0.100
  6
CONTINUOUS
 10
162.93700
 20
5.26800
 30
 0
 11
162.91600
 21
5.31900
  0
LINE
  8
Kontur
 62
   7
 39
0.100
  6
CONTINUOUS
 10
162.91600
 20
5.31900
 30
 0
 11
162.89300
 21
5.36800
  0
LINE
  8
Kontur
 62
   7
 39
0.100
  6
CONTINUOUS
 10
162.89300
 20
5.36800
 30
 0
 11
162.86800
 21
5.41700
  0
LINE
  8
Kontur
 62
   7
 39
0.100
  6
CONTINUOUS
 10
162.86800
 20
5.41700
 30
 0
 11
162.78200
 21
5.57900
  0
LINE
  8
Kontur
 62
   7
 39
0.100
  6
CONTINUOUS
 10
162.78200
 20
5.57900
 30
 0
 11
162.75500
 21
5.62700
  0
LINE
  8
Kontur
 62
   7
 39
0.100
  6
CONTINUOUS
 10
162.75500
 20
5.62700
 30
 0
 11
162.72700
 21
5.67400
  0
LINE
  8
Kontur
 62
   7
 39
0.100
  6
CONTINUOUS
 10
162.72700
 20
5.67400
 30
 0
 11
162.69800
 21
5.71900
  0
LINE
  8
Kontur
 62
   7
 39
0.100
  6
CONTINUOUS
 10
162.69800
 20
5.71900
 30
 0
 11
162.59400
 21
5.87200
  0
LINE
  8
Kontur
 62
   7
 39
0.100
  6
CONTINUOUS
 10
162.59400
 20
5.87200
 30
 0
 11
162.56200
 21
5.91700
  0
LINE
  8
Kontur
 62
   7
 39
0.100
  6
CONTINUOUS
 10
162.56200
 20
5.91700
 30
 0
 11
162.52900
 21
5.96100
  0
LINE
  8
Kontur
 62
   7
 39
0.100
  6
CONTINUOUS
 10
162.52900
 20
5.96100
 30
 0
 11
162.49600
 21
6.00000
  0
LINE
  8
Kontur
 62
   7
 39
0.100
  6
CONTINUOUS
 10
162.49600
 20
6.00000
 30
 0
 11
162.37700
 21
6.14000
  0
LINE
  8
Kontur
 62
   7
 39
0.100
  6
CONTINUOUS
 10
162.37700
 20
6.14000
 30
 0
 11
162.34100
 21
6.18200
  0
LINE
  8
Kontur
 62
   7
 39
0.100
  6
CONTINUOUS
 10
162.34100
 20
6.18200
 30
 0
 11
162.30300
 21
6.22100
  0
LINE
  8
Kontur
 62
   7
 39
0.100
  6
CONTINUOUS
 10
162.30300
 20
6.22100
 30
 0
 11
162.27000
 21
6.25400
  0
LINE
  8
Kontur
 62
   7
 39
0.100
  6
CONTINUOUS
 10
162.27000
 20
6.25400
 30
 0
 11
162.13700
 21
6.38100
  0
LINE
  8
Kontur
 62
   7
 39
0.100
  6
CONTINUOUS
 10
162.13700
 20
6.38100
 30
 0
 11
162.09700
 21
6.41800
  0
LINE
  8
Kontur
 62
   7
 39
0.100
  6
CONTINUOUS
 10
162.09700
 20
6.41800
 30
 0
 11
162.05500
 21
6.45400
  0
LINE
  8
Kontur
 62
   7
 39
0.100
  6
CONTINUOUS
 10
162.05500
 20
6.45400
 30
 0
 11
162.00500
 21
6.49300
  0
LINE
  8
Kontur
 62
   7
 39
0.100
  6
CONTINUOUS
 10
162.00500
 20
6.49300
 30
 0
 11
161.85800
 21
6.60400
  0
LINE
  8
Kontur
 62
   7
 39
0.100
  6
CONTINUOUS
 10
161.85800
 20
6.60400
 30
 0
 11
161.81400
 21
6.63600
  0
LINE
  8
Kontur
 62
   7
 39
0.100
  6
CONTINUOUS
 10
161.81400
 20
6.63600
 30
 0
 11
161.76800
 21
6.66700
  0
LINE
  8
Kontur
 62
   7
 39
0.100
  6
CONTINUOUS
 10
161.76800
 20
6.66700
 30
 0
 11
161.72700
 21
6.69300
  0
LINE
  8
Kontur
 62
   7
 39
0.100
  6
CONTINUOUS
 10
161.72700
 20
6.69300
 30
 0
 11
161.56900
 21
6.78800
  0
LINE
  8
Kontur
 62
   7
 39
0.100
  6
CONTINUOUS
 10
161.56900
 20
6.78800
 30
 0
 11
161.52100
 21
6.81500
  0
LINE
  8
Kontur
 62
   7
 39
0.100
  6
CONTINUOUS
 10
161.52100
 20
6.81500
 30
 0
 11
161.47300
 21
6.84000
  0
LINE
  8
Kontur
 62
   7
 39
0.100
  6
CONTINUOUS
 10
161.47300
 20
6.84000
 30
 0
 11
161.42400
 21
6.86400
  0
LINE
  8
Kontur
 62
   7
 39
0.100
  6
CONTINUOUS
 10
161.42400
 20
6.86400
 30
 0
 11
161.25700
 21
6.94100
  0
LINE
  8
Kontur
 62
   7
 39
0.100
  6
CONTINUOUS
 10
161.25700
 20
6.94100
 30
 0
 11
161.20700
 21
6.96300
  0
LINE
  8
Kontur
 62
   7
 39
0.100
  6
CONTINUOUS
 10
161.20700
 20
6.96300
 30
 0
 11
161.15600
 21
6.98300
  0
LINE
  8
Kontur
 62
   7
 39
0.100
  6
CONTINUOUS
 10
161.15600
 20
6.98300
 30
 0
 11
161.11100
 21
7.00000
  0
LINE
  8
Kontur
 62
   7
 39
0.100
  6
CONTINUOUS
 10
161.11100
 20
7.00000
 30
 0
 11
160.93700
 21
7.05900
  0
LINE
  8
Kontur
 62
   7
 39
0.100
  6
CONTINUOUS
 10
160.93700
 20
7.05900
 30
 0
 11
160.88500
 21
7.07500
  0
LINE
  8
Kontur
 62
   7
 39
0.100
  6
CONTINUOUS
 10
160.88500
 20
7.07500
 30
 0
 11
160.83200
 21
7.09000
  0
LINE
  8
Kontur
 62
   7
 39
0.100
  6
CONTINUOUS
 10
160.83200
 20
7.09000
 30
 0
 11
160.78000
 21
7.10200
  0
LINE
  8
Kontur
 62
   7
 39
0.100
  6
CONTINUOUS
 10
160.78000
 20
7.10200
 30
 0
 11
160.60000
 21
7.14200
  0
LINE
  8
Kontur
 62
   7
 39
0.100
  6
CONTINUOUS
 10
160.60000
 20
7.14200
 30
 0
 11
160.54700
 21
7.15300
  0
LINE
  8
Kontur
 62
   7
 39
0.100
  6
CONTINUOUS
 10
160.54700
 20
7.15300
 30
 0
 11
160.49300
 21
7.16200
  0
LINE
  8
Kontur
 62
   7
 39
0.100
  6
CONTINUOUS
 10
160.49300
 20
7.16200
 30
 0
 11
160.43800
 21
7.16900
  0
LINE
  8
Kontur
 62
   7
 39
0.100
  6
CONTINUOUS
 10
160.43800
 20
7.16900
 30
 0
 11
160.25500
 21
7.18900
  0
LINE
  8
Kontur
 62
   7
 39
0.100
  6
CONTINUOUS
 10
160.25500
 20
7.18900
 30
 0
 11
160.20000
 21
7.19400
  0
LINE
  8
Kontur
 62
   7
 39
0.100
  6
CONTINUOUS
 10
160.20000
 20
7.19400
 30
 0
 11
160.14600
 21
7.19700
  0
LINE
  8
Kontur
 62
   7
 39
0.100
  6
CONTINUOUS
 10
160.14600
 20
7.19700
 30
 0
 11
160.09200
 21
7.19800
  0
LINE
  8
Kontur
 62
   7
 39
0.100
  6
CONTINUOUS
 10
160.09200
 20
7.19800
 30
 0
 11
159.90800
 21
7.19800
  0
LINE
  8
Kontur
 62
   7
 39
0.100
  6
CONTINUOUS
 10
159.90800
 20
7.19800
 30
 0
 11
159.85300
 21
7.19700
  0
LINE
  8
Kontur
 62
   7
 39
0.100
  6
CONTINUOUS
 10
159.85300
 20
7.19700
 30
 0
 11
159.79900
 21
7.19400
  0
LINE
  8
Kontur
 62
   7
 39
0.100
  6
CONTINUOUS
 10
159.79900
 20
7.19400
 30
 0
 11
159.74500
 21
7.18900
  0
LINE
  8
Kontur
 62
   7
 39
0.100
  6
CONTINUOUS
 10
159.74500
 20
7.18900
 30
 0
 11
159.56200
 21
7.16900
  0
LINE
  8
Kontur
 62
   7
 39
0.100
  6
CONTINUOUS
 10
159.56200
 20
7.16900
 30
 0
 11
159.50800
 21
7.16200
  0
LINE
  8
Kontur
 62
   7
 39
0.100
  6
CONTINUOUS
 10
159.50800
 20
7.16200
 30
 0
 11
159.45400
 21
7.15300
  0
LINE
  8
Kontur
 62
   7
 39
0.100
  6
CONTINUOUS
 10
159.45400
 20
7.15300
 30
 0
 11
159.40000
 21
7.14200
  0
LINE
  8
Kontur
 62
   7
 39
0.100
  6
CONTINUOUS
 10
159.40000
 20
7.14200
 30
 0
 11
159.22000
 21
7.10200
  0
LINE
  8
Kontur
 62
   7
 39
0.100
  6
CONTINUOUS
 10
159.22000
 20
7.10200
 30
 0
 11
159.16600
 21
7.08900
  0
LINE
  8
Kontur
 62
   7
 39
0.100
  6
CONTINUOUS
 10
159.16600
 20
7.08900
 30
 0
 11
159.11400
 21
7.07500
  0
LINE
  8
Kontur
 62
   7
 39
0.100
  6
CONTINUOUS
 10
159.11400
 20
7.07500
 30
 0
 11
159.06300
 21
7.05900
  0
LINE
  8
Kontur
 62
   7
 39
0.100
  6
CONTINUOUS
 10
159.06300
 20
7.05900
 30
 0
 11
158.88900
 21
7.00000
  0
LINE
  8
Kontur
 62
   7
 39
0.100
  6
CONTINUOUS
 10
158.88900
 20
7.00000
 30
 0
 11
158.83800
 21
6.98100
  0
LINE
  8
Kontur
 62
   7
 39
0.100
  6
CONTINUOUS
 10
158.83800
 20
6.98100
 30
 0
 11
158.78700
 21
6.96100
  0
LINE
  8
Kontur
 62
   7
 39
0.100
  6
CONTINUOUS
 10
158.78700
 20
6.96100
 30
 0
 11
158.74300
 21
6.94100
  0
LINE
  8
Kontur
 62
   7
 39
0.100
  6
CONTINUOUS
 10
158.74300
 20
6.94100
 30
 0
 11
158.57600
 21
6.86400
  0
LINE
  8
Kontur
 62
   7
 39
0.100
  6
CONTINUOUS
 10
158.57600
 20
6.86400
 30
 0
 11
158.52700
 21
6.84000
  0
LINE
  8
Kontur
 62
   7
 39
0.100
  6
CONTINUOUS
 10
158.52700
 20
6.84000
 30
 0
 11
158.47800
 21
6.81500
  0
LINE
  8
Kontur
 62
   7
 39
0.100
  6
CONTINUOUS
 10
158.47800
 20
6.81500
 30
 0
 11
158.43100
 21
6.78800
  0
LINE
  8
Kontur
 62
   7
 39
0.100
  6
CONTINUOUS
 10
158.43100
 20
6.78800
 30
 0
 11
158.27300
 21
6.69300
  0
LINE
  8
Kontur
 62
   7
 39
0.100
  6
CONTINUOUS
 10
158.27300
 20
6.69300
 30
 0
 11
158.18100
 21
6.63300
  0
LINE
  8
Kontur
 62
   7
 39
0.100
  6
CONTINUOUS
 10
158.18100
 20
6.63300
 30
 0
 11
158.14200
 21
6.60400
  0
LINE
  8
Kontur
 62
   7
 39
0.100
  6
CONTINUOUS
 10
158.14200
 20
6.60400
 30
 0
 11
157.99500
 21
6.49300
  0
LINE
  8
Kontur
 62
   7
 39
0.100
  6
CONTINUOUS
 10
157.99500
 20
6.49300
 30
 0
 11
157.95200
 21
6.45900
  0
LINE
  8
Kontur
 62
   7
 39
0.100
  6
CONTINUOUS
 10
157.95200
 20
6.45900
 30
 0
 11
157.91000
 21
6.42400
  0
LINE
  8
Kontur
 62
   7
 39
0.100
  6
CONTINUOUS
 10
157.91000
 20
6.42400
 30
 0
 11
157.86300
 21
6.38100
  0
LINE
  8
Kontur
 62
   7
 39
0.100
  6
CONTINUOUS
 10
157.86300
 20
6.38100
 30
 0
 11
157.73000
 21
6.25400
  0
LINE
  8
Kontur
 62
   7
 39
0.100
  6
CONTINUOUS
 10
157.73000
 20
6.25400
 30
 0
 11
157.69100
 21
6.21500
  0
LINE
  8
Kontur
 62
   7
 39
0.100
  6
CONTINUOUS
 10
157.69100
 20
6.21500
 30
 0
 11
157.65400
 21
6.17500
  0
LINE
  8
Kontur
 62
   7
 39
0.100
  6
CONTINUOUS
 10
157.65400
 20
6.17500
 30
 0
 11
157.62300
 21
6.14000
  0
LINE
  8
Kontur
 62
   7
 39
0.100
  6
CONTINUOUS
 10
157.62300
 20
6.14000
 30
 0
 11
157.50400
 21
6.00000
  0
LINE
  8
Kontur
 62
   7
 39
0.100
  6
CONTINUOUS
 10
157.50400
 20
6.00000
 30
 0
 11
157.46900
 21
5.95800
  0
LINE
  8
Kontur
 62
   7
 39
0.100
  6
CONTINUOUS
 10
157.46900
 20
5.95800
 30
 0
 11
157.43600
 21
5.91400
  0
LINE
  8
Kontur
 62
   7
 39
0.100
  6
CONTINUOUS
 10
157.43600
 20
5.91400
 30
 0
 11
157.40600
 21
5.87200
  0
LINE
  8
Kontur
 62
   7
 39
0.100
  6
CONTINUOUS
 10
157.40600
 20
5.87200
 30
 0
 11
157.30200
 21
5.71900
  0
LINE
  8
Kontur
 62
   7
 39
0.100
  6
CONTINUOUS
 10
157.30200
 20
5.71900
 30
 0
 11
157.27300
 21
5.67300
  0
LINE
  8
Kontur
 62
   7
 39
0.100
  6
CONTINUOUS
 10
157.27300
 20
5.67300
 30
 0
 11
157.24400
 21
5.62600
  0
LINE
  8
Kontur
 62
   7
 39
0.100
  6
CONTINUOUS
 10
157.24400
 20
5.62600
 30
 0
 11
157.21800
 21
5.57900
  0
LINE
  8
Kontur
 62
   7
 39
0.100
  6
CONTINUOUS
 10
157.21800
 20
5.57900
 30
 0
 11
157.13200
 21
5.41700
  0
LINE
  8
Kontur
 62
   7
 39
0.100
  6
CONTINUOUS
 10
157.13200
 20
5.41700
 30
 0
 11
157.10700
 21
5.36800
  0
LINE
  8
Kontur
 62
   7
 39
0.100
  6
CONTINUOUS
 10
157.10700
 20
5.36800
 30
 0
 11
157.08400
 21
5.31900
  0
LINE
  8
Kontur
 62
   7
 39
0.100
  6
CONTINUOUS
 10
157.08400
 20
5.31900
 30
 0
 11
157.06300
 21
5.26800
  0
LINE
  8
Kontur
 62
   7
 39
0.100
  6
CONTINUOUS
 10
157.06300
 20
5.26800
 30
 0
 11
156.99500
 21
5.09700
  0
LINE
  8
Kontur
 62
   7
 39
0.100
  6
CONTINUOUS
 10
156.99500
 20
5.09700
 30
 0
 11
156.97600
 21
5.04600
  0
LINE
  8
Kontur
 62
   7
 39
0.100
  6
CONTINUOUS
 10
156.97600
 20
5.04600
 30
 0
 11
156.95800
 21
4.99400
  0
LINE
  8
Kontur
 62
   7
 39
0.100
  6
CONTINUOUS
 10
156.95800
 20
4.99400
 30
 0
 11
156.94300
 21
4.94100
  0
LINE
  8
Kontur
 62
   7
 39
0.100
  6
CONTINUOUS
 10
156.94300
 20
4.94100
 30
 0
 11
156.89400
 21
4.76300
  0
LINE
  8
Kontur
 62
   7
 39
0.100
  6
CONTINUOUS
 10
156.89400
 20
4.76300
 30
 0
 11
156.88000
 21
4.71000
  0
LINE
  8
Kontur
 62
   7
 39
0.100
  6
CONTINUOUS
 10
156.88000
 20
4.71000
 30
 0
 11
156.86900
 21
4.65700
  0
LINE
  8
Kontur
 62
   7
 39
0.100
  6
CONTINUOUS
 10
156.86900
 20
4.65700
 30
 0
 11
156.86000
 21
4.61000
  0
LINE
  8
Kontur
 62
   7
 39
0.100
  6
CONTINUOUS
 10
156.86000
 20
4.61000
 30
 0
 11
156.83000
 21
4.42900
  0
LINE
  8
Kontur
 62
   7
 39
0.100
  6
CONTINUOUS
 10
156.83000
 20
4.42900
 30
 0
 11
156.82200
 21
4.37500
  0
LINE
  8
Kontur
 62
   7
 39
0.100
  6
CONTINUOUS
 10
156.82200
 20
4.37500
 30
 0
 11
156.81600
 21
4.32100
  0
LINE
  8
Kontur
 62
   7
 39
0.100
  6
CONTINUOUS
 10
156.81600
 20
4.32100
 30
 0
 11
156.81200
 21
4.26500
  0
LINE
  8
Kontur
 62
   7
 39
0.100
  6
CONTINUOUS
 10
156.81200
 20
4.26500
 30
 0
 11
156.80200
 21
4.08100
  0
LINE
  8
Kontur
 62
   7
 39
0.100
  6
CONTINUOUS
 10
156.80200
 20
4.08100
 30
 0
 11
156.80000
 21
4.02700
  0
LINE
  8
Kontur
 62
   7
 39
0.100
  6
CONTINUOUS
 10
156.80000
 20
4.02700
 30
 0
 11
156.80000
 21
3.97200
  0
LINE
  8
Kontur
 62
   7
 39
0.100
  6
CONTINUOUS
 10
156.80000
 20
3.97200
 30
 0
 11
156.80200
 21
3.91900
  0
LINE
  8
Kontur
 62
   7
 39
0.100
  6
CONTINUOUS
 10
156.80200
 20
3.91900
 30
 0
 11
156.81200
 21
3.73500
  0
LINE
  8
Kontur
 62
   7
 39
0.100
  6
CONTINUOUS
 10
156.81200
 20
3.73500
 30
 0
 11
156.81600
 21
3.68000
  0
LINE
  8
Kontur
 62
   7
 39
0.100
  6
CONTINUOUS
 10
156.81600
 20
3.68000
 30
 0
 11
156.82200
 21
3.62600
  0
LINE
  8
Kontur
 62
   7
 39
0.100
  6
CONTINUOUS
 10
156.82200
 20
3.62600
 30
 0
 11
156.83000
 21
3.57100
  0
LINE
  8
Kontur
 62
   7
 39
0.100
  6
CONTINUOUS
 10
156.83000
 20
3.57100
 30
 0
 11
156.86000
 21
3.39000
  0
LINE
  8
Kontur
 62
   7
 39
0.100
  6
CONTINUOUS
 10
156.86000
 20
3.39000
 30
 0
 11
156.87000
 21
3.33600
  0
LINE
  8
Kontur
 62
   7
 39
0.100
  6
CONTINUOUS
 10
156.87000
 20
3.33600
 30
 0
 11
156.88200
 21
3.28200
  0
LINE
  8
Kontur
 62
   7
 39
0.100
  6
CONTINUOUS
 10
156.88200
 20
3.28200
 30
 0
 11
156.89400
 21
3.23700
  0
LINE
  8
Kontur
 62
   7
 39
0.100
  6
CONTINUOUS
 10
156.89400
 20
3.23700
 30
 0
 11
156.94300
 21
3.05900
  0
LINE
  8
Kontur
 62
   7
 39
0.100
  6
CONTINUOUS
 10
156.94300
 20
3.05900
 30
 0
 11
156.95800
 21
3.00600
  0
LINE
  8
Kontur
 62
   7
 39
0.100
  6
CONTINUOUS
 10
156.95800
 20
3.00600
 30
 0
 11
156.97600
 21
2.95400
  0
LINE
  8
Kontur
 62
   7
 39
0.100
  6
CONTINUOUS
 10
156.97600
 20
2.95400
 30
 0
 11
156.99500
 21
2.90300
  0
LINE
  8
Kontur
 62
   7
 39
0.100
  6
CONTINUOUS
 10
156.99500
 20
2.90300
 30
 0
 11
157.06300
 21
2.73200
  0
LINE
  8
Kontur
 62
   7
 39
0.100
  6
CONTINUOUS
 10
157.06300
 20
2.73200
 30
 0
 11
157.08400
 21
2.68100
  0
LINE
  8
Kontur
 62
   7
 39
0.100
  6
CONTINUOUS
 10
157.08400
 20
2.68100
 30
 0
 11
157.10700
 21
2.63200
  0
LINE
  8
Kontur
 62
   7
 39
0.100
  6
CONTINUOUS
 10
157.10700
 20
2.63200
 30
 0
 11
157.13200
 21
2.58300
  0
LINE
  8
Kontur
 62
   7
 39
0.100
  6
CONTINUOUS
 10
157.13200
 20
2.58300
 30
 0
 11
157.21800
 21
2.42100
  0
LINE
  8
Kontur
 62
   7
 39
0.100
  6
CONTINUOUS
 10
157.21800
 20
2.42100
 30
 0
 11
157.24500
 21
2.37300
  0
LINE
  8
Kontur
 62
   7
 39
0.100
  6
CONTINUOUS
 10
157.24500
 20
2.37300
 30
 0
 11
157.27300
 21
2.32600
  0
LINE
  8
Kontur
 62
   7
 39
0.100
  6
CONTINUOUS
 10
157.27300
 20
2.32600
 30
 0
 11
157.30200
 21
2.28100
  0
LINE
  8
Kontur
 62
   7
 39
0.100
  6
CONTINUOUS
 10
157.30200
 20
2.28100
 30
 0
 11
157.40600
 21
2.12800
  0
LINE
  8
Kontur
 62
   7
 39
0.100
  6
CONTINUOUS
 10
157.40600
 20
2.12800
 30
 0
 11
157.43800
 21
2.08300
  0
LINE
  8
Kontur
 62
   7
 39
0.100
  6
CONTINUOUS
 10
157.43800
 20
2.08300
 30
 0
 11
157.47100
 21
2.03900
  0
LINE
  8
Kontur
 62
   7
 39
0.100
  6
CONTINUOUS
 10
157.47100
 20
2.03900
 30
 0
 11
157.50400
 21
2.00000
  0
LINE
  8
Kontur
 62
   7
 39
0.100
  6
CONTINUOUS
 10
157.50400
 20
2.00000
 30
 0
 11
157.62300
 21
1.86000
  0
LINE
  8
Kontur
 62
   7
 39
0.100
  6
CONTINUOUS
 10
157.62300
 20
1.86000
 30
 0
 11
157.65900
 21
1.81800
  0
LINE
  8
Kontur
 62
   7
 39
0.100
  6
CONTINUOUS
 10
157.65900
 20
1.81800
 30
 0
 11
157.69700
 21
1.77900
  0
LINE
  8
Kontur
 62
   7
 39
0.100
  6
CONTINUOUS
 10
157.69700
 20
1.77900
 30
 0
 11
157.73000
 21
1.74600
  0
LINE
  8
Kontur
 62
   7
 39
0.100
  6
CONTINUOUS
 10
157.73000
 20
1.74600
 30
 0
 11
157.86300
 21
1.61900
  0
LINE
  8
Kontur
 62
   7
 39
0.100
  6
CONTINUOUS
 10
157.86300
 20
1.61900
 30
 0
 11
157.90300
 21
1.58200
  0
LINE
  8
Kontur
 62
   7
 39
0.100
  6
CONTINUOUS
 10
157.90300
 20
1.58200
 30
 0
 11
157.94500
 21
1.54600
  0
LINE
  8
Kontur
 62
   7
 39
0.100
  6
CONTINUOUS
 10
157.94500
 20
1.54600
 30
 0
 11
157.99500
 21
1.50700
  0
LINE
  8
Kontur
 62
   7
 39
0.100
  6
CONTINUOUS
 10
157.99500
 20
1.50700
 30
 0
 11
158.14200
 21
1.39600
  0
LINE
  8
Kontur
 62
   7
 39
0.100
  6
CONTINUOUS
 10
158.14200
 20
1.39600
 30
 0
 11
158.18600
 21
1.36400
  0
LINE
  8
Kontur
 62
   7
 39
0.100
  6
CONTINUOUS
 10
158.18600
 20
1.36400
 30
 0
 11
158.23200
 21
1.33300
  0
LINE
  8
Kontur
 62
   7
 39
0.100
  6
CONTINUOUS
 10
158.23200
 20
1.33300
 30
 0
 11
158.27300
 21
1.30700
  0
LINE
  8
Kontur
 62
   7
 39
0.100
  6
CONTINUOUS
 10
158.27300
 20
1.30700
 30
 0
 11
158.43100
 21
1.21200
  0
LINE
  8
Kontur
 62
   7
 39
0.100
  6
CONTINUOUS
 10
158.43100
 20
1.21200
 30
 0
 11
158.47900
 21
1.18500
  0
LINE
  8
Kontur
 62
   7
 39
0.100
  6
CONTINUOUS
 10
158.47900
 20
1.18500
 30
 0
 11
158.52700
 21
1.16000
  0
LINE
  8
Kontur
 62
   7
 39
0.100
  6
CONTINUOUS
 10
158.52700
 20
1.16000
 30
 0
 11
158.57600
 21
1.13600
  0
LINE
  8
Kontur
 62
   7
 39
0.100
  6
CONTINUOUS
 10
158.57600
 20
1.13600
 30
 0
 11
158.74300
 21
1.05900
  0
LINE
  8
Kontur
 62
   7
 39
0.100
  6
CONTINUOUS
 10
158.74300
 20
1.05900
 30
 0
 11
158.79300
 21
1.03700
  0
LINE
  8
Kontur
 62
   7
 39
0.100
  6
CONTINUOUS
 10
158.79300
 20
1.03700
 30
 0
 11
158.84400
 21
1.01700
  0
LINE
  8
Kontur
 62
   7
 39
0.100
  6
CONTINUOUS
 10
158.84400
 20
1.01700
 30
 0
 11
158.88900
 21
1.00000
  0
LINE
  8
Kontur
 62
   7
 39
0.100
  6
CONTINUOUS
 10
158.88900
 20
1.00000
 30
 0
 11
159.06300
 21
0.94100
  0
LINE
  8
Kontur
 62
   7
 39
0.100
  6
CONTINUOUS
 10
159.06300
 20
0.94100
 30
 0
 11
159.11500
 21
0.92500
  0
LINE
  8
Kontur
 62
   7
 39
0.100
  6
CONTINUOUS
 10
159.11500
 20
0.92500
 30
 0
 11
159.16800
 21
0.91000
  0
LINE
  8
Kontur
 62
   7
 39
0.100
  6
CONTINUOUS
 10
159.16800
 20
0.91000
 30
 0
 11
159.22000
 21
0.89800
  0
LINE
  8
Kontur
 62
   7
 39
0.100
  6
CONTINUOUS
 10
159.22000
 20
0.89800
 30
 0
 11
159.40000
 21
0.85800
  0
LINE
  8
Kontur
 62
   7
 39
0.100
  6
CONTINUOUS
 10
159.40000
 20
0.85800
 30
 0
 11
159.45300
 21
0.84700
  0
LINE
  8
Kontur
 62
   7
 39
0.100
  6
CONTINUOUS
 10
159.45300
 20
0.84700
 30
 0
 11
159.50700
 21
0.83800
  0
LINE
  8
Kontur
 62
   7
 39
0.100
  6
CONTINUOUS
 10
159.50700
 20
0.83800
 30
 0
 11
159.56200
 21
0.83100
  0
LINE
  8
Kontur
 62
   7
 39
0.100
  6
CONTINUOUS
 10
159.56200
 20
0.83100
 30
 0
 11
159.74500
 21
0.81100
  0
LINE
  8
Kontur
 62
   7
 39
0.100
  6
CONTINUOUS
 10
159.74500
 20
0.81100
 30
 0
 11
159.80000
 21
0.80600
  0
LINE
  8
Kontur
 62
   7
 39
0.100
  6
CONTINUOUS
 10
159.80000
 20
0.80600
 30
 0
 11
159.85400
 21
0.80300
  0
LINE
  8
Kontur
 62
   7
 39
0.100
  6
CONTINUOUS
 10
159.85400
 20
0.80300
 30
 0
 11
159.90800
 21
0.80200
  0
LINE
  8
Kontur
 62
   7
 39
0.100
  6
CONTINUOUS
 10
159.90800
 20
0.80200
 30
 0
 11
160.09200
 21
0.80200
  0
LINE
  8
Kontur
 62
   7
 39
0.100
  6
CONTINUOUS
 10
160.09200
 20
0.80200
 30
 0
 11
160.14700
 21
0.80300
  0
CIRCLE
  8
Kontur
 62
   7
 39
0.100
  6
CONTINUOUS
 10
160.00000
 20
4.00000
 30
 0
 40
1.70000
  0
LINE
  8
Kontur
 62
   7
 39
0.100
  6
CONTINUOUS
 10
160.14700
 20
0.80300
 30
 0
 11
160.20100
 21
0.80600
  0
LINE
  8
Kontur
 62
   7
 39
0.100
  6
CONTINUOUS
 10
160.20100
 20
0.80600
 30
 0
 11
160.25500
 21
0.81100
  0
LINE
  8
Kontur
 62
   7
 39
0.100
  6
CONTINUOUS
 10
160.25500
 20
0.81100
 30
 0
 11
160.43800
 21
0.83100
  0
LINE
  8
Kontur
 62
   7
 39
0.100
  6
CONTINUOUS
 10
160.43800
 20
0.83100
 30
 0
 11
160.49200
 21
0.83800
  0
LINE
  8
Kontur
 62
   7
 39
0.100
  6
CONTINUOUS
 10
160.49200
 20
0.83800
 30
 0
 11
160.54600
 21
0.84700
  0
LINE
  8
Kontur
 62
   7
 39
0.100
  6
CONTINUOUS
 10
160.54600
 20
0.84700
 30
 0
 11
160.60000
 21
0.85800
  0
LINE
  8
Kontur
 62
   7
 39
0.100
  6
CONTINUOUS
 10
160.60000
 20
0.85800
 30
 0
 11
160.78000
 21
0.89800
  0
LINE
  8
Kontur
 62
   7
 39
0.100
  6
CONTINUOUS
 10
160.78000
 20
0.89800
 30
 0
 11
160.83400
 21
0.91100
  0
LINE
  8
Kontur
 62
   7
 39
0.100
  6
CONTINUOUS
 10
160.83400
 20
0.91100
 30
 0
 11
160.88600
 21
0.92500
  0
LINE
  8
Kontur
 62
   7
 39
0.100
  6
CONTINUOUS
 10
160.88600
 20
0.92500
 30
 0
 11
160.93700
 21
0.94100
  0
LINE
  8
Kontur
 62
   7
 39
0.100
  6
CONTINUOUS
 10
160.93700
 20
0.94100
 30
 0
 11
161.11100
 21
1.00000
  0
LINE
  8
Kontur
 62
   7
 39
0.100
  6
CONTINUOUS
 10
161.11100
 20
1.00000
 30
 0
 11
161.16200
 21
1.01900
  0
LINE
  8
Kontur
 62
   7
 39
0.100
  6
CONTINUOUS
 10
161.16200
 20
1.01900
 30
 0
 11
161.21300
 21
1.03900
  0
LINE
  8
Kontur
 62
   7
 39
0.100
  6
CONTINUOUS
 10
161.21300
 20
1.03900
 30
 0
 11
161.25700
 21
1.05900
  0
LINE
  8
Kontur
 62
   7
 39
0.100
  6
CONTINUOUS
 10
161.25700
 20
1.05900
 30
 0
 11
161.42400
 21
1.13600
  0
LINE
  8
Kontur
 62
   7
 39
0.100
  6
CONTINUOUS
 10
161.42400
 20
1.13600
 30
 0
 11
161.47300
 21
1.16000
  0
LINE
  8
Kontur
 62
   7
 39
0.100
  6
CONTINUOUS
 10
161.47300
 20
1.16000
 30
 0
 11
161.52200
 21
1.18500
  0
LINE
  8
Kontur
 62
   7
 39
0.100
  6
CONTINUOUS
 10
161.52200
 20
1.18500
 30
 0
 11
161.56900
 21
1.21200
  0
LINE
  8
Kontur
 62
   7
 39
0.100
  6
CONTINUOUS
 10
161.56900
 20
1.21200
 30
 0
 11
161.72700
 21
1.30700
  0
LINE
  8
Kontur
 62
   7
 39
0.100
  6
CONTINUOUS
 10
161.72700
 20
1.30700
 30
 0
 11
161.81900
 21
1.36700
  0
LINE
  8
Kontur
 62
   7
 39
0.100
  6
CONTINUOUS
 10
161.81900
 20
1.36700
 30
 0
 11
161.85800
 21
1.39600
  0
LINE
  8
Kontur
 62
   7
 39
0.100
  6
CONTINUOUS
 10
161.85800
 20
1.39600
 30
 0
 11
162.00500
 21
1.50700
  0
LINE
  8
Kontur
 62
   7
 39
0.100
  6
CONTINUOUS
 10
162.00500
 20
1.50700
 30
 0
 11
162.04800
 21
1.54100
  0
LINE
  8
Kontur
 62
   7
 39
0.100
  6
CONTINUOUS
 10
162.04800
 20
1.54100
 30
 0
 11
162.09000
 21
1.57600
  0
LINE
  8
Kontur
 62
   7
 39
0.100
  6
CONTINUOUS
 10
162.09000
 20
1.57600
 30
 0
 11
162.13700
 21
1.61900
  0
LINE
  8
Kontur
 62
   7
 39
0.100
  6
CONTINUOUS
 10
162.13700
 20
1.61900
 30
 0
 11
162.27000
 21
1.74600
  0
LINE
  8
Kontur
 62
   7
 39
0.100
  6
CONTINUOUS
 10
162.27000
 20
1.74600
 30
 0
 11
162.30900
 21
1.78500
  0
LINE
  8
Kontur
 62
   7
 39
0.100
  6
CONTINUOUS
 10
162.30900
 20
1.78500
 30
 0
 11
162.34600
 21
1.82500
  0
LINE
  8
Kontur
 62
   7
 39
0.100
  6
CONTINUOUS
 10
162.34600
 20
1.82500
 30
 0
 11
162.37700
 21
1.86000
  0
LINE
  8
Kontur
 62
   7
 39
0.100
  6
CONTINUOUS
 10
162.37700
 20
1.86000
 30
 0
 11
162.49600
 21
2.00000
  0
LINE
  8
Kontur
 62
   7
 39
0.100
  6
CONTINUOUS
 10
162.49600
 20
2.00000
 30
 0
 11
162.53100
 21
2.04200
  0
LINE
  8
Kontur
 62
   7
 39
0.100
  6
CONTINUOUS
 10
162.53100
 20
2.04200
 30
 0
 11
162.56400
 21
2.08600
  0
LINE
  8
Kontur
 62
   7
 39
0.100
  6
CONTINUOUS
 10
162.56400
 20
2.08600
 30
 0
 11
162.59400
 21
2.12800
  0
LINE
  8
Kontur
 62
   7
 39
0.100
  6
CONTINUOUS
 10
162.59400
 20
2.12800
 30
 0
 11
162.69800
 21
2.28100
  0
LINE
  8
Kontur
 62
   7
 39
0.100
  6
CONTINUOUS
 10
162.69800
 20
2.28100
 30
 0
 11
162.72700
 21
2.32700
  0
LINE
  8
Kontur
 62
   7
 39
0.100
  6
CONTINUOUS
 10
162.72700
 20
2.32700
 30
 0
 11
162.75600
 21
2.37400
  0
LINE
  8
Kontur
 62
   7
 39
0.100
  6
CONTINUOUS
 10
162.75600
 20
2.37400
 30
 0
 11
162.78200
 21
2.42100
  0
LINE
  8
Kontur
 62
   7
 39
0.100
  6
CONTINUOUS
 10
162.78200
 20
2.42100
 30
 0
 11
162.86800
 21
2.58300
  0
LINE
  8
Kontur
 62
   7
 39
0.100
  6
CONTINUOUS
 10
162.86800
 20
2.58300
 30
 0
 11
162.89300
 21
2.63200
  0
LINE
  8
Kontur
 62
   7
 39
0.100
  6
CONTINUOUS
 10
162.89300
 20
2.63200
 30
 0
 11
162.91600
 21
2.68100
  0
LINE
  8
Kontur
 62
   7
 39
0.100
  6
CONTINUOUS
 10
162.91600
 20
2.68100
 30
 0
 11
162.93700
 21
2.73200
  0
LINE
  8
Kontur
 62
   7
 39
0.100
  6
CONTINUOUS
 10
162.93700
 20
2.73200
 30
 0
 11
163.00500
 21
2.90300
  0
LINE
  8
Kontur
 62
   7
 39
0.100
  6
CONTINUOUS
 10
163.00500
 20
2.90300
 30
 0
 11
163.02400
 21
2.95400
  0
LINE
  8
Kontur
 62
   7
 39
0.100
  6
CONTINUOUS
 10
163.02400
 20
2.95400
 30
 0
 11
163.04200
 21
3.00600
  0
LINE
  8
Kontur
 62
   7
 39
0.100
  6
CONTINUOUS
 10
163.04200
 20
3.00600
 30
 0
 11
163.05700
 21
3.05900
  0
LINE
  8
Kontur
 62
   7
 39
0.100
  6
CONTINUOUS
 10
163.05700
 20
3.05900
 30
 0
 11
163.10600
 21
3.23700
  0
LINE
  8
Kontur
 62
   7
 39
0.100
  6
CONTINUOUS
 10
163.10600
 20
3.23700
 30
 0
 11
163.12000
 21
3.29000
  0
LINE
  8
Kontur
 62
   7
 39
0.100
  6
CONTINUOUS
 10
163.12000
 20
3.29000
 30
 0
 11
163.13100
 21
3.34300
  0
LINE
  8
Kontur
 62
   7
 39
0.100
  6
CONTINUOUS
 10
163.13100
 20
3.34300
 30
 0
 11
163.14000
 21
3.39000
  0
LINE
  8
Kontur
 62
   7
 39
0.100
  6
CONTINUOUS
 10
163.14000
 20
3.39000
 30
 0
 11
163.17000
 21
3.57100
  0
LINE
  8
Kontur
 62
   7
 39
0.100
  6
CONTINUOUS
 10
163.17000
 20
3.57100
 30
 0
 11
163.17800
 21
3.62500
  0
LINE
  8
Kontur
 62
   7
 39
0.100
  6
CONTINUOUS
 10
163.17800
 20
3.62500
 30
 0
 11
163.18400
 21
3.67900
  0
LINE
  8
Kontur
 62
   7
 39
0.100
  6
CONTINUOUS
 10
163.18400
 20
3.67900
 30
 0
 11
163.18800
 21
3.73500
  0
LINE
  8
Kontur
 62
   7
 39
0.100
  6
CONTINUOUS
 10
163.18800
 20
3.73500
 30
 0
 11
163.19800
 21
3.91900
  0
LINE
  8
Kontur
 62
   7
 39
0.100
  6
CONTINUOUS
 10
163.19800
 20
3.91900
 30
 0
 11
163.20000
 21
3.97300
  0
LINE
  8
Kontur
 62
   7
 39
0.100
  6
CONTINUOUS
 10
163.20000
 20
3.97300
 30
 0
 11
163.20000
 21
4.02800
  0
LINE
  8
Kontur
 62
   7
 39
0.100
  6
CONTINUOUS
 10
163.20000
 20
4.02800
 30
 0
 11
163.19800
 21
4.08100
  0
LINE
  8
Kontur
 62
   7
 39
0.100
  6
CONTINUOUS
 10
163.19800
 20
4.08100
 30
 0
 11
163.18800
 21
4.26500
  0
LINE
  8
Kontur
 62
   7
 39
0.100
  6
CONTINUOUS
 10
163.18800
 20
4.26500
 30
 0
 11
163.18400
 21
4.32000
  0
LINE
  8
Kontur
 62
   7
 39
0.100
  6
CONTINUOUS
 10
163.18400
 20
4.32000
 30
 0
 11
163.17800
 21
4.37400
  0
LINE
  8
Kontur
 62
   7
 39
0.100
  6
CONTINUOUS
 10
163.17800
 20
4.37400
 30
 0
 11
163.17000
 21
4.42900
  0
LINE
  8
Kontur
 62
   7
 39
0.100
  6
CONTINUOUS
 10
163.17000
 20
4.42900
 30
 0
 11
163.14000
 21
4.61000
  0
LINE
  8
Kontur
 62
   7
 39
0.100
  6
CONTINUOUS
 10
163.14000
 20
4.61000
 30
 0
 11
163.13000
 21
4.66400
  0
LINE
  8
Kontur
 62
   7
 39
0.100
  6
CONTINUOUS
 10
163.13000
 20
4.66400
 30
 0
 11
163.11800
 21
4.71800
  0
LINE
  8
Kontur
 62
   7
 39
0.100
  6
CONTINUOUS
 10
163.11800
 20
4.71800
 30
 0
 11
163.10600
 21
4.76300
  0
LINE
  8
Kontur
 62
   7
 39
0.100
  6
CONTINUOUS
 10
163.10600
 20
4.76300
 30
 0
 11
163.05700
 21
4.94100
  0
LINE
  8
Kontur
 62
   7
 39
0.100
  6
CONTINUOUS
 10
163.05700
 20
4.94100
 30
 0
 11
163.04200
 21
4.99400
  0
LINE
  8
Kontur
 62
   7
 39
0.100
  6
CONTINUOUS
 10
163.04200
 20
4.99400
 30
 0
 11
163.02400
 21
5.04600
  0
LINE
  8
Kontur
 62
   7
 39
0.100
  6
CONTINUOUS
 10
163.02400
 20
5.04600
 30
 0
 11
163.00500
 21
5.09700
  0
LINE
  8
Kontur
 62
   7
 39
0.100
  6
CONTINUOUS
 10
163.00500
 20
5.09700
 30
 0
 11
162.93700
 21
5.26800
  0
LINE
  8
Kontur
 62
   7
 39
0.100
  6
CONTINUOUS
 10
162.93700
 20
5.26800
 30
 0
 11
162.91600
 21
5.31900
  0
LINE
  8
Kontur
 62
   7
 39
0.100
  6
CONTINUOUS
 10
162.91600
 20
5.31900
 30
 0
 11
162.89300
 21
5.36800
  0
LINE
  8
Kontur
 62
   7
 39
0.100
  6
CONTINUOUS
 10
162.89300
 20
5.36800
 30
 0
 11
162.86800
 21
5.41700
  0
LINE
  8
Kontur
 62
   7
 39
0.100
  6
CONTINUOUS
 10
162.86800
 20
5.41700
 30
 0
 11
162.78200
 21
5.57900
  0
LINE
  8
Kontur
 62
   7
 39
0.100
  6
CONTINUOUS
 10
162.78200
 20
5.57900
 30
 0
 11
162.75500
 21
5.62700
  0
LINE
  8
Kontur
 62
   7
 39
0.100
  6
CONTINUOUS
 10
162.75500
 20
5.62700
 30
 0
 11
162.72700
 21
5.67400
  0
LINE
  8
Kontur
 62
   7
 39
0.100
  6
CONTINUOUS
 10
162.72700
 20
5.67400
 30
 0
 11
162.69800
 21
5.71900
  0
LINE
  8
Kontur
 62
   7
 39
0.100
  6
CONTINUOUS
 10
162.69800
 20
5.71900
 30
 0
 11
162.59400
 21
5.87200
  0
LINE
  8
Kontur
 62
   7
 39
0.100
  6
CONTINUOUS
 10
162.59400
 20
5.87200
 30
 0
 11
162.56200
 21
5.91700
  0
LINE
  8
Kontur
 62
   7
 39
0.100
  6
CONTINUOUS
 10
162.56200
 20
5.91700
 30
 0
 11
162.52900
 21
5.96100
  0
LINE
  8
Kontur
 62
   7
 39
0.100
  6
CONTINUOUS
 10
162.52900
 20
5.96100
 30
 0
 11
162.49600
 21
6.00000
  0
LINE
  8
Kontur
 62
   7
 39
0.100
  6
CONTINUOUS
 10
162.49600
 20
6.00000
 30
 0
 11
162.37700
 21
6.14000
  0
LINE
  8
Kontur
 62
   7
 39
0.100
  6
CONTINUOUS
 10
162.37700
 20
6.14000
 30
 0
 11
162.34100
 21
6.18200
  0
LINE
  8
Kontur
 62
   7
 39
0.100
  6
CONTINUOUS
 10
162.34100
 20
6.18200
 30
 0
 11
162.30300
 21
6.22100
  0
LINE
  8
Kontur
 62
   7
 39
0.100
  6
CONTINUOUS
 10
162.30300
 20
6.22100
 30
 0
 11
162.27000
 21
6.25400
  0
LINE
  8
Kontur
 62
   7
 39
0.100
  6
CONTINUOUS
 10
162.27000
 20
6.25400
 30
 0
 11
162.13700
 21
6.38100
  0
LINE
  8
Kontur
 62
   7
 39
0.100
  6
CONTINUOUS
 10
162.13700
 20
6.38100
 30
 0
 11
162.09700
 21
6.41800
  0
LINE
  8
Kontur
 62
   7
 39
0.100
  6
CONTINUOUS
 10
162.09700
 20
6.41800
 30
 0
 11
162.05500
 21
6.45400
  0
LINE
  8
Kontur
 62
   7
 39
0.100
  6
CONTINUOUS
 10
162.05500
 20
6.45400
 30
 0
 11
162.00500
 21
6.49300
  0
LINE
  8
Kontur
 62
   7
 39
0.100
  6
CONTINUOUS
 10
162.00500
 20
6.49300
 30
 0
 11
161.85800
 21
6.60400
  0
LINE
  8
Kontur
 62
   7
 39
0.100
  6
CONTINUOUS
 10
161.85800
 20
6.60400
 30
 0
 11
161.81400
 21
6.63600
  0
LINE
  8
Kontur
 62
   7
 39
0.100
  6
CONTINUOUS
 10
161.81400
 20
6.63600
 30
 0
 11
161.76800
 21
6.66700
  0
LINE
  8
Kontur
 62
   7
 39
0.100
  6
CONTINUOUS
 10
161.76800
 20
6.66700
 30
 0
 11
161.72700
 21
6.69300
  0
LINE
  8
Kontur
 62
   7
 39
0.100
  6
CONTINUOUS
 10
161.72700
 20
6.69300
 30
 0
 11
161.56900
 21
6.78800
  0
LINE
  8
Kontur
 62
   7
 39
0.100
  6
CONTINUOUS
 10
161.56900
 20
6.78800
 30
 0
 11
161.52100
 21
6.81500
  0
LINE
  8
Kontur
 62
   7
 39
0.100
  6
CONTINUOUS
 10
161.52100
 20
6.81500
 30
 0
 11
161.47300
 21
6.84000
  0
LINE
  8
Kontur
 62
   7
 39
0.100
  6
CONTINUOUS
 10
161.47300
 20
6.84000
 30
 0
 11
161.42400
 21
6.86400
  0
LINE
  8
Kontur
 62
   7
 39
0.100
  6
CONTINUOUS
 10
161.42400
 20
6.86400
 30
 0
 11
161.25700
 21
6.94100
  0
LINE
  8
Kontur
 62
   7
 39
0.100
  6
CONTINUOUS
 10
161.25700
 20
6.94100
 30
 0
 11
161.20700
 21
6.96300
  0
LINE
  8
Kontur
 62
   7
 39
0.100
  6
CONTINUOUS
 10
161.20700
 20
6.96300
 30
 0
 11
161.15600
 21
6.98300
  0
LINE
  8
Kontur
 62
   7
 39
0.100
  6
CONTINUOUS
 10
161.15600
 20
6.98300
 30
 0
 11
161.11100
 21
7.00000
  0
LINE
  8
Kontur
 62
   7
 39
0.100
  6
CONTINUOUS
 10
161.11100
 20
7.00000
 30
 0
 11
160.93700
 21
7.05900
  0
LINE
  8
Kontur
 62
   7
 39
0.100
  6
CONTINUOUS
 10
160.93700
 20
7.05900
 30
 0
 11
160.88500
 21
7.07500
  0
LINE
  8
Kontur
 62
   7
 39
0.100
  6
CONTINUOUS
 10
160.88500
 20
7.07500
 30
 0
 11
160.83200
 21
7.09000
  0
LINE
  8
Kontur
 62
   7
 39
0.100
  6
CONTINUOUS
 10
160.83200
 20
7.09000
 30
 0
 11
160.78000
 21
7.10200
  0
LINE
  8
Kontur
 62
   7
 39
0.100
  6
CONTINUOUS
 10
160.78000
 20
7.10200
 30
 0
 11
160.60000
 21
7.14200
  0
LINE
  8
Kontur
 62
   7
 39
0.100
  6
CONTINUOUS
 10
160.60000
 20
7.14200
 30
 0
 11
160.54700
 21
7.15300
  0
LINE
  8
Kontur
 62
   7
 39
0.100
  6
CONTINUOUS
 10
160.54700
 20
7.15300
 30
 0
 11
160.49300
 21
7.16200
  0
LINE
  8
Kontur
 62
   7
 39
0.100
  6
CONTINUOUS
 10
160.49300
 20
7.16200
 30
 0
 11
160.43800
 21
7.16900
  0
LINE
  8
Kontur
 62
   7
 39
0.100
  6
CONTINUOUS
 10
160.43800
 20
7.16900
 30
 0
 11
160.25500
 21
7.18900
  0
LINE
  8
Kontur
 62
   7
 39
0.100
  6
CONTINUOUS
 10
160.25500
 20
7.18900
 30
 0
 11
160.20000
 21
7.19400
  0
LINE
  8
Kontur
 62
   7
 39
0.100
  6
CONTINUOUS
 10
160.20000
 20
7.19400
 30
 0
 11
160.14600
 21
7.19700
  0
LINE
  8
Kontur
 62
   7
 39
0.100
  6
CONTINUOUS
 10
160.14600
 20
7.19700
 30
 0
 11
160.09200
 21
7.19800
  0
LINE
  8
Kontur
 62
   7
 39
0.100
  6
CONTINUOUS
 10
160.09200
 20
7.19800
 30
 0
 11
159.90800
 21
7.19800
  0
LINE
  8
Kontur
 62
   7
 39
0.100
  6
CONTINUOUS
 10
159.90800
 20
7.19800
 30
 0
 11
159.85300
 21
7.19700
  0
LINE
  8
Kontur
 62
   7
 39
0.100
  6
CONTINUOUS
 10
159.85300
 20
7.19700
 30
 0
 11
159.79900
 21
7.19400
  0
LINE
  8
Kontur
 62
   7
 39
0.100
  6
CONTINUOUS
 10
159.79900
 20
7.19400
 30
 0
 11
159.74500
 21
7.18900
  0
LINE
  8
Kontur
 62
   7
 39
0.100
  6
CONTINUOUS
 10
159.74500
 20
7.18900
 30
 0
 11
159.56200
 21
7.16900
  0
LINE
  8
Kontur
 62
   7
 39
0.100
  6
CONTINUOUS
 10
159.56200
 20
7.16900
 30
 0
 11
159.50800
 21
7.16200
  0
LINE
  8
Kontur
 62
   7
 39
0.100
  6
CONTINUOUS
 10
159.50800
 20
7.16200
 30
 0
 11
159.45400
 21
7.15300
  0
LINE
  8
Kontur
 62
   7
 39
0.100
  6
CONTINUOUS
 10
159.45400
 20
7.15300
 30
 0
 11
159.40000
 21
7.14200
  0
LINE
  8
Kontur
 62
   7
 39
0.100
  6
CONTINUOUS
 10
159.40000
 20
7.14200
 30
 0
 11
159.22000
 21
7.10200
  0
LINE
  8
Kontur
 62
   7
 39
0.100
  6
CONTINUOUS
 10
159.22000
 20
7.10200
 30
 0
 11
159.16600
 21
7.08900
  0
LINE
  8
Kontur
 62
   7
 39
0.100
  6
CONTINUOUS
 10
159.16600
 20
7.08900
 30
 0
 11
159.11400
 21
7.07500
  0
LINE
  8
Kontur
 62
   7
 39
0.100
  6
CONTINUOUS
 10
159.11400
 20
7.07500
 30
 0
 11
159.06300
 21
7.05900
  0
LINE
  8
Kontur
 62
   7
 39
0.100
  6
CONTINUOUS
 10
159.06300
 20
7.05900
 30
 0
 11
158.88900
 21
7.00000
  0
LINE
  8
Kontur
 62
   7
 39
0.100
  6
CONTINUOUS
 10
158.88900
 20
7.00000
 30
 0
 11
158.83800
 21
6.98100
  0
LINE
  8
Kontur
 62
   7
 39
0.100
  6
CONTINUOUS
 10
158.83800
 20
6.98100
 30
 0
 11
158.78700
 21
6.96100
  0
LINE
  8
Kontur
 62
   7
 39
0.100
  6
CONTINUOUS
 10
158.78700
 20
6.96100
 30
 0
 11
158.74300
 21
6.94100
  0
LINE
  8
Kontur
 62
   7
 39
0.100
  6
CONTINUOUS
 10
158.74300
 20
6.94100
 30
 0
 11
158.57600
 21
6.86400
  0
LINE
  8
Kontur
 62
   7
 39
0.100
  6
CONTINUOUS
 10
158.57600
 20
6.86400
 30
 0
 11
158.52700
 21
6.84000
  0
LINE
  8
Kontur
 62
   7
 39
0.100
  6
CONTINUOUS
 10
158.52700
 20
6.84000
 30
 0
 11
158.47800
 21
6.81500
  0
LINE
  8
Kontur
 62
   7
 39
0.100
  6
CONTINUOUS
 10
158.47800
 20
6.81500
 30
 0
 11
158.43100
 21
6.78800
  0
LINE
  8
Kontur
 62
   7
 39
0.100
  6
CONTINUOUS
 10
158.43100
 20
6.78800
 30
 0
 11
158.27300
 21
6.69300
  0
LINE
  8
Kontur
 62
   7
 39
0.100
  6
CONTINUOUS
 10
158.27300
 20
6.69300
 30
 0
 11
158.18100
 21
6.63300
  0
LINE
  8
Kontur
 62
   7
 39
0.100
  6
CONTINUOUS
 10
158.18100
 20
6.63300
 30
 0
 11
158.14200
 21
6.60400
  0
LINE
  8
Kontur
 62
   7
 39
0.100
  6
CONTINUOUS
 10
158.14200
 20
6.60400
 30
 0
 11
157.99500
 21
6.49300
  0
LINE
  8
Kontur
 62
   7
 39
0.100
  6
CONTINUOUS
 10
157.99500
 20
6.49300
 30
 0
 11
157.95200
 21
6.45900
  0
LINE
  8
Kontur
 62
   7
 39
0.100
  6
CONTINUOUS
 10
157.95200
 20
6.45900
 30
 0
 11
157.91000
 21
6.42400
  0
LINE
  8
Kontur
 62
   7
 39
0.100
  6
CONTINUOUS
 10
157.91000
 20
6.42400
 30
 0
 11
157.86300
 21
6.38100
  0
LINE
  8
Kontur
 62
   7
 39
0.100
  6
CONTINUOUS
 10
157.86300
 20
6.38100
 30
 0
 11
157.73000
 21
6.25400
  0
LINE
  8
Kontur
 62
   7
 39
0.100
  6
CONTINUOUS
 10
157.73000
 20
6.25400
 30
 0
 11
157.69100
 21
6.21500
  0
LINE
  8
Kontur
 62
   7
 39
0.100
  6
CONTINUOUS
 10
157.69100
 20
6.21500
 30
 0
 11
157.65400
 21
6.17500
  0
LINE
  8
Kontur
 62
   7
 39
0.100
  6
CONTINUOUS
 10
157.65400
 20
6.17500
 30
 0
 11
157.62300
 21
6.14000
  0
LINE
  8
Kontur
 62
   7
 39
0.100
  6
CONTINUOUS
 10
157.62300
 20
6.14000
 30
 0
 11
157.50400
 21
6.00000
  0
LINE
  8
Kontur
 62
   7
 39
0.100
  6
CONTINUOUS
 10
157.50400
 20
6.00000
 30
 0
 11
157.46900
 21
5.95800
  0
LINE
  8
Kontur
 62
   7
 39
0.100
  6
CONTINUOUS
 10
157.46900
 20
5.95800
 30
 0
 11
157.43600
 21
5.91400
  0
LINE
  8
Kontur
 62
   7
 39
0.100
  6
CONTINUOUS
 10
157.43600
 20
5.91400
 30
 0
 11
157.40600
 21
5.87200
  0
LINE
  8
Kontur
 62
   7
 39
0.100
  6
CONTINUOUS
 10
157.40600
 20
5.87200
 30
 0
 11
157.30200
 21
5.71900
  0
LINE
  8
Kontur
 62
   7
 39
0.100
  6
CONTINUOUS
 10
157.30200
 20
5.71900
 30
 0
 11
157.27300
 21
5.67300
  0
LINE
  8
Kontur
 62
   7
 39
0.100
  6
CONTINUOUS
 10
157.27300
 20
5.67300
 30
 0
 11
157.24400
 21
5.62600
  0
LINE
  8
Kontur
 62
   7
 39
0.100
  6
CONTINUOUS
 10
157.24400
 20
5.62600
 30
 0
 11
157.21800
 21
5.57900
  0
LINE
  8
Kontur
 62
   7
 39
0.100
  6
CONTINUOUS
 10
157.21800
 20
5.57900
 30
 0
 11
157.13200
 21
5.41700
  0
LINE
  8
Kontur
 62
   7
 39
0.100
  6
CONTINUOUS
 10
157.13200
 20
5.41700
 30
 0
 11
157.10700
 21
5.36800
  0
LINE
  8
Kontur
 62
   7
 39
0.100
  6
CONTINUOUS
 10
157.10700
 20
5.36800
 30
 0
 11
157.08400
 21
5.31900
  0
LINE
  8
Kontur
 62
   7
 39
0.100
  6
CONTINUOUS
 10
157.08400
 20
5.31900
 30
 0
 11
157.06300
 21
5.26800
  0
LINE
  8
Kontur
 62
   7
 39
0.100
  6
CONTINUOUS
 10
157.06300
 20
5.26800
 30
 0
 11
156.99500
 21
5.09700
  0
LINE
  8
Kontur
 62
   7
 39
0.100
  6
CONTINUOUS
 10
156.99500
 20
5.09700
 30
 0
 11
156.97600
 21
5.04600
  0
LINE
  8
Kontur
 62
   7
 39
0.100
  6
CONTINUOUS
 10
156.97600
 20
5.04600
 30
 0
 11
156.95800
 21
4.99400
  0
LINE
  8
Kontur
 62
   7
 39
0.100
  6
CONTINUOUS
 10
156.95800
 20
4.99400
 30
 0
 11
156.94300
 21
4.94100
  0
LINE
  8
Kontur
 62
   7
 39
0.100
  6
CONTINUOUS
 10
156.94300
 20
4.94100
 30
 0
 11
156.89400
 21
4.76300
  0
LINE
  8
Kontur
 62
   7
 39
0.100
  6
CONTINUOUS
 10
156.89400
 20
4.76300
 30
 0
 11
156.88000
 21
4.71000
  0
LINE
  8
Kontur
 62
   7
 39
0.100
  6
CONTINUOUS
 10
156.88000
 20
4.71000
 30
 0
 11
156.86900
 21
4.65700
  0
LINE
  8
Kontur
 62
   7
 39
0.100
  6
CONTINUOUS
 10
156.86900
 20
4.65700
 30
 0
 11
156.86000
 21
4.61000
  0
LINE
  8
Kontur
 62
   7
 39
0.100
  6
CONTINUOUS
 10
156.86000
 20
4.61000
 30
 0
 11
156.83000
 21
4.42900
  0
LINE
  8
Kontur
 62
   7
 39
0.100
  6
CONTINUOUS
 10
156.83000
 20
4.42900
 30
 0
 11
156.82200
 21
4.37500
  0
LINE
  8
Kontur
 62
   7
 39
0.100
  6
CONTINUOUS
 10
156.82200
 20
4.37500
 30
 0
 11
156.81600
 21
4.32100
  0
LINE
  8
Kontur
 62
   7
 39
0.100
  6
CONTINUOUS
 10
156.81600
 20
4.32100
 30
 0
 11
156.81200
 21
4.26500
  0
LINE
  8
Kontur
 62
   7
 39
0.100
  6
CONTINUOUS
 10
156.81200
 20
4.26500
 30
 0
 11
156.80200
 21
4.08100
  0
LINE
  8
Kontur
 62
   7
 39
0.100
  6
CONTINUOUS
 10
156.80200
 20
4.08100
 30
 0
 11
156.80000
 21
4.02700
  0
LINE
  8
Kontur
 62
   7
 39
0.100
  6
CONTINUOUS
 10
156.80000
 20
4.02700
 30
 0
 11
156.80000
 21
3.97200
  0
LINE
  8
Kontur
 62
   7
 39
0.100
  6
CONTINUOUS
 10
156.80000
 20
3.97200
 30
 0
 11
156.80200
 21
3.91900
  0
LINE
  8
Kontur
 62
   7
 39
0.100
  6
CONTINUOUS
 10
156.80200
 20
3.91900
 30
 0
 11
156.81200
 21
3.73500
  0
LINE
  8
Kontur
 62
   7
 39
0.100
  6
CONTINUOUS
 10
156.81200
 20
3.73500
 30
 0
 11
156.81600
 21
3.68000
  0
LINE
  8
Kontur
 62
   7
 39
0.100
  6
CONTINUOUS
 10
156.81600
 20
3.68000
 30
 0
 11
156.82200
 21
3.62600
  0
LINE
  8
Kontur
 62
   7
 39
0.100
  6
CONTINUOUS
 10
156.82200
 20
3.62600
 30
 0
 11
156.83000
 21
3.57100
  0
LINE
  8
Kontur
 62
   7
 39
0.100
  6
CONTINUOUS
 10
156.83000
 20
3.57100
 30
 0
 11
156.86000
 21
3.39000
  0
LINE
  8
Kontur
 62
   7
 39
0.100
  6
CONTINUOUS
 10
156.86000
 20
3.39000
 30
 0
 11
156.87000
 21
3.33600
  0
LINE
  8
Kontur
 62
   7
 39
0.100
  6
CONTINUOUS
 10
156.87000
 20
3.33600
 30
 0
 11
156.88200
 21
3.28200
  0
LINE
  8
Kontur
 62
   7
 39
0.100
  6
CONTINUOUS
 10
156.88200
 20
3.28200
 30
 0
 11
156.89400
 21
3.23700
  0
LINE
  8
Kontur
 62
   7
 39
0.100
  6
CONTINUOUS
 10
156.89400
 20
3.23700
 30
 0
 11
156.94300
 21
3.05900
  0
LINE
  8
Kontur
 62
   7
 39
0.100
  6
CONTINUOUS
 10
156.94300
 20
3.05900
 30
 0
 11
156.95800
 21
3.00600
  0
LINE
  8
Kontur
 62
   7
 39
0.100
  6
CONTINUOUS
 10
156.95800
 20
3.00600
 30
 0
 11
156.97600
 21
2.95400
  0
LINE
  8
Kontur
 62
   7
 39
0.100
  6
CONTINUOUS
 10
156.97600
 20
2.95400
 30
 0
 11
156.99500
 21
2.90300
  0
LINE
  8
Kontur
 62
   7
 39
0.100
  6
CONTINUOUS
 10
156.99500
 20
2.90300
 30
 0
 11
157.06300
 21
2.73200
  0
LINE
  8
Kontur
 62
   7
 39
0.100
  6
CONTINUOUS
 10
157.06300
 20
2.73200
 30
 0
 11
157.08400
 21
2.68100
  0
LINE
  8
Kontur
 62
   7
 39
0.100
  6
CONTINUOUS
 10
157.08400
 20
2.68100
 30
 0
 11
157.10700
 21
2.63200
  0
LINE
  8
Kontur
 62
   7
 39
0.100
  6
CONTINUOUS
 10
157.10700
 20
2.63200
 30
 0
 11
157.13200
 21
2.58300
  0
LINE
  8
Kontur
 62
   7
 39
0.100
  6
CONTINUOUS
 10
157.13200
 20
2.58300
 30
 0
 11
157.21800
 21
2.42100
  0
LINE
  8
Kontur
 62
   7
 39
0.100
  6
CONTINUOUS
 10
157.21800
 20
2.42100
 30
 0
 11
157.24500
 21
2.37300
  0
LINE
  8
Kontur
 62
   7
 39
0.100
  6
CONTINUOUS
 10
157.24500
 20
2.37300
 30
 0
 11
157.27300
 21
2.32600
  0
LINE
  8
Kontur
 62
   7
 39
0.100
  6
CONTINUOUS
 10
157.27300
 20
2.32600
 30
 0
 11
157.30200
 21
2.28100
  0
LINE
  8
Kontur
 62
   7
 39
0.100
  6
CONTINUOUS
 10
157.30200
 20
2.28100
 30
 0
 11
157.40600
 21
2.12800
  0
LINE
  8
Kontur
 62
   7
 39
0.100
  6
CONTINUOUS
 10
157.40600
 20
2.12800
 30
 0
 11
157.43800
 21
2.08300
  0
LINE
  8
Kontur
 62
   7
 39
0.100
  6
CONTINUOUS
 10
157.43800
 20
2.08300
 30
 0
 11
157.47100
 21
2.03900
  0
LINE
  8
Kontur
 62
   7
 39
0.100
  6
CONTINUOUS
 10
157.47100
 20
2.03900
 30
 0
 11
157.50400
 21
2.00000
  0
LINE
  8
Kontur
 62
   7
 39
0.100
  6
CONTINUOUS
 10
157.50400
 20
2.00000
 30
 0
 11
157.62300
 21
1.86000
  0
LINE
  8
Kontur
 62
   7
 39
0.100
  6
CONTINUOUS
 10
157.62300
 20
1.86000
 30
 0
 11
157.65900
 21
1.81800
  0
LINE
  8
Kontur
 62
   7
 39
0.100
  6
CONTINUOUS
 10
157.65900
 20
1.81800
 30
 0
 11
157.69700
 21
1.77900
  0
LINE
  8
Kontur
 62
   7
 39
0.100
  6
CONTINUOUS
 10
157.69700
 20
1.77900
 30
 0
 11
157.73000
 21
1.74600
  0
LINE
  8
Kontur
 62
   7
 39
0.100
  6
CONTINUOUS
 10
157.73000
 20
1.74600
 30
 0
 11
157.86300
 21
1.61900
  0
LINE
  8
Kontur
 62
   7
 39
0.100
  6
CONTINUOUS
 10
157.86300
 20
1.61900
 30
 0
 11
157.90300
 21
1.58200
  0
LINE
  8
Kontur
 62
   7
 39
0.100
  6
CONTINUOUS
 10
157.90300
 20
1.58200
 30
 0
 11
157.94500
 21
1.54600
  0
LINE
  8
Kontur
 62
   7
 39
0.100
  6
CONTINUOUS
 10
157.94500
 20
1.54600
 30
 0
 11
157.99500
 21
1.50700
  0
LINE
  8
Kontur
 62
   7
 39
0.100
  6
CONTINUOUS
 10
157.99500
 20
1.50700
 30
 0
 11
158.14200
 21
1.39600
  0
LINE
  8
Kontur
 62
   7
 39
0.100
  6
CONTINUOUS
 10
158.14200
 20
1.39600
 30
 0
 11
158.18600
 21
1.36400
  0
LINE
  8
Kontur
 62
   7
 39
0.100
  6
CONTINUOUS
 10
158.18600
 20
1.36400
 30
 0
 11
158.23200
 21
1.33300
  0
LINE
  8
Kontur
 62
   7
 39
0.100
  6
CONTINUOUS
 10
158.23200
 20
1.33300
 30
 0
 11
158.27300
 21
1.30700
  0
LINE
  8
Kontur
 62
   7
 39
0.100
  6
CONTINUOUS
 10
158.27300
 20
1.30700
 30
 0
 11
158.43100
 21
1.21200
  0
LINE
  8
Kontur
 62
   7
 39
0.100
  6
CONTINUOUS
 10
158.43100
 20
1.21200
 30
 0
 11
158.47900
 21
1.18500
  0
LINE
  8
Kontur
 62
   7
 39
0.100
  6
CONTINUOUS
 10
158.47900
 20
1.18500
 30
 0
 11
158.52700
 21
1.16000
  0
LINE
  8
Kontur
 62
   7
 39
0.100
  6
CONTINUOUS
 10
158.52700
 20
1.16000
 30
 0
 11
158.57600
 21
1.13600
  0
LINE
  8
Kontur
 62
   7
 39
0.100
  6
CONTINUOUS
 10
158.57600
 20
1.13600
 30
 0
 11
158.74300
 21
1.05900
  0
LINE
  8
Kontur
 62
   7
 39
0.100
  6
CONTINUOUS
 10
158.74300
 20
1.05900
 30
 0
 11
158.79300
 21
1.03700
  0
LINE
  8
Kontur
 62
   7
 39
0.100
  6
CONTINUOUS
 10
158.79300
 20
1.03700
 30
 0
 11
158.84400
 21
1.01700
  0
LINE
  8
Kontur
 62
   7
 39
0.100
  6
CONTINUOUS
 10
158.84400
 20
1.01700
 30
 0
 11
158.88900
 21
1.00000
  0
LINE
  8
Kontur
 62
   7
 39
0.100
  6
CONTINUOUS
 10
158.88900
 20
1.00000
 30
 0
 11
159.06300
 21
0.94100
  0
LINE
  8
Kontur
 62
   7
 39
0.100
  6
CONTINUOUS
 10
159.06300
 20
0.94100
 30
 0
 11
159.11500
 21
0.92500
  0
LINE
  8
Kontur
 62
   7
 39
0.100
  6
CONTINUOUS
 10
159.11500
 20
0.92500
 30
 0
 11
159.16800
 21
0.91000
  0
LINE
  8
Kontur
 62
   7
 39
0.100
  6
CONTINUOUS
 10
159.16800
 20
0.91000
 30
 0
 11
159.22000
 21
0.89800
  0
LINE
  8
Kontur
 62
   7
 39
0.100
  6
CONTINUOUS
 10
159.22000
 20
0.89800
 30
 0
 11
159.40000
 21
0.85800
  0
LINE
  8
Kontur
 62
   7
 39
0.100
  6
CONTINUOUS
 10
159.40000
 20
0.85800
 30
 0
 11
159.45300
 21
0.84700
  0
LINE
  8
Kontur
 62
   7
 39
0.100
  6
CONTINUOUS
 10
159.45300
 20
0.84700
 30
 0
 11
159.50700
 21
0.83800
  0
LINE
  8
Kontur
 62
   7
 39
0.100
  6
CONTINUOUS
 10
159.50700
 20
0.83800
 30
 0
 11
159.56200
 21
0.83100
  0
LINE
  8
Kontur
 62
   7
 39
0.100
  6
CONTINUOUS
 10
159.56200
 20
0.83100
 30
 0
 11
159.74500
 21
0.81100
  0
LINE
  8
Kontur
 62
   7
 39
0.100
  6
CONTINUOUS
 10
159.74500
 20
0.81100
 30
 0
 11
159.80000
 21
0.80600
  0
LINE
  8
Kontur
 62
   7
 39
0.100
  6
CONTINUOUS
 10
159.80000
 20
0.80600
 30
 0
 11
159.85400
 21
0.80300
  0
LINE
  8
Kontur
 62
   7
 39
0.100
  6
CONTINUOUS
 10
159.85400
 20
0.80300
 30
 0
 11
159.90800
 21
0.80200
  0
LINE
  8
Kontur
 62
   7
 39
0.100
  6
CONTINUOUS
 10
159.90800
 20
0.80200
 30
 0
 11
160.09200
 21
0.80200
  0
LINE
  8
Kontur
 62
   7
 39
0.100
  6
CONTINUOUS
 10
160.09200
 20
0.80200
 30
 0
 11
160.14700
 21
0.80300
  0
CIRCLE
  8
Kontur
 62
   7
 39
0.100
  6
CONTINUOUS
 10
160.00000
 20
4.00000
 30
 0
 40
1.70000
  0
LINE
  8
Kontur
 62
   7
 39
0.100
  6
CONTINUOUS
 10
4.14700
 20
0.80300
 30
 0
 11
4.20100
 21
0.80600
  0
LINE
  8
Kontur
 62
   7
 39
0.100
  6
CONTINUOUS
 10
4.20100
 20
0.80600
 30
 0
 11
4.25500
 21
0.81100
  0
LINE
  8
Kontur
 62
   7
 39
0.100
  6
CONTINUOUS
 10
4.25500
 20
0.81100
 30
 0
 11
4.43800
 21
0.83100
  0
LINE
  8
Kontur
 62
   7
 39
0.100
  6
CONTINUOUS
 10
4.43800
 20
0.83100
 30
 0
 11
4.49200
 21
0.83800
  0
LINE
  8
Kontur
 62
   7
 39
0.100
  6
CONTINUOUS
 10
4.49200
 20
0.83800
 30
 0
 11
4.54600
 21
0.84700
  0
LINE
  8
Kontur
 62
   7
 39
0.100
  6
CONTINUOUS
 10
4.54600
 20
0.84700
 30
 0
 11
4.60000
 21
0.85800
  0
LINE
  8
Kontur
 62
   7
 39
0.100
  6
CONTINUOUS
 10
4.60000
 20
0.85800
 30
 0
 11
4.78000
 21
0.89800
  0
LINE
  8
Kontur
 62
   7
 39
0.100
  6
CONTINUOUS
 10
4.78000
 20
0.89800
 30
 0
 11
4.83400
 21
0.91100
  0
LINE
  8
Kontur
 62
   7
 39
0.100
  6
CONTINUOUS
 10
4.83400
 20
0.91100
 30
 0
 11
4.88600
 21
0.92500
  0
LINE
  8
Kontur
 62
   7
 39
0.100
  6
CONTINUOUS
 10
4.88600
 20
0.92500
 30
 0
 11
4.93700
 21
0.94100
  0
LINE
  8
Kontur
 62
   7
 39
0.100
  6
CONTINUOUS
 10
4.93700
 20
0.94100
 30
 0
 11
5.11100
 21
1.00000
  0
LINE
  8
Kontur
 62
   7
 39
0.100
  6
CONTINUOUS
 10
5.11100
 20
1.00000
 30
 0
 11
5.16200
 21
1.01900
  0
LINE
  8
Kontur
 62
   7
 39
0.100
  6
CONTINUOUS
 10
5.16200
 20
1.01900
 30
 0
 11
5.21300
 21
1.03900
  0
LINE
  8
Kontur
 62
   7
 39
0.100
  6
CONTINUOUS
 10
5.21300
 20
1.03900
 30
 0
 11
5.25700
 21
1.05900
  0
LINE
  8
Kontur
 62
   7
 39
0.100
  6
CONTINUOUS
 10
5.25700
 20
1.05900
 30
 0
 11
5.42400
 21
1.13600
  0
LINE
  8
Kontur
 62
   7
 39
0.100
  6
CONTINUOUS
 10
5.42400
 20
1.13600
 30
 0
 11
5.47300
 21
1.16000
  0
LINE
  8
Kontur
 62
   7
 39
0.100
  6
CONTINUOUS
 10
5.47300
 20
1.16000
 30
 0
 11
5.52200
 21
1.18500
  0
LINE
  8
Kontur
 62
   7
 39
0.100
  6
CONTINUOUS
 10
5.52200
 20
1.18500
 30
 0
 11
5.56900
 21
1.21200
  0
LINE
  8
Kontur
 62
   7
 39
0.100
  6
CONTINUOUS
 10
5.56900
 20
1.21200
 30
 0
 11
5.72700
 21
1.30700
  0
LINE
  8
Kontur
 62
   7
 39
0.100
  6
CONTINUOUS
 10
5.72700
 20
1.30700
 30
 0
 11
5.81900
 21
1.36700
  0
LINE
  8
Kontur
 62
   7
 39
0.100
  6
CONTINUOUS
 10
5.81900
 20
1.36700
 30
 0
 11
5.85800
 21
1.39600
  0
LINE
  8
Kontur
 62
   7
 39
0.100
  6
CONTINUOUS
 10
5.85800
 20
1.39600
 30
 0
 11
6.00500
 21
1.50700
  0
LINE
  8
Kontur
 62
   7
 39
0.100
  6
CONTINUOUS
 10
6.00500
 20
1.50700
 30
 0
 11
6.04800
 21
1.54100
  0
LINE
  8
Kontur
 62
   7
 39
0.100
  6
CONTINUOUS
 10
6.04800
 20
1.54100
 30
 0
 11
6.09000
 21
1.57600
  0
LINE
  8
Kontur
 62
   7
 39
0.100
  6
CONTINUOUS
 10
6.09000
 20
1.57600
 30
 0
 11
6.13700
 21
1.61900
  0
LINE
  8
Kontur
 62
   7
 39
0.100
  6
CONTINUOUS
 10
6.13700
 20
1.61900
 30
 0
 11
6.27000
 21
1.74600
  0
LINE
  8
Kontur
 62
   7
 39
0.100
  6
CONTINUOUS
 10
6.27000
 20
1.74600
 30
 0
 11
6.30900
 21
1.78500
  0
LINE
  8
Kontur
 62
   7
 39
0.100
  6
CONTINUOUS
 10
6.30900
 20
1.78500
 30
 0
 11
6.34600
 21
1.82500
  0
LINE
  8
Kontur
 62
   7
 39
0.100
  6
CONTINUOUS
 10
6.34600
 20
1.82500
 30
 0
 11
6.37700
 21
1.86000
  0
LINE
  8
Kontur
 62
   7
 39
0.100
  6
CONTINUOUS
 10
6.37700
 20
1.86000
 30
 0
 11
6.49600
 21
2.00000
  0
LINE
  8
Kontur
 62
   7
 39
0.100
  6
CONTINUOUS
 10
6.49600
 20
2.00000
 30
 0
 11
6.53100
 21
2.04200
  0
LINE
  8
Kontur
 62
   7
 39
0.100
  6
CONTINUOUS
 10
6.53100
 20
2.04200
 30
 0
 11
6.56400
 21
2.08600
  0
LINE
  8
Kontur
 62
   7
 39
0.100
  6
CONTINUOUS
 10
6.56400
 20
2.08600
 30
 0
 11
6.59400
 21
2.12800
  0
LINE
  8
Kontur
 62
   7
 39
0.100
  6
CONTINUOUS
 10
6.59400
 20
2.12800
 30
 0
 11
6.69800
 21
2.28100
  0
LINE
  8
Kontur
 62
   7
 39
0.100
  6
CONTINUOUS
 10
6.69800
 20
2.28100
 30
 0
 11
6.72700
 21
2.32700
  0
LINE
  8
Kontur
 62
   7
 39
0.100
  6
CONTINUOUS
 10
6.72700
 20
2.32700
 30
 0
 11
6.75600
 21
2.37400
  0
LINE
  8
Kontur
 62
   7
 39
0.100
  6
CONTINUOUS
 10
6.75600
 20
2.37400
 30
 0
 11
6.78200
 21
2.42100
  0
LINE
  8
Kontur
 62
   7
 39
0.100
  6
CONTINUOUS
 10
6.78200
 20
2.42100
 30
 0
 11
6.86800
 21
2.58300
  0
LINE
  8
Kontur
 62
   7
 39
0.100
  6
CONTINUOUS
 10
6.86800
 20
2.58300
 30
 0
 11
6.89300
 21
2.63200
  0
LINE
  8
Kontur
 62
   7
 39
0.100
  6
CONTINUOUS
 10
6.89300
 20
2.63200
 30
 0
 11
6.91600
 21
2.68100
  0
LINE
  8
Kontur
 62
   7
 39
0.100
  6
CONTINUOUS
 10
6.91600
 20
2.68100
 30
 0
 11
6.93700
 21
2.73200
  0
LINE
  8
Kontur
 62
   7
 39
0.100
  6
CONTINUOUS
 10
6.93700
 20
2.73200
 30
 0
 11
7.00500
 21
2.90300
  0
LINE
  8
Kontur
 62
   7
 39
0.100
  6
CONTINUOUS
 10
7.00500
 20
2.90300
 30
 0
 11
7.02400
 21
2.95400
  0
LINE
  8
Kontur
 62
   7
 39
0.100
  6
CONTINUOUS
 10
7.02400
 20
2.95400
 30
 0
 11
7.04200
 21
3.00600
  0
LINE
  8
Kontur
 62
   7
 39
0.100
  6
CONTINUOUS
 10
7.04200
 20
3.00600
 30
 0
 11
7.05700
 21
3.05900
  0
LINE
  8
Kontur
 62
   7
 39
0.100
  6
CONTINUOUS
 10
7.05700
 20
3.05900
 30
 0
 11
7.10600
 21
3.23700
  0
LINE
  8
Kontur
 62
   7
 39
0.100
  6
CONTINUOUS
 10
7.10600
 20
3.23700
 30
 0
 11
7.12000
 21
3.29000
  0
LINE
  8
Kontur
 62
   7
 39
0.100
  6
CONTINUOUS
 10
7.12000
 20
3.29000
 30
 0
 11
7.13100
 21
3.34300
  0
LINE
  8
Kontur
 62
   7
 39
0.100
  6
CONTINUOUS
 10
7.13100
 20
3.34300
 30
 0
 11
7.14000
 21
3.39000
  0
LINE
  8
Kontur
 62
   7
 39
0.100
  6
CONTINUOUS
 10
7.14000
 20
3.39000
 30
 0
 11
7.17000
 21
3.57100
  0
LINE
  8
Kontur
 62
   7
 39
0.100
  6
CONTINUOUS
 10
7.17000
 20
3.57100
 30
 0
 11
7.17800
 21
3.62500
  0
LINE
  8
Kontur
 62
   7
 39
0.100
  6
CONTINUOUS
 10
7.17800
 20
3.62500
 30
 0
 11
7.18400
 21
3.67900
  0
LINE
  8
Kontur
 62
   7
 39
0.100
  6
CONTINUOUS
 10
7.18400
 20
3.67900
 30
 0
 11
7.18800
 21
3.73500
  0
LINE
  8
Kontur
 62
   7
 39
0.100
  6
CONTINUOUS
 10
7.18800
 20
3.73500
 30
 0
 11
7.19800
 21
3.91900
  0
LINE
  8
Kontur
 62
   7
 39
0.100
  6
CONTINUOUS
 10
7.19800
 20
3.91900
 30
 0
 11
7.20000
 21
3.97300
  0
LINE
  8
Kontur
 62
   7
 39
0.100
  6
CONTINUOUS
 10
7.20000
 20
3.97300
 30
 0
 11
7.20000
 21
4.02800
  0
LINE
  8
Kontur
 62
   7
 39
0.100
  6
CONTINUOUS
 10
7.20000
 20
4.02800
 30
 0
 11
7.19800
 21
4.08100
  0
LINE
  8
Kontur
 62
   7
 39
0.100
  6
CONTINUOUS
 10
7.19800
 20
4.08100
 30
 0
 11
7.18800
 21
4.26500
  0
LINE
  8
Kontur
 62
   7
 39
0.100
  6
CONTINUOUS
 10
7.18800
 20
4.26500
 30
 0
 11
7.18400
 21
4.32000
  0
LINE
  8
Kontur
 62
   7
 39
0.100
  6
CONTINUOUS
 10
7.18400
 20
4.32000
 30
 0
 11
7.17800
 21
4.37400
  0
LINE
  8
Kontur
 62
   7
 39
0.100
  6
CONTINUOUS
 10
7.17800
 20
4.37400
 30
 0
 11
7.17000
 21
4.42900
  0
LINE
  8
Kontur
 62
   7
 39
0.100
  6
CONTINUOUS
 10
7.17000
 20
4.42900
 30
 0
 11
7.14000
 21
4.61000
  0
LINE
  8
Kontur
 62
   7
 39
0.100
  6
CONTINUOUS
 10
7.14000
 20
4.61000
 30
 0
 11
7.13000
 21
4.66400
  0
LINE
  8
Kontur
 62
   7
 39
0.100
  6
CONTINUOUS
 10
7.13000
 20
4.66400
 30
 0
 11
7.11800
 21
4.71800
  0
LINE
  8
Kontur
 62
   7
 39
0.100
  6
CONTINUOUS
 10
7.11800
 20
4.71800
 30
 0
 11
7.10600
 21
4.76300
  0
LINE
  8
Kontur
 62
   7
 39
0.100
  6
CONTINUOUS
 10
7.10600
 20
4.76300
 30
 0
 11
7.05700
 21
4.94100
  0
LINE
  8
Kontur
 62
   7
 39
0.100
  6
CONTINUOUS
 10
7.05700
 20
4.94100
 30
 0
 11
7.04200
 21
4.99400
  0
LINE
  8
Kontur
 62
   7
 39
0.100
  6
CONTINUOUS
 10
7.04200
 20
4.99400
 30
 0
 11
7.02400
 21
5.04600
  0
LINE
  8
Kontur
 62
   7
 39
0.100
  6
CONTINUOUS
 10
7.02400
 20
5.04600
 30
 0
 11
7.00500
 21
5.09700
  0
LINE
  8
Kontur
 62
   7
 39
0.100
  6
CONTINUOUS
 10
7.00500
 20
5.09700
 30
 0
 11
6.93700
 21
5.26800
  0
LINE
  8
Kontur
 62
   7
 39
0.100
  6
CONTINUOUS
 10
6.93700
 20
5.26800
 30
 0
 11
6.91600
 21
5.31900
  0
LINE
  8
Kontur
 62
   7
 39
0.100
  6
CONTINUOUS
 10
6.91600
 20
5.31900
 30
 0
 11
6.89300
 21
5.36800
  0
LINE
  8
Kontur
 62
   7
 39
0.100
  6
CONTINUOUS
 10
6.89300
 20
5.36800
 30
 0
 11
6.86800
 21
5.41700
  0
LINE
  8
Kontur
 62
   7
 39
0.100
  6
CONTINUOUS
 10
6.86800
 20
5.41700
 30
 0
 11
6.78200
 21
5.57900
  0
LINE
  8
Kontur
 62
   7
 39
0.100
  6
CONTINUOUS
 10
6.78200
 20
5.57900
 30
 0
 11
6.75500
 21
5.62700
  0
LINE
  8
Kontur
 62
   7
 39
0.100
  6
CONTINUOUS
 10
6.75500
 20
5.62700
 30
 0
 11
6.72700
 21
5.67400
  0
LINE
  8
Kontur
 62
   7
 39
0.100
  6
CONTINUOUS
 10
6.72700
 20
5.67400
 30
 0
 11
6.69800
 21
5.71900
  0
LINE
  8
Kontur
 62
   7
 39
0.100
  6
CONTINUOUS
 10
6.69800
 20
5.71900
 30
 0
 11
6.59400
 21
5.87200
  0
LINE
  8
Kontur
 62
   7
 39
0.100
  6
CONTINUOUS
 10
6.59400
 20
5.87200
 30
 0
 11
6.56200
 21
5.91700
  0
LINE
  8
Kontur
 62
   7
 39
0.100
  6
CONTINUOUS
 10
6.56200
 20
5.91700
 30
 0
 11
6.52900
 21
5.96100
  0
LINE
  8
Kontur
 62
   7
 39
0.100
  6
CONTINUOUS
 10
6.52900
 20
5.96100
 30
 0
 11
6.49600
 21
6.00000
  0
LINE
  8
Kontur
 62
   7
 39
0.100
  6
CONTINUOUS
 10
6.49600
 20
6.00000
 30
 0
 11
6.37700
 21
6.14000
  0
LINE
  8
Kontur
 62
   7
 39
0.100
  6
CONTINUOUS
 10
6.37700
 20
6.14000
 30
 0
 11
6.34100
 21
6.18200
  0
LINE
  8
Kontur
 62
   7
 39
0.100
  6
CONTINUOUS
 10
6.34100
 20
6.18200
 30
 0
 11
6.30300
 21
6.22100
  0
LINE
  8
Kontur
 62
   7
 39
0.100
  6
CONTINUOUS
 10
6.30300
 20
6.22100
 30
 0
 11
6.27000
 21
6.25400
  0
LINE
  8
Kontur
 62
   7
 39
0.100
  6
CONTINUOUS
 10
6.27000
 20
6.25400
 30
 0
 11
6.13700
 21
6.38100
  0
LINE
  8
Kontur
 62
   7
 39
0.100
  6
CONTINUOUS
 10
6.13700
 20
6.38100
 30
 0
 11
6.09700
 21
6.41800
  0
LINE
  8
Kontur
 62
   7
 39
0.100
  6
CONTINUOUS
 10
6.09700
 20
6.41800
 30
 0
 11
6.05500
 21
6.45400
  0
LINE
  8
Kontur
 62
   7
 39
0.100
  6
CONTINUOUS
 10
6.05500
 20
6.45400
 30
 0
 11
6.00500
 21
6.49300
  0
LINE
  8
Kontur
 62
   7
 39
0.100
  6
CONTINUOUS
 10
6.00500
 20
6.49300
 30
 0
 11
5.85800
 21
6.60400
  0
LINE
  8
Kontur
 62
   7
 39
0.100
  6
CONTINUOUS
 10
5.85800
 20
6.60400
 30
 0
 11
5.81400
 21
6.63600
  0
LINE
  8
Kontur
 62
   7
 39
0.100
  6
CONTINUOUS
 10
5.81400
 20
6.63600
 30
 0
 11
5.76800
 21
6.66700
  0
LINE
  8
Kontur
 62
   7
 39
0.100
  6
CONTINUOUS
 10
5.76800
 20
6.66700
 30
 0
 11
5.72700
 21
6.69300
  0
LINE
  8
Kontur
 62
   7
 39
0.100
  6
CONTINUOUS
 10
5.72700
 20
6.69300
 30
 0
 11
5.56900
 21
6.78800
  0
LINE
  8
Kontur
 62
   7
 39
0.100
  6
CONTINUOUS
 10
5.56900
 20
6.78800
 30
 0
 11
5.52100
 21
6.81500
  0
LINE
  8
Kontur
 62
   7
 39
0.100
  6
CONTINUOUS
 10
5.52100
 20
6.81500
 30
 0
 11
5.47300
 21
6.84000
  0
LINE
  8
Kontur
 62
   7
 39
0.100
  6
CONTINUOUS
 10
5.47300
 20
6.84000
 30
 0
 11
5.42400
 21
6.86400
  0
LINE
  8
Kontur
 62
   7
 39
0.100
  6
CONTINUOUS
 10
5.42400
 20
6.86400
 30
 0
 11
5.25700
 21
6.94100
  0
LINE
  8
Kontur
 62
   7
 39
0.100
  6
CONTINUOUS
 10
5.25700
 20
6.94100
 30
 0
 11
5.20700
 21
6.96300
  0
LINE
  8
Kontur
 62
   7
 39
0.100
  6
CONTINUOUS
 10
5.20700
 20
6.96300
 30
 0
 11
5.15600
 21
6.98300
  0
LINE
  8
Kontur
 62
   7
 39
0.100
  6
CONTINUOUS
 10
5.15600
 20
6.98300
 30
 0
 11
5.11100
 21
7.00000
  0
LINE
  8
Kontur
 62
   7
 39
0.100
  6
CONTINUOUS
 10
5.11100
 20
7.00000
 30
 0
 11
4.93700
 21
7.05900
  0
LINE
  8
Kontur
 62
   7
 39
0.100
  6
CONTINUOUS
 10
4.93700
 20
7.05900
 30
 0
 11
4.88500
 21
7.07500
  0
LINE
  8
Kontur
 62
   7
 39
0.100
  6
CONTINUOUS
 10
4.88500
 20
7.07500
 30
 0
 11
4.83200
 21
7.09000
  0
LINE
  8
Kontur
 62
   7
 39
0.100
  6
CONTINUOUS
 10
4.83200
 20
7.09000
 30
 0
 11
4.78000
 21
7.10200
  0
LINE
  8
Kontur
 62
   7
 39
0.100
  6
CONTINUOUS
 10
4.78000
 20
7.10200
 30
 0
 11
4.60000
 21
7.14200
  0
LINE
  8
Kontur
 62
   7
 39
0.100
  6
CONTINUOUS
 10
4.60000
 20
7.14200
 30
 0
 11
4.54700
 21
7.15300
  0
LINE
  8
Kontur
 62
   7
 39
0.100
  6
CONTINUOUS
 10
4.54700
 20
7.15300
 30
 0
 11
4.49300
 21
7.16200
  0
LINE
  8
Kontur
 62
   7
 39
0.100
  6
CONTINUOUS
 10
4.49300
 20
7.16200
 30
 0
 11
4.43800
 21
7.16900
  0
LINE
  8
Kontur
 62
   7
 39
0.100
  6
CONTINUOUS
 10
4.43800
 20
7.16900
 30
 0
 11
4.25500
 21
7.18900
  0
LINE
  8
Kontur
 62
   7
 39
0.100
  6
CONTINUOUS
 10
4.25500
 20
7.18900
 30
 0
 11
4.20000
 21
7.19400
  0
LINE
  8
Kontur
 62
   7
 39
0.100
  6
CONTINUOUS
 10
4.20000
 20
7.19400
 30
 0
 11
4.14600
 21
7.19700
  0
LINE
  8
Kontur
 62
   7
 39
0.100
  6
CONTINUOUS
 10
4.14600
 20
7.19700
 30
 0
 11
4.09200
 21
7.19800
  0
LINE
  8
Kontur
 62
   7
 39
0.100
  6
CONTINUOUS
 10
4.09200
 20
7.19800
 30
 0
 11
3.90800
 21
7.19800
  0
LINE
  8
Kontur
 62
   7
 39
0.100
  6
CONTINUOUS
 10
3.90800
 20
7.19800
 30
 0
 11
3.85300
 21
7.19700
  0
LINE
  8
Kontur
 62
   7
 39
0.100
  6
CONTINUOUS
 10
3.85300
 20
7.19700
 30
 0
 11
3.79900
 21
7.19400
  0
LINE
  8
Kontur
 62
   7
 39
0.100
  6
CONTINUOUS
 10
3.79900
 20
7.19400
 30
 0
 11
3.74500
 21
7.18900
  0
LINE
  8
Kontur
 62
   7
 39
0.100
  6
CONTINUOUS
 10
3.74500
 20
7.18900
 30
 0
 11
3.56200
 21
7.16900
  0
LINE
  8
Kontur
 62
   7
 39
0.100
  6
CONTINUOUS
 10
3.56200
 20
7.16900
 30
 0
 11
3.50800
 21
7.16200
  0
LINE
  8
Kontur
 62
   7
 39
0.100
  6
CONTINUOUS
 10
3.50800
 20
7.16200
 30
 0
 11
3.45400
 21
7.15300
  0
LINE
  8
Kontur
 62
   7
 39
0.100
  6
CONTINUOUS
 10
3.45400
 20
7.15300
 30
 0
 11
3.40000
 21
7.14200
  0
LINE
  8
Kontur
 62
   7
 39
0.100
  6
CONTINUOUS
 10
3.40000
 20
7.14200
 30
 0
 11
3.22000
 21
7.10200
  0
LINE
  8
Kontur
 62
   7
 39
0.100
  6
CONTINUOUS
 10
3.22000
 20
7.10200
 30
 0
 11
3.16600
 21
7.08900
  0
LINE
  8
Kontur
 62
   7
 39
0.100
  6
CONTINUOUS
 10
3.16600
 20
7.08900
 30
 0
 11
3.11400
 21
7.07500
  0
LINE
  8
Kontur
 62
   7
 39
0.100
  6
CONTINUOUS
 10
3.11400
 20
7.07500
 30
 0
 11
3.06300
 21
7.05900
  0
LINE
  8
Kontur
 62
   7
 39
0.100
  6
CONTINUOUS
 10
3.06300
 20
7.05900
 30
 0
 11
2.88900
 21
7.00000
  0
LINE
  8
Kontur
 62
   7
 39
0.100
  6
CONTINUOUS
 10
2.88900
 20
7.00000
 30
 0
 11
2.83800
 21
6.98100
  0
LINE
  8
Kontur
 62
   7
 39
0.100
  6
CONTINUOUS
 10
2.83800
 20
6.98100
 30
 0
 11
2.78700
 21
6.96100
  0
LINE
  8
Kontur
 62
   7
 39
0.100
  6
CONTINUOUS
 10
2.78700
 20
6.96100
 30
 0
 11
2.74300
 21
6.94100
  0
LINE
  8
Kontur
 62
   7
 39
0.100
  6
CONTINUOUS
 10
2.74300
 20
6.94100
 30
 0
 11
2.57600
 21
6.86400
  0
LINE
  8
Kontur
 62
   7
 39
0.100
  6
CONTINUOUS
 10
2.57600
 20
6.86400
 30
 0
 11
2.52700
 21
6.84000
  0
LINE
  8
Kontur
 62
   7
 39
0.100
  6
CONTINUOUS
 10
2.52700
 20
6.84000
 30
 0
 11
2.47800
 21
6.81500
  0
LINE
  8
Kontur
 62
   7
 39
0.100
  6
CONTINUOUS
 10
2.47800
 20
6.81500
 30
 0
 11
2.43100
 21
6.78800
  0
LINE
  8
Kontur
 62
   7
 39
0.100
  6
CONTINUOUS
 10
2.43100
 20
6.78800
 30
 0
 11
2.27300
 21
6.69300
  0
LINE
  8
Kontur
 62
   7
 39
0.100
  6
CONTINUOUS
 10
2.27300
 20
6.69300
 30
 0
 11
2.18100
 21
6.63300
  0
LINE
  8
Kontur
 62
   7
 39
0.100
  6
CONTINUOUS
 10
2.18100
 20
6.63300
 30
 0
 11
2.14200
 21
6.60400
  0
LINE
  8
Kontur
 62
   7
 39
0.100
  6
CONTINUOUS
 10
2.14200
 20
6.60400
 30
 0
 11
1.99500
 21
6.49300
  0
LINE
  8
Kontur
 62
   7
 39
0.100
  6
CONTINUOUS
 10
1.99500
 20
6.49300
 30
 0
 11
1.95200
 21
6.45900
  0
LINE
  8
Kontur
 62
   7
 39
0.100
  6
CONTINUOUS
 10
1.95200
 20
6.45900
 30
 0
 11
1.91000
 21
6.42400
  0
LINE
  8
Kontur
 62
   7
 39
0.100
  6
CONTINUOUS
 10
1.91000
 20
6.42400
 30
 0
 11
1.86300
 21
6.38100
  0
LINE
  8
Kontur
 62
   7
 39
0.100
  6
CONTINUOUS
 10
1.86300
 20
6.38100
 30
 0
 11
1.73000
 21
6.25400
  0
LINE
  8
Kontur
 62
   7
 39
0.100
  6
CONTINUOUS
 10
1.73000
 20
6.25400
 30
 0
 11
1.69100
 21
6.21500
  0
LINE
  8
Kontur
 62
   7
 39
0.100
  6
CONTINUOUS
 10
1.69100
 20
6.21500
 30
 0
 11
1.65400
 21
6.17500
  0
LINE
  8
Kontur
 62
   7
 39
0.100
  6
CONTINUOUS
 10
1.65400
 20
6.17500
 30
 0
 11
1.62300
 21
6.14000
  0
LINE
  8
Kontur
 62
   7
 39
0.100
  6
CONTINUOUS
 10
1.62300
 20
6.14000
 30
 0
 11
1.50400
 21
6.00000
  0
LINE
  8
Kontur
 62
   7
 39
0.100
  6
CONTINUOUS
 10
1.50400
 20
6.00000
 30
 0
 11
1.46900
 21
5.95800
  0
LINE
  8
Kontur
 62
   7
 39
0.100
  6
CONTINUOUS
 10
1.46900
 20
5.95800
 30
 0
 11
1.43600
 21
5.91400
  0
LINE
  8
Kontur
 62
   7
 39
0.100
  6
CONTINUOUS
 10
1.43600
 20
5.91400
 30
 0
 11
1.40600
 21
5.87200
  0
LINE
  8
Kontur
 62
   7
 39
0.100
  6
CONTINUOUS
 10
1.40600
 20
5.87200
 30
 0
 11
1.30200
 21
5.71900
  0
LINE
  8
Kontur
 62
   7
 39
0.100
  6
CONTINUOUS
 10
1.30200
 20
5.71900
 30
 0
 11
1.27300
 21
5.67300
  0
LINE
  8
Kontur
 62
   7
 39
0.100
  6
CONTINUOUS
 10
1.27300
 20
5.67300
 30
 0
 11
1.24400
 21
5.62600
  0
LINE
  8
Kontur
 62
   7
 39
0.100
  6
CONTINUOUS
 10
1.24400
 20
5.62600
 30
 0
 11
1.21800
 21
5.57900
  0
LINE
  8
Kontur
 62
   7
 39
0.100
  6
CONTINUOUS
 10
1.21800
 20
5.57900
 30
 0
 11
1.13200
 21
5.41700
  0
LINE
  8
Kontur
 62
   7
 39
0.100
  6
CONTINUOUS
 10
1.13200
 20
5.41700
 30
 0
 11
1.10700
 21
5.36800
  0
LINE
  8
Kontur
 62
   7
 39
0.100
  6
CONTINUOUS
 10
1.10700
 20
5.36800
 30
 0
 11
1.08400
 21
5.31900
  0
LINE
  8
Kontur
 62
   7
 39
0.100
  6
CONTINUOUS
 10
1.08400
 20
5.31900
 30
 0
 11
1.06300
 21
5.26800
  0
LINE
  8
Kontur
 62
   7
 39
0.100
  6
CONTINUOUS
 10
1.06300
 20
5.26800
 30
 0
 11
0.99500
 21
5.09700
  0
LINE
  8
Kontur
 62
   7
 39
0.100
  6
CONTINUOUS
 10
0.99500
 20
5.09700
 30
 0
 11
0.97600
 21
5.04600
  0
LINE
  8
Kontur
 62
   7
 39
0.100
  6
CONTINUOUS
 10
0.97600
 20
5.04600
 30
 0
 11
0.95800
 21
4.99400
  0
LINE
  8
Kontur
 62
   7
 39
0.100
  6
CONTINUOUS
 10
0.95800
 20
4.99400
 30
 0
 11
0.94300
 21
4.94100
  0
LINE
  8
Kontur
 62
   7
 39
0.100
  6
CONTINUOUS
 10
0.94300
 20
4.94100
 30
 0
 11
0.89400
 21
4.76300
  0
LINE
  8
Kontur
 62
   7
 39
0.100
  6
CONTINUOUS
 10
0.89400
 20
4.76300
 30
 0
 11
0.88000
 21
4.71000
  0
LINE
  8
Kontur
 62
   7
 39
0.100
  6
CONTINUOUS
 10
0.88000
 20
4.71000
 30
 0
 11
0.86900
 21
4.65700
  0
LINE
  8
Kontur
 62
   7
 39
0.100
  6
CONTINUOUS
 10
0.86900
 20
4.65700
 30
 0
 11
0.86000
 21
4.61000
  0
LINE
  8
Kontur
 62
   7
 39
0.100
  6
CONTINUOUS
 10
0.86000
 20
4.61000
 30
 0
 11
0.83000
 21
4.42900
  0
LINE
  8
Kontur
 62
   7
 39
0.100
  6
CONTINUOUS
 10
0.83000
 20
4.42900
 30
 0
 11
0.82200
 21
4.37500
  0
LINE
  8
Kontur
 62
   7
 39
0.100
  6
CONTINUOUS
 10
0.82200
 20
4.37500
 30
 0
 11
0.81600
 21
4.32100
  0
LINE
  8
Kontur
 62
   7
 39
0.100
  6
CONTINUOUS
 10
0.81600
 20
4.32100
 30
 0
 11
0.81200
 21
4.26500
  0
LINE
  8
Kontur
 62
   7
 39
0.100
  6
CONTINUOUS
 10
0.81200
 20
4.26500
 30
 0
 11
0.80200
 21
4.08100
  0
LINE
  8
Kontur
 62
   7
 39
0.100
  6
CONTINUOUS
 10
0.80200
 20
4.08100
 30
 0
 11
0.80000
 21
4.02700
  0
LINE
  8
Kontur
 62
   7
 39
0.100
  6
CONTINUOUS
 10
0.80000
 20
4.02700
 30
 0
 11
0.80000
 21
3.97200
  0
LINE
  8
Kontur
 62
   7
 39
0.100
  6
CONTINUOUS
 10
0.80000
 20
3.97200
 30
 0
 11
0.80200
 21
3.91900
  0
LINE
  8
Kontur
 62
   7
 39
0.100
  6
CONTINUOUS
 10
0.80200
 20
3.91900
 30
 0
 11
0.81200
 21
3.73500
  0
LINE
  8
Kontur
 62
   7
 39
0.100
  6
CONTINUOUS
 10
0.81200
 20
3.73500
 30
 0
 11
0.81600
 21
3.68000
  0
LINE
  8
Kontur
 62
   7
 39
0.100
  6
CONTINUOUS
 10
0.81600
 20
3.68000
 30
 0
 11
0.82200
 21
3.62600
  0
LINE
  8
Kontur
 62
   7
 39
0.100
  6
CONTINUOUS
 10
0.82200
 20
3.62600
 30
 0
 11
0.83000
 21
3.57100
  0
LINE
  8
Kontur
 62
   7
 39
0.100
  6
CONTINUOUS
 10
0.83000
 20
3.57100
 30
 0
 11
0.86000
 21
3.39000
  0
LINE
  8
Kontur
 62
   7
 39
0.100
  6
CONTINUOUS
 10
0.86000
 20
3.39000
 30
 0
 11
0.87000
 21
3.33600
  0
LINE
  8
Kontur
 62
   7
 39
0.100
  6
CONTINUOUS
 10
0.87000
 20
3.33600
 30
 0
 11
0.88200
 21
3.28200
  0
LINE
  8
Kontur
 62
   7
 39
0.100
  6
CONTINUOUS
 10
0.88200
 20
3.28200
 30
 0
 11
0.89400
 21
3.23700
  0
LINE
  8
Kontur
 62
   7
 39
0.100
  6
CONTINUOUS
 10
0.89400
 20
3.23700
 30
 0
 11
0.94300
 21
3.05900
  0
LINE
  8
Kontur
 62
   7
 39
0.100
  6
CONTINUOUS
 10
0.94300
 20
3.05900
 30
 0
 11
0.95800
 21
3.00600
  0
LINE
  8
Kontur
 62
   7
 39
0.100
  6
CONTINUOUS
 10
0.95800
 20
3.00600
 30
 0
 11
0.97600
 21
2.95400
  0
LINE
  8
Kontur
 62
   7
 39
0.100
  6
CONTINUOUS
 10
0.97600
 20
2.95400
 30
 0
 11
0.99500
 21
2.90300
  0
LINE
  8
Kontur
 62
   7
 39
0.100
  6
CONTINUOUS
 10
0.99500
 20
2.90300
 30
 0
 11
1.06300
 21
2.73200
  0
LINE
  8
Kontur
 62
   7
 39
0.100
  6
CONTINUOUS
 10
1.06300
 20
2.73200
 30
 0
 11
1.08400
 21
2.68100
  0
LINE
  8
Kontur
 62
   7
 39
0.100
  6
CONTINUOUS
 10
1.08400
 20
2.68100
 30
 0
 11
1.10700
 21
2.63200
  0
LINE
  8
Kontur
 62
   7
 39
0.100
  6
CONTINUOUS
 10
1.10700
 20
2.63200
 30
 0
 11
1.13200
 21
2.58300
  0
LINE
  8
Kontur
 62
   7
 39
0.100
  6
CONTINUOUS
 10
1.13200
 20
2.58300
 30
 0
 11
1.21800
 21
2.42100
  0
LINE
  8
Kontur
 62
   7
 39
0.100
  6
CONTINUOUS
 10
1.21800
 20
2.42100
 30
 0
 11
1.24500
 21
2.37300
  0
LINE
  8
Kontur
 62
   7
 39
0.100
  6
CONTINUOUS
 10
1.24500
 20
2.37300
 30
 0
 11
1.27300
 21
2.32600
  0
LINE
  8
Kontur
 62
   7
 39
0.100
  6
CONTINUOUS
 10
1.27300
 20
2.32600
 30
 0
 11
1.30200
 21
2.28100
  0
LINE
  8
Kontur
 62
   7
 39
0.100
  6
CONTINUOUS
 10
1.30200
 20
2.28100
 30
 0
 11
1.40600
 21
2.12800
  0
LINE
  8
Kontur
 62
   7
 39
0.100
  6
CONTINUOUS
 10
1.40600
 20
2.12800
 30
 0
 11
1.43800
 21
2.08300
  0
LINE
  8
Kontur
 62
   7
 39
0.100
  6
CONTINUOUS
 10
1.43800
 20
2.08300
 30
 0
 11
1.47100
 21
2.03900
  0
LINE
  8
Kontur
 62
   7
 39
0.100
  6
CONTINUOUS
 10
1.47100
 20
2.03900
 30
 0
 11
1.50400
 21
2.00000
  0
LINE
  8
Kontur
 62
   7
 39
0.100
  6
CONTINUOUS
 10
1.50400
 20
2.00000
 30
 0
 11
1.62300
 21
1.86000
  0
LINE
  8
Kontur
 62
   7
 39
0.100
  6
CONTINUOUS
 10
1.62300
 20
1.86000
 30
 0
 11
1.65900
 21
1.81800
  0
LINE
  8
Kontur
 62
   7
 39
0.100
  6
CONTINUOUS
 10
1.65900
 20
1.81800
 30
 0
 11
1.69700
 21
1.77900
  0
LINE
  8
Kontur
 62
   7
 39
0.100
  6
CONTINUOUS
 10
1.69700
 20
1.77900
 30
 0
 11
1.73000
 21
1.74600
  0
LINE
  8
Kontur
 62
   7
 39
0.100
  6
CONTINUOUS
 10
1.73000
 20
1.74600
 30
 0
 11
1.86300
 21
1.61900
  0
LINE
  8
Kontur
 62
   7
 39
0.100
  6
CONTINUOUS
 10
1.86300
 20
1.61900
 30
 0
 11
1.90300
 21
1.58200
  0
LINE
  8
Kontur
 62
   7
 39
0.100
  6
CONTINUOUS
 10
1.90300
 20
1.58200
 30
 0
 11
1.94500
 21
1.54600
  0
LINE
  8
Kontur
 62
   7
 39
0.100
  6
CONTINUOUS
 10
1.94500
 20
1.54600
 30
 0
 11
1.99500
 21
1.50700
  0
LINE
  8
Kontur
 62
   7
 39
0.100
  6
CONTINUOUS
 10
1.99500
 20
1.50700
 30
 0
 11
2.14200
 21
1.39600
  0
LINE
  8
Kontur
 62
   7
 39
0.100
  6
CONTINUOUS
 10
2.14200
 20
1.39600
 30
 0
 11
2.18600
 21
1.36400
  0
LINE
  8
Kontur
 62
   7
 39
0.100
  6
CONTINUOUS
 10
2.18600
 20
1.36400
 30
 0
 11
2.23200
 21
1.33300
  0
LINE
  8
Kontur
 62
   7
 39
0.100
  6
CONTINUOUS
 10
2.23200
 20
1.33300
 30
 0
 11
2.27300
 21
1.30700
  0
LINE
  8
Kontur
 62
   7
 39
0.100
  6
CONTINUOUS
 10
2.27300
 20
1.30700
 30
 0
 11
2.43100
 21
1.21200
  0
LINE
  8
Kontur
 62
   7
 39
0.100
  6
CONTINUOUS
 10
2.43100
 20
1.21200
 30
 0
 11
2.47900
 21
1.18500
  0
LINE
  8
Kontur
 62
   7
 39
0.100
  6
CONTINUOUS
 10
2.47900
 20
1.18500
 30
 0
 11
2.52700
 21
1.16000
  0
LINE
  8
Kontur
 62
   7
 39
0.100
  6
CONTINUOUS
 10
2.52700
 20
1.16000
 30
 0
 11
2.57600
 21
1.13600
  0
LINE
  8
Kontur
 62
   7
 39
0.100
  6
CONTINUOUS
 10
2.57600
 20
1.13600
 30
 0
 11
2.74300
 21
1.05900
  0
LINE
  8
Kontur
 62
   7
 39
0.100
  6
CONTINUOUS
 10
2.74300
 20
1.05900
 30
 0
 11
2.79300
 21
1.03700
  0
LINE
  8
Kontur
 62
   7
 39
0.100
  6
CONTINUOUS
 10
2.79300
 20
1.03700
 30
 0
 11
2.84400
 21
1.01700
  0
LINE
  8
Kontur
 62
   7
 39
0.100
  6
CONTINUOUS
 10
2.84400
 20
1.01700
 30
 0
 11
2.88900
 21
1.00000
  0
LINE
  8
Kontur
 62
   7
 39
0.100
  6
CONTINUOUS
 10
2.88900
 20
1.00000
 30
 0
 11
3.06300
 21
0.94100
  0
LINE
  8
Kontur
 62
   7
 39
0.100
  6
CONTINUOUS
 10
3.06300
 20
0.94100
 30
 0
 11
3.11500
 21
0.92500
  0
LINE
  8
Kontur
 62
   7
 39
0.100
  6
CONTINUOUS
 10
3.11500
 20
0.92500
 30
 0
 11
3.16800
 21
0.91000
  0
LINE
  8
Kontur
 62
   7
 39
0.100
  6
CONTINUOUS
 10
3.16800
 20
0.91000
 30
 0
 11
3.22000
 21
0.89800
  0
LINE
  8
Kontur
 62
   7
 39
0.100
  6
CONTINUOUS
 10
3.22000
 20
0.89800
 30
 0
 11
3.40000
 21
0.85800
  0
LINE
  8
Kontur
 62
   7
 39
0.100
  6
CONTINUOUS
 10
3.40000
 20
0.85800
 30
 0
 11
3.45300
 21
0.84700
  0
LINE
  8
Kontur
 62
   7
 39
0.100
  6
CONTINUOUS
 10
3.45300
 20
0.84700
 30
 0
 11
3.50700
 21
0.83800
  0
LINE
  8
Kontur
 62
   7
 39
0.100
  6
CONTINUOUS
 10
3.50700
 20
0.83800
 30
 0
 11
3.56200
 21
0.83100
  0
LINE
  8
Kontur
 62
   7
 39
0.100
  6
CONTINUOUS
 10
3.56200
 20
0.83100
 30
 0
 11
3.74500
 21
0.81100
  0
LINE
  8
Kontur
 62
   7
 39
0.100
  6
CONTINUOUS
 10
3.74500
 20
0.81100
 30
 0
 11
3.80000
 21
0.80600
  0
LINE
  8
Kontur
 62
   7
 39
0.100
  6
CONTINUOUS
 10
3.80000
 20
0.80600
 30
 0
 11
3.85400
 21
0.80300
  0
LINE
  8
Kontur
 62
   7
 39
0.100
  6
CONTINUOUS
 10
3.85400
 20
0.80300
 30
 0
 11
3.90800
 21
0.80200
  0
LINE
  8
Kontur
 62
   7
 39
0.100
  6
CONTINUOUS
 10
3.90800
 20
0.80200
 30
 0
 11
4.09200
 21
0.80200
  0
LINE
  8
Kontur
 62
   7
 39
0.100
  6
CONTINUOUS
 10
4.09200
 20
0.80200
 30
 0
 11
4.14700
 21
0.80300
  0
CIRCLE
  8
Kontur
 62
   7
 39
0.100
  6
CONTINUOUS
 10
4.00000
 20
4.00000
 30
 0
 40
1.70000
  0
LINE
  8
Kontur
 62
   7
 39
0.100
  6
CONTINUOUS
 10
4.14700
 20
0.80300
 30
 0
 11
4.20100
 21
0.80600
  0
LINE
  8
Kontur
 62
   7
 39
0.100
  6
CONTINUOUS
 10
4.20100
 20
0.80600
 30
 0
 11
4.25500
 21
0.81100
  0
LINE
  8
Kontur
 62
   7
 39
0.100
  6
CONTINUOUS
 10
4.25500
 20
0.81100
 30
 0
 11
4.43800
 21
0.83100
  0
LINE
  8
Kontur
 62
   7
 39
0.100
  6
CONTINUOUS
 10
4.43800
 20
0.83100
 30
 0
 11
4.49200
 21
0.83800
  0
LINE
  8
Kontur
 62
   7
 39
0.100
  6
CONTINUOUS
 10
4.49200
 20
0.83800
 30
 0
 11
4.54600
 21
0.84700
  0
LINE
  8
Kontur
 62
   7
 39
0.100
  6
CONTINUOUS
 10
4.54600
 20
0.84700
 30
 0
 11
4.60000
 21
0.85800
  0
LINE
  8
Kontur
 62
   7
 39
0.100
  6
CONTINUOUS
 10
4.60000
 20
0.85800
 30
 0
 11
4.78000
 21
0.89800
  0
LINE
  8
Kontur
 62
   7
 39
0.100
  6
CONTINUOUS
 10
4.78000
 20
0.89800
 30
 0
 11
4.83400
 21
0.91100
  0
LINE
  8
Kontur
 62
   7
 39
0.100
  6
CONTINUOUS
 10
4.83400
 20
0.91100
 30
 0
 11
4.88600
 21
0.92500
  0
LINE
  8
Kontur
 62
   7
 39
0.100
  6
CONTINUOUS
 10
4.88600
 20
0.92500
 30
 0
 11
4.93700
 21
0.94100
  0
LINE
  8
Kontur
 62
   7
 39
0.100
  6
CONTINUOUS
 10
4.93700
 20
0.94100
 30
 0
 11
5.11100
 21
1.00000
  0
LINE
  8
Kontur
 62
   7
 39
0.100
  6
CONTINUOUS
 10
5.11100
 20
1.00000
 30
 0
 11
5.16200
 21
1.01900
  0
LINE
  8
Kontur
 62
   7
 39
0.100
  6
CONTINUOUS
 10
5.16200
 20
1.01900
 30
 0
 11
5.21300
 21
1.03900
  0
LINE
  8
Kontur
 62
   7
 39
0.100
  6
CONTINUOUS
 10
5.21300
 20
1.03900
 30
 0
 11
5.25700
 21
1.05900
  0
LINE
  8
Kontur
 62
   7
 39
0.100
  6
CONTINUOUS
 10
5.25700
 20
1.05900
 30
 0
 11
5.42400
 21
1.13600
  0
LINE
  8
Kontur
 62
   7
 39
0.100
  6
CONTINUOUS
 10
5.42400
 20
1.13600
 30
 0
 11
5.47300
 21
1.16000
  0
LINE
  8
Kontur
 62
   7
 39
0.100
  6
CONTINUOUS
 10
5.47300
 20
1.16000
 30
 0
 11
5.52200
 21
1.18500
  0
LINE
  8
Kontur
 62
   7
 39
0.100
  6
CONTINUOUS
 10
5.52200
 20
1.18500
 30
 0
 11
5.56900
 21
1.21200
  0
LINE
  8
Kontur
 62
   7
 39
0.100
  6
CONTINUOUS
 10
5.56900
 20
1.21200
 30
 0
 11
5.72700
 21
1.30700
  0
LINE
  8
Kontur
 62
   7
 39
0.100
  6
CONTINUOUS
 10
5.72700
 20
1.30700
 30
 0
 11
5.81900
 21
1.36700
  0
LINE
  8
Kontur
 62
   7
 39
0.100
  6
CONTINUOUS
 10
5.81900
 20
1.36700
 30
 0
 11
5.85800
 21
1.39600
  0
LINE
  8
Kontur
 62
   7
 39
0.100
  6
CONTINUOUS
 10
5.85800
 20
1.39600
 30
 0
 11
6.00500
 21
1.50700
  0
LINE
  8
Kontur
 62
   7
 39
0.100
  6
CONTINUOUS
 10
6.00500
 20
1.50700
 30
 0
 11
6.04800
 21
1.54100
  0
LINE
  8
Kontur
 62
   7
 39
0.100
  6
CONTINUOUS
 10
6.04800
 20
1.54100
 30
 0
 11
6.09000
 21
1.57600
  0
LINE
  8
Kontur
 62
   7
 39
0.100
  6
CONTINUOUS
 10
6.09000
 20
1.57600
 30
 0
 11
6.13700
 21
1.61900
  0
LINE
  8
Kontur
 62
   7
 39
0.100
  6
CONTINUOUS
 10
6.13700
 20
1.61900
 30
 0
 11
6.27000
 21
1.74600
  0
LINE
  8
Kontur
 62
   7
 39
0.100
  6
CONTINUOUS
 10
6.27000
 20
1.74600
 30
 0
 11
6.30900
 21
1.78500
  0
LINE
  8
Kontur
 62
   7
 39
0.100
  6
CONTINUOUS
 10
6.30900
 20
1.78500
 30
 0
 11
6.34600
 21
1.82500
  0
LINE
  8
Kontur
 62
   7
 39
0.100
  6
CONTINUOUS
 10
6.34600
 20
1.82500
 30
 0
 11
6.37700
 21
1.86000
  0
LINE
  8
Kontur
 62
   7
 39
0.100
  6
CONTINUOUS
 10
6.37700
 20
1.86000
 30
 0
 11
6.49600
 21
2.00000
  0
LINE
  8
Kontur
 62
   7
 39
0.100
  6
CONTINUOUS
 10
6.49600
 20
2.00000
 30
 0
 11
6.53100
 21
2.04200
  0
LINE
  8
Kontur
 62
   7
 39
0.100
  6
CONTINUOUS
 10
6.53100
 20
2.04200
 30
 0
 11
6.56400
 21
2.08600
  0
LINE
  8
Kontur
 62
   7
 39
0.100
  6
CONTINUOUS
 10
6.56400
 20
2.08600
 30
 0
 11
6.59400
 21
2.12800
  0
LINE
  8
Kontur
 62
   7
 39
0.100
  6
CONTINUOUS
 10
6.59400
 20
2.12800
 30
 0
 11
6.69800
 21
2.28100
  0
LINE
  8
Kontur
 62
   7
 39
0.100
  6
CONTINUOUS
 10
6.69800
 20
2.28100
 30
 0
 11
6.72700
 21
2.32700
  0
LINE
  8
Kontur
 62
   7
 39
0.100
  6
CONTINUOUS
 10
6.72700
 20
2.32700
 30
 0
 11
6.75600
 21
2.37400
  0
LINE
  8
Kontur
 62
   7
 39
0.100
  6
CONTINUOUS
 10
6.75600
 20
2.37400
 30
 0
 11
6.78200
 21
2.42100
  0
LINE
  8
Kontur
 62
   7
 39
0.100
  6
CONTINUOUS
 10
6.78200
 20
2.42100
 30
 0
 11
6.86800
 21
2.58300
  0
LINE
  8
Kontur
 62
   7
 39
0.100
  6
CONTINUOUS
 10
6.86800
 20
2.58300
 30
 0
 11
6.89300
 21
2.63200
  0
LINE
  8
Kontur
 62
   7
 39
0.100
  6
CONTINUOUS
 10
6.89300
 20
2.63200
 30
 0
 11
6.91600
 21
2.68100
  0
LINE
  8
Kontur
 62
   7
 39
0.100
  6
CONTINUOUS
 10
6.91600
 20
2.68100
 30
 0
 11
6.93700
 21
2.73200
  0
LINE
  8
Kontur
 62
   7
 39
0.100
  6
CONTINUOUS
 10
6.93700
 20
2.73200
 30
 0
 11
7.00500
 21
2.90300
  0
LINE
  8
Kontur
 62
   7
 39
0.100
  6
CONTINUOUS
 10
7.00500
 20
2.90300
 30
 0
 11
7.02400
 21
2.95400
  0
LINE
  8
Kontur
 62
   7
 39
0.100
  6
CONTINUOUS
 10
7.02400
 20
2.95400
 30
 0
 11
7.04200
 21
3.00600
  0
LINE
  8
Kontur
 62
   7
 39
0.100
  6
CONTINUOUS
 10
7.04200
 20
3.00600
 30
 0
 11
7.05700
 21
3.05900
  0
LINE
  8
Kontur
 62
   7
 39
0.100
  6
CONTINUOUS
 10
7.05700
 20
3.05900
 30
 0
 11
7.10600
 21
3.23700
  0
LINE
  8
Kontur
 62
   7
 39
0.100
  6
CONTINUOUS
 10
7.10600
 20
3.23700
 30
 0
 11
7.12000
 21
3.29000
  0
LINE
  8
Kontur
 62
   7
 39
0.100
  6
CONTINUOUS
 10
7.12000
 20
3.29000
 30
 0
 11
7.13100
 21
3.34300
  0
LINE
  8
Kontur
 62
   7
 39
0.100
  6
CONTINUOUS
 10
7.13100
 20
3.34300
 30
 0
 11
7.14000
 21
3.39000
  0
LINE
  8
Kontur
 62
   7
 39
0.100
  6
CONTINUOUS
 10
7.14000
 20
3.39000
 30
 0
 11
7.17000
 21
3.57100
  0
LINE
  8
Kontur
 62
   7
 39
0.100
  6
CONTINUOUS
 10
7.17000
 20
3.57100
 30
 0
 11
7.17800
 21
3.62500
  0
LINE
  8
Kontur
 62
   7
 39
0.100
  6
CONTINUOUS
 10
7.17800
 20
3.62500
 30
 0
 11
7.18400
 21
3.67900
  0
LINE
  8
Kontur
 62
   7
 39
0.100
  6
CONTINUOUS
 10
7.18400
 20
3.67900
 30
 0
 11
7.18800
 21
3.73500
  0
LINE
  8
Kontur
 62
   7
 39
0.100
  6
CONTINUOUS
 10
7.18800
 20
3.73500
 30
 0
 11
7.19800
 21
3.91900
  0
LINE
  8
Kontur
 62
   7
 39
0.100
  6
CONTINUOUS
 10
7.19800
 20
3.91900
 30
 0
 11
7.20000
 21
3.97300
  0
LINE
  8
Kontur
 62
   7
 39
0.100
  6
CONTINUOUS
 10
7.20000
 20
3.97300
 30
 0
 11
7.20000
 21
4.02800
  0
LINE
  8
Kontur
 62
   7
 39
0.100
  6
CONTINUOUS
 10
7.20000
 20
4.02800
 30
 0
 11
7.19800
 21
4.08100
  0
LINE
  8
Kontur
 62
   7
 39
0.100
  6
CONTINUOUS
 10
7.19800
 20
4.08100
 30
 0
 11
7.18800
 21
4.26500
  0
LINE
  8
Kontur
 62
   7
 39
0.100
  6
CONTINUOUS
 10
7.18800
 20
4.26500
 30
 0
 11
7.18400
 21
4.32000
  0
LINE
  8
Kontur
 62
   7
 39
0.100
  6
CONTINUOUS
 10
7.18400
 20
4.32000
 30
 0
 11
7.17800
 21
4.37400
  0
LINE
  8
Kontur
 62
   7
 39
0.100
  6
CONTINUOUS
 10
7.17800
 20
4.37400
 30
 0
 11
7.17000
 21
4.42900
  0
LINE
  8
Kontur
 62
   7
 39
0.100
  6
CONTINUOUS
 10
7.17000
 20
4.42900
 30
 0
 11
7.14000
 21
4.61000
  0
LINE
  8
Kontur
 62
   7
 39
0.100
  6
CONTINUOUS
 10
7.14000
 20
4.61000
 30
 0
 11
7.13000
 21
4.66400
  0
LINE
  8
Kontur
 62
   7
 39
0.100
  6
CONTINUOUS
 10
7.13000
 20
4.66400
 30
 0
 11
7.11800
 21
4.71800
  0
LINE
  8
Kontur
 62
   7
 39
0.100
  6
CONTINUOUS
 10
7.11800
 20
4.71800
 30
 0
 11
7.10600
 21
4.76300
  0
LINE
  8
Kontur
 62
   7
 39
0.100
  6
CONTINUOUS
 10
7.10600
 20
4.76300
 30
 0
 11
7.05700
 21
4.94100
  0
LINE
  8
Kontur
 62
   7
 39
0.100
  6
CONTINUOUS
 10
7.05700
 20
4.94100
 30
 0
 11
7.04200
 21
4.99400
  0
LINE
  8
Kontur
 62
   7
 39
0.100
  6
CONTINUOUS
 10
7.04200
 20
4.99400
 30
 0
 11
7.02400
 21
5.04600
  0
LINE
  8
Kontur
 62
   7
 39
0.100
  6
CONTINUOUS
 10
7.02400
 20
5.04600
 30
 0
 11
7.00500
 21
5.09700
  0
LINE
  8
Kontur
 62
   7
 39
0.100
  6
CONTINUOUS
 10
7.00500
 20
5.09700
 30
 0
 11
6.93700
 21
5.26800
  0
LINE
  8
Kontur
 62
   7
 39
0.100
  6
CONTINUOUS
 10
6.93700
 20
5.26800
 30
 0
 11
6.91600
 21
5.31900
  0
LINE
  8
Kontur
 62
   7
 39
0.100
  6
CONTINUOUS
 10
6.91600
 20
5.31900
 30
 0
 11
6.89300
 21
5.36800
  0
LINE
  8
Kontur
 62
   7
 39
0.100
  6
CONTINUOUS
 10
6.89300
 20
5.36800
 30
 0
 11
6.86800
 21
5.41700
  0
LINE
  8
Kontur
 62
   7
 39
0.100
  6
CONTINUOUS
 10
6.86800
 20
5.41700
 30
 0
 11
6.78200
 21
5.57900
  0
LINE
  8
Kontur
 62
   7
 39
0.100
  6
CONTINUOUS
 10
6.78200
 20
5.57900
 30
 0
 11
6.75500
 21
5.62700
  0
LINE
  8
Kontur
 62
   7
 39
0.100
  6
CONTINUOUS
 10
6.75500
 20
5.62700
 30
 0
 11
6.72700
 21
5.67400
  0
LINE
  8
Kontur
 62
   7
 39
0.100
  6
CONTINUOUS
 10
6.72700
 20
5.67400
 30
 0
 11
6.69800
 21
5.71900
  0
LINE
  8
Kontur
 62
   7
 39
0.100
  6
CONTINUOUS
 10
6.69800
 20
5.71900
 30
 0
 11
6.59400
 21
5.87200
  0
LINE
  8
Kontur
 62
   7
 39
0.100
  6
CONTINUOUS
 10
6.59400
 20
5.87200
 30
 0
 11
6.56200
 21
5.91700
  0
LINE
  8
Kontur
 62
   7
 39
0.100
  6
CONTINUOUS
 10
6.56200
 20
5.91700
 30
 0
 11
6.52900
 21
5.96100
  0
LINE
  8
Kontur
 62
   7
 39
0.100
  6
CONTINUOUS
 10
6.52900
 20
5.96100
 30
 0
 11
6.49600
 21
6.00000
  0
LINE
  8
Kontur
 62
   7
 39
0.100
  6
CONTINUOUS
 10
6.49600
 20
6.00000
 30
 0
 11
6.37700
 21
6.14000
  0
LINE
  8
Kontur
 62
   7
 39
0.100
  6
CONTINUOUS
 10
6.37700
 20
6.14000
 30
 0
 11
6.34100
 21
6.18200
  0
LINE
  8
Kontur
 62
   7
 39
0.100
  6
CONTINUOUS
 10
6.34100
 20
6.18200
 30
 0
 11
6.30300
 21
6.22100
  0
LINE
  8
Kontur
 62
   7
 39
0.100
  6
CONTINUOUS
 10
6.30300
 20
6.22100
 30
 0
 11
6.27000
 21
6.25400
  0
LINE
  8
Kontur
 62
   7
 39
0.100
  6
CONTINUOUS
 10
6.27000
 20
6.25400
 30
 0
 11
6.13700
 21
6.38100
  0
LINE
  8
Kontur
 62
   7
 39
0.100
  6
CONTINUOUS
 10
6.13700
 20
6.38100
 30
 0
 11
6.09700
 21
6.41800
  0
LINE
  8
Kontur
 62
   7
 39
0.100
  6
CONTINUOUS
 10
6.09700
 20
6.41800
 30
 0
 11
6.05500
 21
6.45400
  0
LINE
  8
Kontur
 62
   7
 39
0.100
  6
CONTINUOUS
 10
6.05500
 20
6.45400
 30
 0
 11
6.00500
 21
6.49300
  0
LINE
  8
Kontur
 62
   7
 39
0.100
  6
CONTINUOUS
 10
6.00500
 20
6.49300
 30
 0
 11
5.85800
 21
6.60400
  0
LINE
  8
Kontur
 62
   7
 39
0.100
  6
CONTINUOUS
 10
5.85800
 20
6.60400
 30
 0
 11
5.81400
 21
6.63600
  0
LINE
  8
Kontur
 62
   7
 39
0.100
  6
CONTINUOUS
 10
5.81400
 20
6.63600
 30
 0
 11
5.76800
 21
6.66700
  0
LINE
  8
Kontur
 62
   7
 39
0.100
  6
CONTINUOUS
 10
5.76800
 20
6.66700
 30
 0
 11
5.72700
 21
6.69300
  0
LINE
  8
Kontur
 62
   7
 39
0.100
  6
CONTINUOUS
 10
5.72700
 20
6.69300
 30
 0
 11
5.56900
 21
6.78800
  0
LINE
  8
Kontur
 62
   7
 39
0.100
  6
CONTINUOUS
 10
5.56900
 20
6.78800
 30
 0
 11
5.52100
 21
6.81500
  0
LINE
  8
Kontur
 62
   7
 39
0.100
  6
CONTINUOUS
 10
5.52100
 20
6.81500
 30
 0
 11
5.47300
 21
6.84000
  0
LINE
  8
Kontur
 62
   7
 39
0.100
  6
CONTINUOUS
 10
5.47300
 20
6.84000
 30
 0
 11
5.42400
 21
6.86400
  0
LINE
  8
Kontur
 62
   7
 39
0.100
  6
CONTINUOUS
 10
5.42400
 20
6.86400
 30
 0
 11
5.25700
 21
6.94100
  0
LINE
  8
Kontur
 62
   7
 39
0.100
  6
CONTINUOUS
 10
5.25700
 20
6.94100
 30
 0
 11
5.20700
 21
6.96300
  0
LINE
  8
Kontur
 62
   7
 39
0.100
  6
CONTINUOUS
 10
5.20700
 20
6.96300
 30
 0
 11
5.15600
 21
6.98300
  0
LINE
  8
Kontur
 62
   7
 39
0.100
  6
CONTINUOUS
 10
5.15600
 20
6.98300
 30
 0
 11
5.11100
 21
7.00000
  0
LINE
  8
Kontur
 62
   7
 39
0.100
  6
CONTINUOUS
 10
5.11100
 20
7.00000
 30
 0
 11
4.93700
 21
7.05900
  0
LINE
  8
Kontur
 62
   7
 39
0.100
  6
CONTINUOUS
 10
4.93700
 20
7.05900
 30
 0
 11
4.88500
 21
7.07500
  0
LINE
  8
Kontur
 62
   7
 39
0.100
  6
CONTINUOUS
 10
4.88500
 20
7.07500
 30
 0
 11
4.83200
 21
7.09000
  0
LINE
  8
Kontur
 62
   7
 39
0.100
  6
CONTINUOUS
 10
4.83200
 20
7.09000
 30
 0
 11
4.78000
 21
7.10200
  0
LINE
  8
Kontur
 62
   7
 39
0.100
  6
CONTINUOUS
 10
4.78000
 20
7.10200
 30
 0
 11
4.60000
 21
7.14200
  0
LINE
  8
Kontur
 62
   7
 39
0.100
  6
CONTINUOUS
 10
4.60000
 20
7.14200
 30
 0
 11
4.54700
 21
7.15300
  0
LINE
  8
Kontur
 62
   7
 39
0.100
  6
CONTINUOUS
 10
4.54700
 20
7.15300
 30
 0
 11
4.49300
 21
7.16200
  0
LINE
  8
Kontur
 62
   7
 39
0.100
  6
CONTINUOUS
 10
4.49300
 20
7.16200
 30
 0
 11
4.43800
 21
7.16900
  0
LINE
  8
Kontur
 62
   7
 39
0.100
  6
CONTINUOUS
 10
4.43800
 20
7.16900
 30
 0
 11
4.25500
 21
7.18900
  0
LINE
  8
Kontur
 62
   7
 39
0.100
  6
CONTINUOUS
 10
4.25500
 20
7.18900
 30
 0
 11
4.20000
 21
7.19400
  0
LINE
  8
Kontur
 62
   7
 39
0.100
  6
CONTINUOUS
 10
4.20000
 20
7.19400
 30
 0
 11
4.14600
 21
7.19700
  0
LINE
  8
Kontur
 62
   7
 39
0.100
  6
CONTINUOUS
 10
4.14600
 20
7.19700
 30
 0
 11
4.09200
 21
7.19800
  0
LINE
  8
Kontur
 62
   7
 39
0.100
  6
CONTINUOUS
 10
4.09200
 20
7.19800
 30
 0
 11
3.90800
 21
7.19800
  0
LINE
  8
Kontur
 62
   7
 39
0.100
  6
CONTINUOUS
 10
3.90800
 20
7.19800
 30
 0
 11
3.85300
 21
7.19700
  0
LINE
  8
Kontur
 62
   7
 39
0.100
  6
CONTINUOUS
 10
3.85300
 20
7.19700
 30
 0
 11
3.79900
 21
7.19400
  0
LINE
  8
Kontur
 62
   7
 39
0.100
  6
CONTINUOUS
 10
3.79900
 20
7.19400
 30
 0
 11
3.74500
 21
7.18900
  0
LINE
  8
Kontur
 62
   7
 39
0.100
  6
CONTINUOUS
 10
3.74500
 20
7.18900
 30
 0
 11
3.56200
 21
7.16900
  0
LINE
  8
Kontur
 62
   7
 39
0.100
  6
CONTINUOUS
 10
3.56200
 20
7.16900
 30
 0
 11
3.50800
 21
7.16200
  0
LINE
  8
Kontur
 62
   7
 39
0.100
  6
CONTINUOUS
 10
3.50800
 20
7.16200
 30
 0
 11
3.45400
 21
7.15300
  0
LINE
  8
Kontur
 62
   7
 39
0.100
  6
CONTINUOUS
 10
3.45400
 20
7.15300
 30
 0
 11
3.40000
 21
7.14200
  0
LINE
  8
Kontur
 62
   7
 39
0.100
  6
CONTINUOUS
 10
3.40000
 20
7.14200
 30
 0
 11
3.22000
 21
7.10200
  0
LINE
  8
Kontur
 62
   7
 39
0.100
  6
CONTINUOUS
 10
3.22000
 20
7.10200
 30
 0
 11
3.16600
 21
7.08900
  0
LINE
  8
Kontur
 62
   7
 39
0.100
  6
CONTINUOUS
 10
3.16600
 20
7.08900
 30
 0
 11
3.11400
 21
7.07500
  0
LINE
  8
Kontur
 62
   7
 39
0.100
  6
CONTINUOUS
 10
3.11400
 20
7.07500
 30
 0
 11
3.06300
 21
7.05900
  0
LINE
  8
Kontur
 62
   7
 39
0.100
  6
CONTINUOUS
 10
3.06300
 20
7.05900
 30
 0
 11
2.88900
 21
7.00000
  0
LINE
  8
Kontur
 62
   7
 39
0.100
  6
CONTINUOUS
 10
2.88900
 20
7.00000
 30
 0
 11
2.83800
 21
6.98100
  0
LINE
  8
Kontur
 62
   7
 39
0.100
  6
CONTINUOUS
 10
2.83800
 20
6.98100
 30
 0
 11
2.78700
 21
6.96100
  0
LINE
  8
Kontur
 62
   7
 39
0.100
  6
CONTINUOUS
 10
2.78700
 20
6.96100
 30
 0
 11
2.74300
 21
6.94100
  0
LINE
  8
Kontur
 62
   7
 39
0.100
  6
CONTINUOUS
 10
2.74300
 20
6.94100
 30
 0
 11
2.57600
 21
6.86400
  0
LINE
  8
Kontur
 62
   7
 39
0.100
  6
CONTINUOUS
 10
2.57600
 20
6.86400
 30
 0
 11
2.52700
 21
6.84000
  0
LINE
  8
Kontur
 62
   7
 39
0.100
  6
CONTINUOUS
 10
2.52700
 20
6.84000
 30
 0
 11
2.47800
 21
6.81500
  0
LINE
  8
Kontur
 62
   7
 39
0.100
  6
CONTINUOUS
 10
2.47800
 20
6.81500
 30
 0
 11
2.43100
 21
6.78800
  0
LINE
  8
Kontur
 62
   7
 39
0.100
  6
CONTINUOUS
 10
2.43100
 20
6.78800
 30
 0
 11
2.27300
 21
6.69300
  0
LINE
  8
Kontur
 62
   7
 39
0.100
  6
CONTINUOUS
 10
2.27300
 20
6.69300
 30
 0
 11
2.18100
 21
6.63300
  0
LINE
  8
Kontur
 62
   7
 39
0.100
  6
CONTINUOUS
 10
2.18100
 20
6.63300
 30
 0
 11
2.14200
 21
6.60400
  0
LINE
  8
Kontur
 62
   7
 39
0.100
  6
CONTINUOUS
 10
2.14200
 20
6.60400
 30
 0
 11
1.99500
 21
6.49300
  0
LINE
  8
Kontur
 62
   7
 39
0.100
  6
CONTINUOUS
 10
1.99500
 20
6.49300
 30
 0
 11
1.95200
 21
6.45900
  0
LINE
  8
Kontur
 62
   7
 39
0.100
  6
CONTINUOUS
 10
1.95200
 20
6.45900
 30
 0
 11
1.91000
 21
6.42400
  0
LINE
  8
Kontur
 62
   7
 39
0.100
  6
CONTINUOUS
 10
1.91000
 20
6.42400
 30
 0
 11
1.86300
 21
6.38100
  0
LINE
  8
Kontur
 62
   7
 39
0.100
  6
CONTINUOUS
 10
1.86300
 20
6.38100
 30
 0
 11
1.73000
 21
6.25400
  0
LINE
  8
Kontur
 62
   7
 39
0.100
  6
CONTINUOUS
 10
1.73000
 20
6.25400
 30
 0
 11
1.69100
 21
6.21500
  0
LINE
  8
Kontur
 62
   7
 39
0.100
  6
CONTINUOUS
 10
1.69100
 20
6.21500
 30
 0
 11
1.65400
 21
6.17500
  0
LINE
  8
Kontur
 62
   7
 39
0.100
  6
CONTINUOUS
 10
1.65400
 20
6.17500
 30
 0
 11
1.62300
 21
6.14000
  0
LINE
  8
Kontur
 62
   7
 39
0.100
  6
CONTINUOUS
 10
1.62300
 20
6.14000
 30
 0
 11
1.50400
 21
6.00000
  0
LINE
  8
Kontur
 62
   7
 39
0.100
  6
CONTINUOUS
 10
1.50400
 20
6.00000
 30
 0
 11
1.46900
 21
5.95800
  0
LINE
  8
Kontur
 62
   7
 39
0.100
  6
CONTINUOUS
 10
1.46900
 20
5.95800
 30
 0
 11
1.43600
 21
5.91400
  0
LINE
  8
Kontur
 62
   7
 39
0.100
  6
CONTINUOUS
 10
1.43600
 20
5.91400
 30
 0
 11
1.40600
 21
5.87200
  0
LINE
  8
Kontur
 62
   7
 39
0.100
  6
CONTINUOUS
 10
1.40600
 20
5.87200
 30
 0
 11
1.30200
 21
5.71900
  0
LINE
  8
Kontur
 62
   7
 39
0.100
  6
CONTINUOUS
 10
1.30200
 20
5.71900
 30
 0
 11
1.27300
 21
5.67300
  0
LINE
  8
Kontur
 62
   7
 39
0.100
  6
CONTINUOUS
 10
1.27300
 20
5.67300
 30
 0
 11
1.24400
 21
5.62600
  0
LINE
  8
Kontur
 62
   7
 39
0.100
  6
CONTINUOUS
 10
1.24400
 20
5.62600
 30
 0
 11
1.21800
 21
5.57900
  0
LINE
  8
Kontur
 62
   7
 39
0.100
  6
CONTINUOUS
 10
1.21800
 20
5.57900
 30
 0
 11
1.13200
 21
5.41700
  0
LINE
  8
Kontur
 62
   7
 39
0.100
  6
CONTINUOUS
 10
1.13200
 20
5.41700
 30
 0
 11
1.10700
 21
5.36800
  0
LINE
  8
Kontur
 62
   7
 39
0.100
  6
CONTINUOUS
 10
1.10700
 20
5.36800
 30
 0
 11
1.08400
 21
5.31900
  0
LINE
  8
Kontur
 62
   7
 39
0.100
  6
CONTINUOUS
 10
1.08400
 20
5.31900
 30
 0
 11
1.06300
 21
5.26800
  0
LINE
  8
Kontur
 62
   7
 39
0.100
  6
CONTINUOUS
 10
1.06300
 20
5.26800
 30
 0
 11
0.99500
 21
5.09700
  0
LINE
  8
Kontur
 62
   7
 39
0.100
  6
CONTINUOUS
 10
0.99500
 20
5.09700
 30
 0
 11
0.97600
 21
5.04600
  0
LINE
  8
Kontur
 62
   7
 39
0.100
  6
CONTINUOUS
 10
0.97600
 20
5.04600
 30
 0
 11
0.95800
 21
4.99400
  0
LINE
  8
Kontur
 62
   7
 39
0.100
  6
CONTINUOUS
 10
0.95800
 20
4.99400
 30
 0
 11
0.94300
 21
4.94100
  0
LINE
  8
Kontur
 62
   7
 39
0.100
  6
CONTINUOUS
 10
0.94300
 20
4.94100
 30
 0
 11
0.89400
 21
4.76300
  0
LINE
  8
Kontur
 62
   7
 39
0.100
  6
CONTINUOUS
 10
0.89400
 20
4.76300
 30
 0
 11
0.88000
 21
4.71000
  0
LINE
  8
Kontur
 62
   7
 39
0.100
  6
CONTINUOUS
 10
0.88000
 20
4.71000
 30
 0
 11
0.86900
 21
4.65700
  0
LINE
  8
Kontur
 62
   7
 39
0.100
  6
CONTINUOUS
 10
0.86900
 20
4.65700
 30
 0
 11
0.86000
 21
4.61000
  0
LINE
  8
Kontur
 62
   7
 39
0.100
  6
CONTINUOUS
 10
0.86000
 20
4.61000
 30
 0
 11
0.83000
 21
4.42900
  0
LINE
  8
Kontur
 62
   7
 39
0.100
  6
CONTINUOUS
 10
0.83000
 20
4.42900
 30
 0
 11
0.82200
 21
4.37500
  0
LINE
  8
Kontur
 62
   7
 39
0.100
  6
CONTINUOUS
 10
0.82200
 20
4.37500
 30
 0
 11
0.81600
 21
4.32100
  0
LINE
  8
Kontur
 62
   7
 39
0.100
  6
CONTINUOUS
 10
0.81600
 20
4.32100
 30
 0
 11
0.81200
 21
4.26500
  0
LINE
  8
Kontur
 62
   7
 39
0.100
  6
CONTINUOUS
 10
0.81200
 20
4.26500
 30
 0
 11
0.80200
 21
4.08100
  0
LINE
  8
Kontur
 62
   7
 39
0.100
  6
CONTINUOUS
 10
0.80200
 20
4.08100
 30
 0
 11
0.80000
 21
4.02700
  0
LINE
  8
Kontur
 62
   7
 39
0.100
  6
CONTINUOUS
 10
0.80000
 20
4.02700
 30
 0
 11
0.80000
 21
3.97200
  0
LINE
  8
Kontur
 62
   7
 39
0.100
  6
CONTINUOUS
 10
0.80000
 20
3.97200
 30
 0
 11
0.80200
 21
3.91900
  0
LINE
  8
Kontur
 62
   7
 39
0.100
  6
CONTINUOUS
 10
0.80200
 20
3.91900
 30
 0
 11
0.81200
 21
3.73500
  0
LINE
  8
Kontur
 62
   7
 39
0.100
  6
CONTINUOUS
 10
0.81200
 20
3.73500
 30
 0
 11
0.81600
 21
3.68000
  0
LINE
  8
Kontur
 62
   7
 39
0.100
  6
CONTINUOUS
 10
0.81600
 20
3.68000
 30
 0
 11
0.82200
 21
3.62600
  0
LINE
  8
Kontur
 62
   7
 39
0.100
  6
CONTINUOUS
 10
0.82200
 20
3.62600
 30
 0
 11
0.83000
 21
3.57100
  0
LINE
  8
Kontur
 62
   7
 39
0.100
  6
CONTINUOUS
 10
0.83000
 20
3.57100
 30
 0
 11
0.86000
 21
3.39000
  0
LINE
  8
Kontur
 62
   7
 39
0.100
  6
CONTINUOUS
 10
0.86000
 20
3.39000
 30
 0
 11
0.87000
 21
3.33600
  0
LINE
  8
Kontur
 62
   7
 39
0.100
  6
CONTINUOUS
 10
0.87000
 20
3.33600
 30
 0
 11
0.88200
 21
3.28200
  0
LINE
  8
Kontur
 62
   7
 39
0.100
  6
CONTINUOUS
 10
0.88200
 20
3.28200
 30
 0
 11
0.89400
 21
3.23700
  0
LINE
  8
Kontur
 62
   7
 39
0.100
  6
CONTINUOUS
 10
0.89400
 20
3.23700
 30
 0
 11
0.94300
 21
3.05900
  0
LINE
  8
Kontur
 62
   7
 39
0.100
  6
CONTINUOUS
 10
0.94300
 20
3.05900
 30
 0
 11
0.95800
 21
3.00600
  0
LINE
  8
Kontur
 62
   7
 39
0.100
  6
CONTINUOUS
 10
0.95800
 20
3.00600
 30
 0
 11
0.97600
 21
2.95400
  0
LINE
  8
Kontur
 62
   7
 39
0.100
  6
CONTINUOUS
 10
0.97600
 20
2.95400
 30
 0
 11
0.99500
 21
2.90300
  0
LINE
  8
Kontur
 62
   7
 39
0.100
  6
CONTINUOUS
 10
0.99500
 20
2.90300
 30
 0
 11
1.06300
 21
2.73200
  0
LINE
  8
Kontur
 62
   7
 39
0.100
  6
CONTINUOUS
 10
1.06300
 20
2.73200
 30
 0
 11
1.08400
 21
2.68100
  0
LINE
  8
Kontur
 62
   7
 39
0.100
  6
CONTINUOUS
 10
1.08400
 20
2.68100
 30
 0
 11
1.10700
 21
2.63200
  0
LINE
  8
Kontur
 62
   7
 39
0.100
  6
CONTINUOUS
 10
1.10700
 20
2.63200
 30
 0
 11
1.13200
 21
2.58300
  0
LINE
  8
Kontur
 62
   7
 39
0.100
  6
CONTINUOUS
 10
1.13200
 20
2.58300
 30
 0
 11
1.21800
 21
2.42100
  0
LINE
  8
Kontur
 62
   7
 39
0.100
  6
CONTINUOUS
 10
1.21800
 20
2.42100
 30
 0
 11
1.24500
 21
2.37300
  0
LINE
  8
Kontur
 62
   7
 39
0.100
  6
CONTINUOUS
 10
1.24500
 20
2.37300
 30
 0
 11
1.27300
 21
2.32600
  0
LINE
  8
Kontur
 62
   7
 39
0.100
  6
CONTINUOUS
 10
1.27300
 20
2.32600
 30
 0
 11
1.30200
 21
2.28100
  0
LINE
  8
Kontur
 62
   7
 39
0.100
  6
CONTINUOUS
 10
1.30200
 20
2.28100
 30
 0
 11
1.40600
 21
2.12800
  0
LINE
  8
Kontur
 62
   7
 39
0.100
  6
CONTINUOUS
 10
1.40600
 20
2.12800
 30
 0
 11
1.43800
 21
2.08300
  0
LINE
  8
Kontur
 62
   7
 39
0.100
  6
CONTINUOUS
 10
1.43800
 20
2.08300
 30
 0
 11
1.47100
 21
2.03900
  0
LINE
  8
Kontur
 62
   7
 39
0.100
  6
CONTINUOUS
 10
1.47100
 20
2.03900
 30
 0
 11
1.50400
 21
2.00000
  0
LINE
  8
Kontur
 62
   7
 39
0.100
  6
CONTINUOUS
 10
1.50400
 20
2.00000
 30
 0
 11
1.62300
 21
1.86000
  0
LINE
  8
Kontur
 62
   7
 39
0.100
  6
CONTINUOUS
 10
1.62300
 20
1.86000
 30
 0
 11
1.65900
 21
1.81800
  0
LINE
  8
Kontur
 62
   7
 39
0.100
  6
CONTINUOUS
 10
1.65900
 20
1.81800
 30
 0
 11
1.69700
 21
1.77900
  0
LINE
  8
Kontur
 62
   7
 39
0.100
  6
CONTINUOUS
 10
1.69700
 20
1.77900
 30
 0
 11
1.73000
 21
1.74600
  0
LINE
  8
Kontur
 62
   7
 39
0.100
  6
CONTINUOUS
 10
1.73000
 20
1.74600
 30
 0
 11
1.86300
 21
1.61900
  0
LINE
  8
Kontur
 62
   7
 39
0.100
  6
CONTINUOUS
 10
1.86300
 20
1.61900
 30
 0
 11
1.90300
 21
1.58200
  0
LINE
  8
Kontur
 62
   7
 39
0.100
  6
CONTINUOUS
 10
1.90300
 20
1.58200
 30
 0
 11
1.94500
 21
1.54600
  0
LINE
  8
Kontur
 62
   7
 39
0.100
  6
CONTINUOUS
 10
1.94500
 20
1.54600
 30
 0
 11
1.99500
 21
1.50700
  0
LINE
  8
Kontur
 62
   7
 39
0.100
  6
CONTINUOUS
 10
1.99500
 20
1.50700
 30
 0
 11
2.14200
 21
1.39600
  0
LINE
  8
Kontur
 62
   7
 39
0.100
  6
CONTINUOUS
 10
2.14200
 20
1.39600
 30
 0
 11
2.18600
 21
1.36400
  0
LINE
  8
Kontur
 62
   7
 39
0.100
  6
CONTINUOUS
 10
2.18600
 20
1.36400
 30
 0
 11
2.23200
 21
1.33300
  0
LINE
  8
Kontur
 62
   7
 39
0.100
  6
CONTINUOUS
 10
2.23200
 20
1.33300
 30
 0
 11
2.27300
 21
1.30700
  0
LINE
  8
Kontur
 62
   7
 39
0.100
  6
CONTINUOUS
 10
2.27300
 20
1.30700
 30
 0
 11
2.43100
 21
1.21200
  0
LINE
  8
Kontur
 62
   7
 39
0.100
  6
CONTINUOUS
 10
2.43100
 20
1.21200
 30
 0
 11
2.47900
 21
1.18500
  0
LINE
  8
Kontur
 62
   7
 39
0.100
  6
CONTINUOUS
 10
2.47900
 20
1.18500
 30
 0
 11
2.52700
 21
1.16000
  0
LINE
  8
Kontur
 62
   7
 39
0.100
  6
CONTINUOUS
 10
2.52700
 20
1.16000
 30
 0
 11
2.57600
 21
1.13600
  0
LINE
  8
Kontur
 62
   7
 39
0.100
  6
CONTINUOUS
 10
2.57600
 20
1.13600
 30
 0
 11
2.74300
 21
1.05900
  0
LINE
  8
Kontur
 62
   7
 39
0.100
  6
CONTINUOUS
 10
2.74300
 20
1.05900
 30
 0
 11
2.79300
 21
1.03700
  0
LINE
  8
Kontur
 62
   7
 39
0.100
  6
CONTINUOUS
 10
2.79300
 20
1.03700
 30
 0
 11
2.84400
 21
1.01700
  0
LINE
  8
Kontur
 62
   7
 39
0.100
  6
CONTINUOUS
 10
2.84400
 20
1.01700
 30
 0
 11
2.88900
 21
1.00000
  0
LINE
  8
Kontur
 62
   7
 39
0.100
  6
CONTINUOUS
 10
2.88900
 20
1.00000
 30
 0
 11
3.06300
 21
0.94100
  0
LINE
  8
Kontur
 62
   7
 39
0.100
  6
CONTINUOUS
 10
3.06300
 20
0.94100
 30
 0
 11
3.11500
 21
0.92500
  0
LINE
  8
Kontur
 62
   7
 39
0.100
  6
CONTINUOUS
 10
3.11500
 20
0.92500
 30
 0
 11
3.16800
 21
0.91000
  0
LINE
  8
Kontur
 62
   7
 39
0.100
  6
CONTINUOUS
 10
3.16800
 20
0.91000
 30
 0
 11
3.22000
 21
0.89800
  0
LINE
  8
Kontur
 62
   7
 39
0.100
  6
CONTINUOUS
 10
3.22000
 20
0.89800
 30
 0
 11
3.40000
 21
0.85800
  0
LINE
  8
Kontur
 62
   7
 39
0.100
  6
CONTINUOUS
 10
3.40000
 20
0.85800
 30
 0
 11
3.45300
 21
0.84700
  0
LINE
  8
Kontur
 62
   7
 39
0.100
  6
CONTINUOUS
 10
3.45300
 20
0.84700
 30
 0
 11
3.50700
 21
0.83800
  0
LINE
  8
Kontur
 62
   7
 39
0.100
  6
CONTINUOUS
 10
3.50700
 20
0.83800
 30
 0
 11
3.56200
 21
0.83100
  0
LINE
  8
Kontur
 62
   7
 39
0.100
  6
CONTINUOUS
 10
3.56200
 20
0.83100
 30
 0
 11
3.74500
 21
0.81100
  0
LINE
  8
Kontur
 62
   7
 39
0.100
  6
CONTINUOUS
 10
3.74500
 20
0.81100
 30
 0
 11
3.80000
 21
0.80600
  0
LINE
  8
Kontur
 62
   7
 39
0.100
  6
CONTINUOUS
 10
3.80000
 20
0.80600
 30
 0
 11
3.85400
 21
0.80300
  0
LINE
  8
Kontur
 62
   7
 39
0.100
  6
CONTINUOUS
 10
3.85400
 20
0.80300
 30
 0
 11
3.90800
 21
0.80200
  0
LINE
  8
Kontur
 62
   7
 39
0.100
  6
CONTINUOUS
 10
3.90800
 20
0.80200
 30
 0
 11
4.09200
 21
0.80200
  0
LINE
  8
Kontur
 62
   7
 39
0.100
  6
CONTINUOUS
 10
4.09200
 20
0.80200
 30
 0
 11
4.14700
 21
0.80300
  0
CIRCLE
  8
Kontur
 62
   7
 39
0.100
  6
CONTINUOUS
 10
4.00000
 20
4.00000
 30
 0
 40
1.70000
  0
CIRCLE
  8
Kontur
 62
   7
 39
0.100
  6
CONTINUOUS
 10
17.24000
 20
12.10000
 30
 0
 40
3.25000
  0
CIRCLE
  8
Kontur
 62
   7
 39
0.100
  6
CONTINUOUS
 10
30.57000
 20
12.55000
 30
 0
 40
2.00000
  0
ARC
  8
Kontur
 62
   7
 39
0.100
  6
CONTINUOUS
 10
37.00000
 20
9.10000
 30
 0
 40
0.50000
 50
180.00000
 51
270.00000
  0
LINE
  8
Kontur
 62
   7
 39
0.100
  6
CONTINUOUS
 10
37.00000
 20
8.60000
 30
 0
 11
56.00000
 21
8.60000
  0
ARC
  8
Kontur
 62
   7
 39
0.100
  6
CONTINUOUS
 10
56.00000
 20
9.10000
 30
 0
 40
0.50000
 50
270.00000
 51
360.00000
  0
LINE
  8
Kontur
 62
   7
 39
0.100
  6
CONTINUOUS
 10
56.50000
 20
9.10000
 30
 0
 11
56.50000
 21
17.10000
  0
ARC
  8
Kontur
 62
   7
 39
0.100
  6
CONTINUOUS
 10
56.00000
 20
17.10000
 30
 0
 40
0.50000
 50
0.00000
 51
90.00000
  0
LINE
  8
Kontur
 62
   7
 39
0.100
  6
CONTINUOUS
 10
56.00000
 20
17.60000
 30
 0
 11
37.00000
 21
17.60000
  0
ARC
  8
Kontur
 62
   7
 39
0.100
  6
CONTINUOUS
 10
37.00000
 20
17.10000
 30
 0
 40
0.50000
 50
90.00000
 51
180.00000
  0
LINE
  8
Kontur
 62
   7
 39
0.100
  6
CONTINUOUS
 10
36.50000
 20
17.10000
 30
 0
 11
36.50000
 21
9.10000
  0
ARC
  8
Kontur
 62
   7
 39
0.100
  6
CONTINUOUS
 10
59.17000
 20
9.10000
 30
 0
 40
0.50000
 50
180.00000
 51
270.00000
  0
LINE
  8
Kontur
 62
   7
 39
0.100
  6
CONTINUOUS
 10
59.17000
 20
8.60000
 30
 0
 11
78.17000
 21
8.60000
  0
ARC
  8
Kontur
 62
   7
 39
0.100
  6
CONTINUOUS
 10
78.17000
 20
9.10000
 30
 0
 40
0.50000
 50
270.00000
 51
360.00000
  0
LINE
  8
Kontur
 62
   7
 39
0.100
  6
CONTINUOUS
 10
78.67000
 20
9.10000
 30
 0
 11
78.67000
 21
17.10000
  0
ARC
  8
Kontur
 62
   7
 39
0.100
  6
CONTINUOUS
 10
78.17000
 20
17.10000
 30
 0
 40
0.50000
 50
0.00000
 51
90.00000
  0
LINE
  8
Kontur
 62
   7
 39
0.100
  6
CONTINUOUS
 10
78.17000
 20
17.60000
 30
 0
 11
59.17000
 21
17.60000
  0
ARC
  8
Kontur
 62
   7
 39
0.100
  6
CONTINUOUS
 10
59.17000
 20
17.10000
 30
 0
 40
0.50000
 50
90.00000
 51
180.00000
  0
LINE
  8
Kontur
 62
   7
 39
0.100
  6
CONTINUOUS
 10
58.67000
 20
17.10000
 30
 0
 11
58.67000
 21
9.10000
  0
CIRCLE
  8
Kontur
 62
   7
 39
0.100
  6
CONTINUOUS
 10
86.45000
 20
12.55000
 30
 0
 40
2.00000
  0
ARC
  8
Kontur
 62
   7
 39
0.100
  6
CONTINUOUS
 10
141.91000
 20
9.25000
 30
 0
 40
0.50000
 50
180.00000
 51
270.00000
  0
LINE
  8
Kontur
 62
   7
 39
0.100
  6
CONTINUOUS
 10
141.91000
 20
8.75000
 30
 0
 11
152.91000
 21
8.75000
  0
ARC
  8
Kontur
 62
   7
 39
0.100
  6
CONTINUOUS
 10
152.91000
 20
9.25000
 30
 0
 40
0.50000
 50
270.00000
 51
360.00000
  0
LINE
  8
Kontur
 62
   7
 39
0.100
  6
CONTINUOUS
 10
153.41000
 20
9.25000
 30
 0
 11
153.41000
 21
19.25000
  0
ARC
  8
Kontur
 62
   7
 39
0.100
  6
CONTINUOUS
 10
152.91000
 20
19.25000
 30
 0
 40
0.50000
 50
0.00000
 51
90.00000
  0
LINE
  8
Kontur
 62
   7
 39
0.100
  6
CONTINUOUS
 10
152.91000
 20
19.75000
 30
 0
 11
141.91000
 21
19.75000
  0
ARC
  8
Kontur
 62
   7
 39
0.100
  6
CONTINUOUS
 10
141.91000
 20
19.25000
 30
 0
 40
0.50000
 50
90.00000
 51
180.00000
  0
LINE
  8
Kontur
 62
   7
 39
0.100
  6
CONTINUOUS
 10
141.41000
 20
19.25000
 30
 0
 11
141.41000
 21
9.25000
  0
CIRCLE
  8
Kontur
 62
   7
 39
0.100
  6
CONTINUOUS
 10
134.08000
 20
9.64000
 30
 0
 40
1.00000
  0
ARC
  8
Kontur
 62
   7
 39
0.100
  6
CONTINUOUS
 10
97.00000
 20
9.10000
 30
 0
 40
0.50000
 50
180.00000
 51
270.00000
  0
LINE
  8
Kontur
 62
   7
 39
0.100
  6
CONTINUOUS
 10
97.00000
 20
8.60000
 30
 0
 11
122.00000
 21
8.60000
  0
ARC
  8
Kontur
 62
   7
 39
0.100
  6
CONTINUOUS
 10
122.00000
 20
9.10000
 30
 0
 40
0.50000
 50
270.00000
 51
360.00000
  0
LINE
  8
Kontur
 62
   7
 39
0.100
  6
CONTINUOUS
 10
122.50000
 20
9.10000
 30
 0
 11
122.50000
 21
11.10000
  0
ARC
  8
Kontur
 62
   7
 39
0.100
  6
CONTINUOUS
 10
122.00000
 20
11.10000
 30
 0
 40
0.50000
 50
0.00000
 51
90.00000
  0
LINE
  8
Kontur
 62
   7
 39
0.100
  6
CONTINUOUS
 10
122.00000
 20
11.60000
 30
 0
 11
97.00000
 21
11.60000
  0
ARC
  8
Kontur
 62
   7
 39
0.100
  6
CONTINUOUS
 10
97.00000
 20
11.10000
 30
 0
 40
0.50000
 50
90.00000
 51
180.00000
  0
LINE
  8
Kontur
 62
   7
 39
0.100
  6
CONTINUOUS
 10
96.50000
 20
11.10000
 30
 0
 11
96.50000
 21
9.10000
  0
CIRCLE
  8
Kontur
 62
   7
 39
0.100
  6
CONTINUOUS
 10
134.08000
 20
12.18000
 30
 0
 40
1.00000
  0
CIRCLE
  8
Kontur
 62
   7
 39
0.100
  6
CONTINUOUS
 10
134.08000
 20
14.72000
 30
 0
 40
1.00000
  0
CIRCLE
  8
Kontur
 62
   7
 39
0.100
  6
CONTINUOUS
 10
134.08000
 20
17.26000
 30
 0
 40
1.00000
  0
LINE
  8
Bezugspunkte
 62
   1
 39
0.100
  6
CONTINUOUS
 10
-0.74300
 20
0.00000
 30
 0
 11
0.74300
 21
0.00000
  0
LINE
  8
Bezugspunkte
 62
   1
 39
0.100
  6
CONTINUOUS
 10
0.00000
 20
-0.74300
 30
 0
 11
0.00000
 21
0.74300
  0
LINE
  8
Bezugspunkte
 62
   1
 39
0.100
  6
CONTINUOUS
 10
159.25700
 20
38.00000
 30
 0
 11
160.74300
 21
38.00000
  0
LINE
  8
Bezugspunkte
 62
   1
 39
0.100
  6
CONTINUOUS
 10
160.00000
 20
37.25700
 30
 0
 11
160.00000
 21
38.74300
  0
LINE
  8
Bezugspunkte
 62
   1
 39
0.100
  6
CONTINUOUS
 10
3.25700
 20
38.00000
 30
 0
 11
4.74300
 21
38.00000
  0
LINE
  8
Bezugspunkte
 62
   1
 39
0.100
  6
CONTINUOUS
 10
4.00000
 20
37.25700
 30
 0
 11
4.00000
 21
38.74300
  0
LINE
  8
Bezugspunkte
 62
   1
 39
0.100
  6
CONTINUOUS
 10
159.25700
 20
4.00000
 30
 0
 11
160.74300
 21
4.00000
  0
LINE
  8
Bezugspunkte
 62
   1
 39
0.100
  6
CONTINUOUS
 10
160.00000
 20
3.25700
 30
 0
 11
160.00000
 21
4.74300
  0
LINE
  8
Bezugspunkte
 62
   1
 39
0.100
  6
CONTINUOUS
 10
3.25700
 20
4.00000
 30
 0
 11
4.74300
 21
4.00000
  0
LINE
  8
Bezugspunkte
 62
   1
 39
0.100
  6
CONTINUOUS
 10
4.00000
 20
3.25700
 30
 0
 11
4.00000
 21
4.74300
  0
LINE
  8
Bezugspunkte
 62
   1
 39
0.100
  6
CONTINUOUS
 10
16.49700
 20
12.10000
 30
 0
 11
17.98300
 21
12.10000
  0
LINE
  8
Bezugspunkte
 62
   1
 39
0.100
  6
CONTINUOUS
 10
17.24000
 20
11.35700
 30
 0
 11
17.24000
 21
12.84300
  0
LINE
  8
Bezugspunkte
 62
   1
 39
0.100
  6
CONTINUOUS
 10
29.82700
 20
12.55000
 30
 0
 11
31.31300
 21
12.55000
  0
LINE
  8
Bezugspunkte
 62
   1
 39
0.100
  6
CONTINUOUS
 10
30.57000
 20
11.80700
 30
 0
 11
30.57000
 21
13.29300
  0
LINE
  8
Bezugspunkte
 62
   1
 39
0.100
  6
CONTINUOUS
 10
45.75700
 20
13.10000
 30
 0
 11
47.24300
 21
13.10000
  0
LINE
  8
Bezugspunkte
 62
   1
 39
0.100
  6
CONTINUOUS
 10
46.50000
 20
12.35700
 30
 0
 11
46.50000
 21
13.84300
  0
LINE
  8
Bezugspunkte
 62
   1
 39
0.100
  6
CONTINUOUS
 10
67.92700
 20
13.10000
 30
 0
 11
69.41300
 21
13.10000
  0
LINE
  8
Bezugspunkte
 62
   1
 39
0.100
  6
CONTINUOUS
 10
68.67000
 20
12.35700
 30
 0
 11
68.67000
 21
13.84300
  0
LINE
  8
Bezugspunkte
 62
   1
 39
0.100
  6
CONTINUOUS
 10
85.70700
 20
12.55000
 30
 0
 11
87.19300
 21
12.55000
  0
LINE
  8
Bezugspunkte
 62
   1
 39
0.100
  6
CONTINUOUS
 10
86.45000
 20
11.80700
 30
 0
 11
86.45000
 21
13.29300
  0
LINE
  8
Bezugspunkte
 62
   1
 39
0.100
  6
CONTINUOUS
 10
146.66700
 20
14.25000
 30
 0
 11
148.15300
 21
14.25000
  0
LINE
  8
Bezugspunkte
 62
   1
 39
0.100
  6
CONTINUOUS
 10
147.41000
 20
13.50700
 30
 0
 11
147.41000
 21
14.99300
  0
LINE
  8
Bezugspunkte
 62
   1
 39
0.100
  6
CONTINUOUS
 10
133.33700
 20
9.64000
 30
 0
 11
134.82300
 21
9.64000
  0
LINE
  8
Bezugspunkte
 62
   1
 39
0.100
  6
CONTINUOUS
 10
134.08000
 20
8.89700
 30
 0
 11
134.08000
 21
10.38300
  0
LINE
  8
Bezugspunkte
 62
   1
 39
0.100
  6
CONTINUOUS
 10
108.75700
 20
10.10000
 30
 0
 11
110.24300
 21
10.10000
  0
LINE
  8
Bezugspunkte
 62
   1
 39
0.100
  6
CONTINUOUS
 10
109.50000
 20
9.35700
 30
 0
 11
109.50000
 21
10.84300
  0
LINE
  8
Bezugspunkte
 62
   1
 39
0.100
  6
CONTINUOUS
 10
133.33700
 20
12.18000
 30
 0
 11
134.82300
 21
12.18000
  0
LINE
  8
Bezugspunkte
 62
   1
 39
0.100
  6
CONTINUOUS
 10
134.08000
 20
11.43700
 30
 0
 11
134.08000
 21
12.92300
  0
LINE
  8
Bezugspunkte
 62
   1
 39
0.100
  6
CONTINUOUS
 10
133.33700
 20
14.72000
 30
 0
 11
134.82300
 21
14.72000
  0
LINE
  8
Bezugspunkte
 62
   1
 39
0.100
  6
CONTINUOUS
 10
134.08000
 20
13.97700
 30
 0
 11
134.08000
 21
15.46300
  0
LINE
  8
Bezugspunkte
 62
   1
 39
0.100
  6
CONTINUOUS
 10
133.33700
 20
17.26000
 30
 0
 11
134.82300
 21
17.26000
  0
LINE
  8
Bezugspunkte
 62
   1
 39
0.100
  6
CONTINUOUS
 10
134.08000
 20
16.51700
 30
 0
 11
134.08000
 21
18.00300
  0
LINE
  8
Bezugspunkte
 62
   1
 39
0.100
  6
CONTINUOUS
 10
60.30700
 20
35.00000
 30
 0
 11
61.79300
 21
35.00000
  0
LINE
  8
Bezugspunkte
 62
   1
 39
0.100
  6
CONTINUOUS
 10
61.05000
 20
34.25700
 30
 0
 11
61.05000
 21
35.74300
  0
LINE
  8
Bezugspunkte
 62
   1
 39
0.100
  6
CONTINUOUS
 10
43.25700
 20
4.00000
 30
 0
 11
44.74300
 21
4.00000
  0
LINE
  8
Bezugspunkte
 62
   1
 39
0.100
  6
CONTINUOUS
 10
44.00000
 20
3.25700
 30
 0
 11
44.00000
 21
4.74300
  0
LINE
  8
Bezugspunkte
 62
   1
 39
0.100
  6
CONTINUOUS
 10
63.25700
 20
4.00000
 30
 0
 11
64.74300
 21
4.00000
  0
LINE
  8
Bezugspunkte
 62
   1
 39
0.100
  6
CONTINUOUS
 10
64.00000
 20
3.25700
 30
 0
 11
64.00000
 21
4.74300
  0
LINE
  8
Bezugspunkte
 62
   1
 39
0.100
  6
CONTINUOUS
 10
26.75700
 20
4.00000
 30
 0
 11
28.24300
 21
4.00000
  0
LINE
  8
Bezugspunkte
 62
   1
 39
0.100
  6
CONTINUOUS
 10
27.50000
 20
3.25700
 30
 0
 11
27.50000
 21
4.74300
  0
LINE
  8
Bezugspunkte
 62
   1
 39
0.100
  6
CONTINUOUS
 10
82.85700
 20
4.00000
 30
 0
 11
84.34300
 21
4.00000
  0
LINE
  8
Bezugspunkte
 62
   1
 39
0.100
  6
CONTINUOUS
 10
83.60000
 20
3.25700
 30
 0
 11
83.60000
 21
4.74300
  0
LINE
  8
Bezugspunkte
 62
   1
 39
0.100
  6
CONTINUOUS
 10
12.79300
 20
4.00000
 30
 0
 11
14.27900
 21
4.00000
  0
LINE
  8
Bezugspunkte
 62
   1
 39
0.100
  6
CONTINUOUS
 10
13.53600
 20
3.25700
 30
 0
 11
13.53600
 21
4.74300
  0
ENDSEC
  0
EOF
