  0
SECTION
  2
HEADER
  9
$ACADVER
  1
AC1009
  9
$FILLMODE
 70
1
  9
$EXTMIN
 10
-99.0160
 20
-125.2160
 30
0.0000
  9
$EXTMAX
 10
467.0160
 20
276.3000
 30
0.0000
  0
ENDSEC
  0
SECTION
  2
TABLES
  0
TABLE
  2
LTYPE
 70
1
  0
LTYPE
  2
CONTINUOUS
 70
64
  3
Solid line
 72
65
 73
0
 40
0
  0
ENDTAB
  0
TABLE
  2
LAYER
 70
255
  0
LAYER
  2
18
 70
64
 62
82
  6
CONTINUOUS
  0
LAYER
  2
20
 70
64
 62
7
  6
CONTINUOUS
  0
ENDTAB
  0
ENDSEC
  0
SECTION
  2
BLOCKS
  0
BLOCK
  8
0
  2
RECT
 70
64
 10
0.0000
 20
0.0000
 30
0.0000
  3
RECT
  0
SOLID
  8
0
 10
-0.5000
 20
-0.5000
 30
0.0000
 11
0.5000
 21
-0.5000
 31
0.0000
 12
-0.5000
 22
0.5000
 32
0.0000
 13
0.5000
 23
0.5000
 33
0.0000
  0
ENDBLK
  8
0
  0
BLOCK
  8
0
  2
PIE
 70
64
 10
0.0000
 20
0.0000
 30
0.0000
  3
PIE
  0
POLYLINE
  8
0
 66
1
 10
0.0000
 20
0.0000
 30
0.0000
 40
0.5000
 41
0.5000
 70
0
  0
VERTEX
  8
0
 10
0.0000
 20
-0.2500
 30
0.0000
 42
1.0000
  0
VERTEX
  8
0
 10
0.0000
 20
0.2500
 30
0.0000
 42
1.0000
  0
VERTEX
  8
0
 10
0.0000
 20
-0.2500
 30
0.0000
  0
SEQEND
  8
0
  0
ENDBLK
  8
0
  0
BLOCK
  8
0
  2
OCTAGONP
 70
64
 10
0.0000
 20
0.0000
 30
0.0000
  3
OCTAGONP
  0
POLYLINE
  8
0
 66
1
 10
0.0000
 20
0.0000
 30
0.0000
 40
0.5000
 41
0.5000
 70
0
  0
VERTEX
  8
0
 10
-0.2500
 20
-0.1036
 30
0.0000
  0
VERTEX
  8
0
 10
-0.2500
 20
0.1036
 30
0.0000
  0
VERTEX
  8
0
 10
-0.1036
 20
0.2500
 30
0.0000
  0
VERTEX
  8
0
 10
0.1036
 20
0.2500
 30
0.0000
  0
VERTEX
  8
0
 10
0.2500
 20
0.1036
 30
0.0000
  0
VERTEX
  8
0
 10
0.2500
 20
-0.1036
 30
0.0000
  0
VERTEX
  8
0
 10
0.1036
 20
-0.2500
 30
0.0000
  0
VERTEX
  8
0
 10
-0.1036
 20
-0.2500
 30
0.0000
  0
VERTEX
  8
0
 10
-0.2500
 20
-0.1036
 30
0.0000
  0
VERTEX
  8
0
 10
-0.2500
 20
0.1036
 30
0.0000
  0
SEQEND
  8
0
  0
ENDBLK
  8
0
  0
BLOCK
  8
0
  2
SQUAREP
 70
64
 10
0.0000
 20
0.0000
 30
0.0000
  3
SQUAREP
  0
SOLID
  8
0
 10
-0.5000
 20
-0.5000
 30
0.0000
 11
0.5000
 21
-0.5000
 31
0.0000
 12
-0.5000
 22
0.5000
 32
0.0000
 13
0.5000
 23
0.5000
 33
0.0000
  0
ENDBLK
  8
0
  0
BLOCK
  8
0
  2
ROUNDP
 70
64
 10
0.0000
 20
0.0000
 30
0.0000
  3
ROUNDP
  0
POLYLINE
  8
0
 66
1
 10
0.0000
 20
0.0000
 30
0.0000
 40
0.5000
 41
0.5000
 70
0
  0
VERTEX
  8
0
 10
0.0000
 20
-0.2500
 30
0.0000
 42
1.0000
  0
VERTEX
  8
0
 10
0.0000
 20
0.2500
 30
0.0000
 42
1.0000
  0
VERTEX
  8
0
 10
0.0000
 20
-0.2500
 30
0.0000
  0
SEQEND
  8
0
  0
ENDBLK
  8
0
  0
BLOCK
  8
0
  2
ANNULUSP
 70
64
 10
0.0000
 20
0.0000
 30
0.0000
  3
ANNULUSP
  0
POLYLINE
  8
0
 66
1
 10
0.0000
 20
0.0000
 30
0.0000
 40
0.5000
 41
0.5000
 70
0
  0
VERTEX
  8
0
 10
0.0000
 20
-0.2500
 30
0.0000
 42
1.0000
  0
VERTEX
  8
0
 10
0.0000
 20
0.2500
 30
0.0000
 42
1.0000
  0
VERTEX
  8
0
 10
0.0000
 20
-0.2500
 30
0.0000
  0
SEQEND
  8
0
  0
ENDBLK
  8
0
  0
BLOCK
  8
0
  2
THERMALP
 70
64
 10
0.0000
 20
0.0000
 30
0.0000
  3
THERMALP
  0
POLYLINE
  8
0
 66
1
 10
0.0000
 20
0.0000
 30
0.0000
 40
0.1000
 41
0.1000
 70
0
  0
VERTEX
  8
0
 10
-0.2379
 20
0.4500
 30
0.0000
  0
VERTEX
  8
0
 10
0.2379
 20
0.4500
 30
0.0000
  0
SEQEND
  8
0
  0
POLYLINE
  8
0
 66
1
 10
0.0000
 20
0.0000
 30
0.0000
 40
0.0500
 41
0.0500
 70
0
  0
VERTEX
  8
0
 10
0.2379
 20
0.4250
 30
0.0000
 42
1.0000
  0
VERTEX
  8
0
 10
0.2379
 20
0.4750
 30
0.0000
  0
SEQEND
  8
0
  0
POLYLINE
  8
0
 66
1
 10
0.0000
 20
0.0000
 30
0.0000
 40
0.0500
 41
0.0500
 70
0
  0
VERTEX
  8
0
 10
-0.2379
 20
0.4750
 30
0.0000
 42
1.0000
  0
VERTEX
  8
0
 10
-0.2379
 20
0.4250
 30
0.0000
  0
SEQEND
  8
0
  0
POLYLINE
  8
0
 66
1
 10
0.0000
 20
0.0000
 30
0.0000
 40
0.1000
 41
0.1000
 70
0
  0
VERTEX
  8
0
 10
0.4500
 20
0.2379
 30
0.0000
  0
VERTEX
  8
0
 10
0.4500
 20
-0.2379
 30
0.0000
  0
SEQEND
  8
0
  0
POLYLINE
  8
0
 66
1
 10
0.0000
 20
0.0000
 30
0.0000
 40
0.0500
 41
0.0500
 70
0
  0
VERTEX
  8
0
 10
0.4250
 20
-0.2379
 30
0.0000
 42
1.0000
  0
VERTEX
  8
0
 10
0.4750
 20
-0.2379
 30
0.0000
  0
SEQEND
  8
0
  0
POLYLINE
  8
0
 66
1
 10
0.0000
 20
0.0000
 30
0.0000
 40
0.0500
 41
0.0500
 70
0
  0
VERTEX
  8
0
 10
0.4750
 20
0.2379
 30
0.0000
 42
1.0000
  0
VERTEX
  8
0
 10
0.4250
 20
0.2379
 30
0.0000
  0
SEQEND
  8
0
  0
POLYLINE
  8
0
 66
1
 10
0.0000
 20
0.0000
 30
0.0000
 40
0.1000
 41
0.1000
 70
0
  0
VERTEX
  8
0
 10
0.2379
 20
-0.4500
 30
0.0000
  0
VERTEX
  8
0
 10
-0.2379
 20
-0.4500
 30
0.0000
  0
SEQEND
  8
0
  0
POLYLINE
  8
0
 66
1
 10
0.0000
 20
0.0000
 30
0.0000
 40
0.0500
 41
0.0500
 70
0
  0
VERTEX
  8
0
 10
-0.2379
 20
-0.4250
 30
0.0000
 42
1.0000
  0
VERTEX
  8
0
 10
-0.2379
 20
-0.4750
 30
0.0000
  0
SEQEND
  8
0
  0
POLYLINE
  8
0
 66
1
 10
0.0000
 20
0.0000
 30
0.0000
 40
0.0500
 41
0.0500
 70
0
  0
VERTEX
  8
0
 10
0.2379
 20
-0.4750
 30
0.0000
 42
1.0000
  0
VERTEX
  8
0
 10
0.2379
 20
-0.4250
 30
0.0000
  0
SEQEND
  8
0
  0
POLYLINE
  8
0
 66
1
 10
0.0000
 20
0.0000
 30
0.0000
 40
0.1000
 41
0.1000
 70
0
  0
VERTEX
  8
0
 10
-0.4500
 20
-0.2379
 30
0.0000
  0
VERTEX
  8
0
 10
-0.4500
 20
0.2379
 30
0.0000
  0
SEQEND
  8
0
  0
POLYLINE
  8
0
 66
1
 10
0.0000
 20
0.0000
 30
0.0000
 40
0.0500
 41
0.0500
 70
0
  0
VERTEX
  8
0
 10
-0.4250
 20
0.2379
 30
0.0000
 42
1.0000
  0
VERTEX
  8
0
 10
-0.4750
 20
0.2379
 30
0.0000
  0
SEQEND
  8
0
  0
POLYLINE
  8
0
 66
1
 10
0.0000
 20
0.0000
 30
0.0000
 40
0.0500
 41
0.0500
 70
0
  0
VERTEX
  8
0
 10
-0.4750
 20
-0.2379
 30
0.0000
 42
1.0000
  0
VERTEX
  8
0
 10
-0.4250
 20
-0.2379
 30
0.0000
  0
SEQEND
  8
0
  0
ENDBLK
  8
0
  0
BLOCK
  8
0
  2
OCTAGONV
 70
64
 10
0.0000
 20
0.0000
 30
0.0000
  3
OCTAGONV
  0
POLYLINE
  8
0
 66
1
 10
0.0000
 20
0.0000
 30
0.0000
 40
0.5000
 41
0.5000
 70
0
  0
VERTEX
  8
0
 10
-0.2500
 20
-0.1036
 30
0.0000
  0
VERTEX
  8
0
 10
-0.2500
 20
0.1036
 30
0.0000
  0
VERTEX
  8
0
 10
-0.1036
 20
0.2500
 30
0.0000
  0
VERTEX
  8
0
 10
0.1036
 20
0.2500
 30
0.0000
  0
VERTEX
  8
0
 10
0.2500
 20
0.1036
 30
0.0000
  0
VERTEX
  8
0
 10
0.2500
 20
-0.1036
 30
0.0000
  0
VERTEX
  8
0
 10
0.1036
 20
-0.2500
 30
0.0000
  0
VERTEX
  8
0
 10
-0.1036
 20
-0.2500
 30
0.0000
  0
VERTEX
  8
0
 10
-0.2500
 20
-0.1036
 30
0.0000
  0
VERTEX
  8
0
 10
-0.2500
 20
0.1036
 30
0.0000
  0
SEQEND
  8
0
  0
ENDBLK
  8
0
  0
BLOCK
  8
0
  2
SQUAREV
 70
64
 10
0.0000
 20
0.0000
 30
0.0000
  3
SQUAREV
  0
SOLID
  8
0
 10
-0.5000
 20
-0.5000
 30
0.0000
 11
0.5000
 21
-0.5000
 31
0.0000
 12
-0.5000
 22
0.5000
 32
0.0000
 13
0.5000
 23
0.5000
 33
0.0000
  0
ENDBLK
  8
0
  0
BLOCK
  8
0
  2
ROUNDV
 70
64
 10
0.0000
 20
0.0000
 30
0.0000
  3
ROUNDV
  0
POLYLINE
  8
0
 66
1
 10
0.0000
 20
0.0000
 30
0.0000
 40
0.5000
 41
0.5000
 70
0
  0
VERTEX
  8
0
 10
0.0000
 20
-0.2500
 30
0.0000
 42
1.0000
  0
VERTEX
  8
0
 10
0.0000
 20
0.2500
 30
0.0000
 42
1.0000
  0
VERTEX
  8
0
 10
0.0000
 20
-0.2500
 30
0.0000
  0
SEQEND
  8
0
  0
ENDBLK
  8
0
  0
BLOCK
  8
0
  2
ANNULUSV
 70
64
 10
0.0000
 20
0.0000
 30
0.0000
  3
ANNULUSV
  0
POLYLINE
  8
0
 66
1
 10
0.0000
 20
0.0000
 30
0.0000
 40
0.5000
 41
0.5000
 70
0
  0
VERTEX
  8
0
 10
0.0000
 20
-0.2500
 30
0.0000
 42
1.0000
  0
VERTEX
  8
0
 10
0.0000
 20
0.2500
 30
0.0000
 42
1.0000
  0
VERTEX
  8
0
 10
0.0000
 20
-0.2500
 30
0.0000
  0
SEQEND
  8
0
  0
ENDBLK
  8
0
  0
BLOCK
  8
0
  2
THERMALV
 70
64
 10
0.0000
 20
0.0000
 30
0.0000
  3
THERMALV
  0
POLYLINE
  8
0
 66
1
 10
0.0000
 20
0.0000
 30
0.0000
 40
0.1000
 41
0.1000
 70
0
  0
VERTEX
  8
0
 10
-0.2379
 20
0.4500
 30
0.0000
  0
VERTEX
  8
0
 10
0.2379
 20
0.4500
 30
0.0000
  0
SEQEND
  8
0
  0
POLYLINE
  8
0
 66
1
 10
0.0000
 20
0.0000
 30
0.0000
 40
0.0500
 41
0.0500
 70
0
  0
VERTEX
  8
0
 10
0.2379
 20
0.4250
 30
0.0000
 42
1.0000
  0
VERTEX
  8
0
 10
0.2379
 20
0.4750
 30
0.0000
  0
SEQEND
  8
0
  0
POLYLINE
  8
0
 66
1
 10
0.0000
 20
0.0000
 30
0.0000
 40
0.0500
 41
0.0500
 70
0
  0
VERTEX
  8
0
 10
-0.2379
 20
0.4750
 30
0.0000
 42
1.0000
  0
VERTEX
  8
0
 10
-0.2379
 20
0.4250
 30
0.0000
  0
SEQEND
  8
0
  0
POLYLINE
  8
0
 66
1
 10
0.0000
 20
0.0000
 30
0.0000
 40
0.1000
 41
0.1000
 70
0
  0
VERTEX
  8
0
 10
0.4500
 20
0.2379
 30
0.0000
  0
VERTEX
  8
0
 10
0.4500
 20
-0.2379
 30
0.0000
  0
SEQEND
  8
0
  0
POLYLINE
  8
0
 66
1
 10
0.0000
 20
0.0000
 30
0.0000
 40
0.0500
 41
0.0500
 70
0
  0
VERTEX
  8
0
 10
0.4250
 20
-0.2379
 30
0.0000
 42
1.0000
  0
VERTEX
  8
0
 10
0.4750
 20
-0.2379
 30
0.0000
  0
SEQEND
  8
0
  0
POLYLINE
  8
0
 66
1
 10
0.0000
 20
0.0000
 30
0.0000
 40
0.0500
 41
0.0500
 70
0
  0
VERTEX
  8
0
 10
0.4750
 20
0.2379
 30
0.0000
 42
1.0000
  0
VERTEX
  8
0
 10
0.4250
 20
0.2379
 30
0.0000
  0
SEQEND
  8
0
  0
POLYLINE
  8
0
 66
1
 10
0.0000
 20
0.0000
 30
0.0000
 40
0.1000
 41
0.1000
 70
0
  0
VERTEX
  8
0
 10
0.2379
 20
-0.4500
 30
0.0000
  0
VERTEX
  8
0
 10
-0.2379
 20
-0.4500
 30
0.0000
  0
SEQEND
  8
0
  0
POLYLINE
  8
0
 66
1
 10
0.0000
 20
0.0000
 30
0.0000
 40
0.0500
 41
0.0500
 70
0
  0
VERTEX
  8
0
 10
-0.2379
 20
-0.4250
 30
0.0000
 42
1.0000
  0
VERTEX
  8
0
 10
-0.2379
 20
-0.4750
 30
0.0000
  0
SEQEND
  8
0
  0
POLYLINE
  8
0
 66
1
 10
0.0000
 20
0.0000
 30
0.0000
 40
0.0500
 41
0.0500
 70
0
  0
VERTEX
  8
0
 10
0.2379
 20
-0.4750
 30
0.0000
 42
1.0000
  0
VERTEX
  8
0
 10
0.2379
 20
-0.4250
 30
0.0000
  0
SEQEND
  8
0
  0
POLYLINE
  8
0
 66
1
 10
0.0000
 20
0.0000
 30
0.0000
 40
0.1000
 41
0.1000
 70
0
  0
VERTEX
  8
0
 10
-0.4500
 20
-0.2379
 30
0.0000
  0
VERTEX
  8
0
 10
-0.4500
 20
0.2379
 30
0.0000
  0
SEQEND
  8
0
  0
POLYLINE
  8
0
 66
1
 10
0.0000
 20
0.0000
 30
0.0000
 40
0.0500
 41
0.0500
 70
0
  0
VERTEX
  8
0
 10
-0.4250
 20
0.2379
 30
0.0000
 42
1.0000
  0
VERTEX
  8
0
 10
-0.4750
 20
0.2379
 30
0.0000
  0
SEQEND
  8
0
  0
POLYLINE
  8
0
 66
1
 10
0.0000
 20
0.0000
 30
0.0000
 40
0.0500
 41
0.0500
 70
0
  0
VERTEX
  8
0
 10
-0.4750
 20
-0.2379
 30
0.0000
 42
1.0000
  0
VERTEX
  8
0
 10
-0.4250
 20
-0.2379
 30
0.0000
  0
SEQEND
  8
0
  0
ENDBLK
  8
0
  0
BLOCK
  8
0
  2
LONGP100
 70
64
 10
0.0000
 20
0.0000
 30
0.0000
  3
LONGP100
  0
POLYLINE
  8
0
 66
1
 10
0.0000
 20
0.0000
 30
0.0000
 40
1.0000
 41
1.0000
 70
0
  0
VERTEX
  8
0
 10
-0.5000
 20
0.0000
 30
0.0000
  0
VERTEX
  8
0
 10
0.5000
 20
0.0000
 30
0.0000
  0
SEQEND
  8
0
  0
POLYLINE
  8
0
 66
1
 10
0.0000
 20
0.0000
 30
0.0000
 40
0.5000
 41
0.5000
 70
0
  0
VERTEX
  8
0
 10
0.5000
 20
-0.2500
 30
0.0000
 42
1.0000
  0
VERTEX
  8
0
 10
0.5000
 20
0.2500
 30
0.0000
  0
SEQEND
  8
0
  0
POLYLINE
  8
0
 66
1
 10
0.0000
 20
0.0000
 30
0.0000
 40
0.5000
 41
0.5000
 70
0
  0
VERTEX
  8
0
 10
-0.5000
 20
0.2500
 30
0.0000
 42
1.0000
  0
VERTEX
  8
0
 10
-0.5000
 20
-0.2500
 30
0.0000
  0
SEQEND
  8
0
  0
ENDBLK
  8
0
  0
ENDSEC
  0
SECTION
  2
ENTITIES
  0
LINE
  8
20
 10
0.0000
 20
0.0000
 30
0.0000
 11
320.0000
 21
0.0000
 31
0.0000
  0
LINE
  8
20
 10
320.0000
 20
235.0000
 30
0.0000
 11
0.0000
 21
235.0000
 31
0.0000
  0
LINE
  8
20
 10
0.0000
 20
235.0000
 30
0.0000
 11
0.0000
 21
0.0000
 31
0.0000
  0
LINE
  8
20
 10
320.0000
 20
0.0000
 30
0.0000
 11
320.0000
 21
235.0000
 31
0.0000
  0
CIRCLE
  8
20
 10
297.6000
 20
107.0000
 30
0.0000
 40
1.0500
  0
CIRCLE
  8
20
 10
282.6000
 20
107.0000
 30
0.0000
 40
1.0500
  0
CIRCLE
  8
20
 10
297.6000
 20
96.7500
 30
0.0000
 40
1.0500
  0
CIRCLE
  8
20
 10
282.6000
 20
96.7500
 30
0.0000
 40
1.0500
  0
CIRCLE
  8
20
 10
230.0000
 20
33.0000
 30
0.0000
 40
5.5000
  0
CIRCLE
  8
20
 10
5.0000
 20
5.0000
 30
0.0000
 40
2.2500
  0
CIRCLE
  8
20
 10
130.0000
 20
115.0000
 30
0.0000
 40
2.2500
  0
CIRCLE
  8
20
 10
315.0000
 20
230.0000
 30
0.0000
 40
2.2500
  0
CIRCLE
  8
20
 10
5.0000
 20
160.0000
 30
0.0000
 40
2.2500
  0
CIRCLE
  8
20
 10
203.5000
 20
37.7500
 30
0.0000
 40
1.2500
  0
CIRCLE
  8
20
 10
163.5000
 20
60.2500
 30
0.0000
 40
1.2500
  0
CIRCLE
  8
20
 10
158.5000
 20
49.0000
 30
0.0000
 40
2.7500
  0
CIRCLE
  8
20
 10
208.5000
 20
49.0000
 30
0.0000
 40
2.7500
  0
CIRCLE
  8
20
 10
203.5000
 20
7.2500
 30
0.0000
 40
1.2500
  0
CIRCLE
  8
20
 10
163.5000
 20
29.7500
 30
0.0000
 40
1.2500
  0
CIRCLE
  8
20
 10
158.5000
 20
18.5000
 30
0.0000
 40
2.7500
  0
CIRCLE
  8
20
 10
208.5000
 20
18.5000
 30
0.0000
 40
2.7500
  0
INSERT
  8
18
  2
ROUNDV
 10
37.0000
 20
108.5000
 30
0.0000
 41
0.7000
 42
0.7000
 43
1.0000
 50
0.0000
  0
INSERT
  8
18
  2
ROUNDV
 10
37.0000
 20
105.2500
 30
0.0000
 41
0.7000
 42
0.7000
 43
1.0000
 50
0.0000
  0
INSERT
  8
18
  2
ROUNDV
 10
67.5000
 20
97.7500
 30
0.0000
 41
0.7000
 42
0.7000
 43
1.0000
 50
0.0000
  0
INSERT
  8
18
  2
ROUNDV
 10
67.5000
 20
118.5000
 30
0.0000
 41
0.7000
 42
0.7000
 43
1.0000
 50
0.0000
  0
INSERT
  8
18
  2
ROUNDV
 10
67.5000
 20
96.7500
 30
0.0000
 41
0.7000
 42
0.7000
 43
1.0000
 50
0.0000
  0
INSERT
  8
18
  2
ROUNDV
 10
67.5000
 20
120.0000
 30
0.0000
 41
0.7000
 42
0.7000
 43
1.0000
 50
0.0000
  0
INSERT
  8
18
  2
ROUNDV
 10
19.2500
 20
83.7500
 30
0.0000
 41
0.7000
 42
0.7000
 43
1.0000
 50
0.0000
  0
INSERT
  8
18
  2
ROUNDV
 10
18.7500
 20
100.5000
 30
0.0000
 41
0.7000
 42
0.7000
 43
1.0000
 50
0.0000
  0
INSERT
  8
18
  2
ROUNDV
 10
19.5000
 20
108.0000
 30
0.0000
 41
0.7000
 42
0.7000
 43
1.0000
 50
0.0000
  0
INSERT
  8
18
  2
ROUNDV
 10
29.7500
 20
82.7500
 30
0.0000
 41
0.7000
 42
0.7000
 43
1.0000
 50
0.0000
  0
INSERT
  8
18
  2
ROUNDV
 10
20.5000
 20
104.7500
 30
0.0000
 41
0.7000
 42
0.7000
 43
1.0000
 50
0.0000
  0
INSERT
  8
18
  2
ROUNDV
 10
28.5000
 20
85.7500
 30
0.0000
 41
0.7000
 42
0.7000
 43
1.0000
 50
0.0000
  0
INSERT
  8
18
  2
ROUNDV
 10
28.5000
 20
89.7500
 30
0.0000
 41
0.7000
 42
0.7000
 43
1.0000
 50
0.0000
  0
INSERT
  8
18
  2
ROUNDV
 10
19.2500
 20
84.7500
 30
0.0000
 41
0.7000
 42
0.7000
 43
1.0000
 50
0.0000
  0
INSERT
  8
18
  2
ROUNDV
 10
20.7500
 20
112.7500
 30
0.0000
 41
0.7000
 42
0.7000
 43
1.0000
 50
0.0000
  0
INSERT
  8
18
  2
ROUNDV
 10
24.7500
 20
92.0000
 30
0.0000
 41
0.7000
 42
0.7000
 43
1.0000
 50
0.0000
  0
INSERT
  8
18
  2
ROUNDV
 10
43.0000
 20
90.0000
 30
0.0000
 41
0.7000
 42
0.7000
 43
1.0000
 50
0.0000
  0
INSERT
  8
18
  2
ROUNDV
 10
44.0000
 20
101.5000
 30
0.0000
 41
0.7000
 42
0.7000
 43
1.0000
 50
0.0000
  0
INSERT
  8
18
  2
ROUNDV
 10
35.5000
 20
103.0000
 30
0.0000
 41
0.7000
 42
0.7000
 43
1.0000
 50
0.0000
  0
INSERT
  8
18
  2
ROUNDV
 10
33.0000
 20
94.0000
 30
0.0000
 41
0.7000
 42
0.7000
 43
1.0000
 50
0.0000
  0
INSERT
  8
18
  2
ROUNDV
 10
20.7500
 20
94.2500
 30
0.0000
 41
0.7000
 42
0.7000
 43
1.0000
 50
0.0000
  0
INSERT
  8
18
  2
ROUNDV
 10
20.2500
 20
106.0000
 30
0.0000
 41
0.7000
 42
0.7000
 43
1.0000
 50
0.0000
  0
INSERT
  8
18
  2
ROUNDV
 10
33.2500
 20
78.2500
 30
0.0000
 41
0.7000
 42
0.7000
 43
1.0000
 50
0.0000
  0
INSERT
  8
18
  2
ROUNDV
 10
27.0000
 20
80.7500
 30
0.0000
 41
0.7000
 42
0.7000
 43
1.0000
 50
0.0000
  0
INSERT
  8
18
  2
ROUNDV
 10
27.0000
 20
74.7500
 30
0.0000
 41
0.7000
 42
0.7000
 43
1.0000
 50
0.0000
  0
INSERT
  8
18
  2
ROUNDV
 10
112.7500
 20
118.5000
 30
0.0000
 41
0.7000
 42
0.7000
 43
1.0000
 50
0.0000
  0
INSERT
  8
18
  2
ROUNDV
 10
119.5000
 20
113.0000
 30
0.0000
 41
0.7000
 42
0.7000
 43
1.0000
 50
0.0000
  0
INSERT
  8
18
  2
ROUNDV
 10
165.2500
 20
72.5000
 30
0.0000
 41
0.7000
 42
0.7000
 43
1.0000
 50
0.0000
  0
INSERT
  8
18
  2
ROUNDV
 10
71.7500
 20
120.0000
 30
0.0000
 41
0.7000
 42
0.7000
 43
1.0000
 50
0.0000
  0
INSERT
  8
18
  2
ROUNDV
 10
50.5000
 20
101.5000
 30
0.0000
 41
0.7000
 42
0.7000
 43
1.0000
 50
0.0000
  0
INSERT
  8
18
  2
ROUNDV
 10
66.0000
 20
93.0000
 30
0.0000
 41
0.7000
 42
0.7000
 43
1.0000
 50
0.0000
  0
INSERT
  8
18
  2
ROUNDV
 10
53.7500
 20
85.0000
 30
0.0000
 41
0.7000
 42
0.7000
 43
1.0000
 50
0.0000
  0
INSERT
  8
18
  2
ROUNDV
 10
52.7500
 20
75.2500
 30
0.0000
 41
0.7000
 42
0.7000
 43
1.0000
 50
0.0000
  0
INSERT
  8
18
  2
ROUNDV
 10
61.2500
 20
71.7500
 30
0.0000
 41
0.7000
 42
0.7000
 43
1.0000
 50
0.0000
  0
INSERT
  8
18
  2
ROUNDV
 10
54.5000
 20
73.2500
 30
0.0000
 41
0.7000
 42
0.7000
 43
1.0000
 50
0.0000
  0
INSERT
  8
18
  2
ROUNDV
 10
165.2500
 20
69.5000
 30
0.0000
 41
0.7000
 42
0.7000
 43
1.0000
 50
0.0000
  0
INSERT
  8
18
  2
ROUNDV
 10
165.2500
 20
68.0000
 30
0.0000
 41
0.7000
 42
0.7000
 43
1.0000
 50
0.0000
  0
INSERT
  8
18
  2
ROUNDV
 10
179.0000
 20
71.2500
 30
0.0000
 41
0.7000
 42
0.7000
 43
1.0000
 50
0.0000
  0
INSERT
  8
18
  2
ROUNDV
 10
180.7500
 20
73.0000
 30
0.0000
 41
0.7000
 42
0.7000
 43
1.0000
 50
0.0000
  0
INSERT
  8
18
  2
ROUNDV
 10
135.2500
 20
85.0000
 30
0.0000
 41
0.7000
 42
0.7000
 43
1.0000
 50
0.0000
  0
INSERT
  8
18
  2
ROUNDV
 10
135.2500
 20
81.5000
 30
0.0000
 41
0.7000
 42
0.7000
 43
1.0000
 50
0.0000
  0
INSERT
  8
18
  2
ROUNDV
 10
153.0000
 20
83.7500
 30
0.0000
 41
0.9000
 42
0.9000
 43
1.0000
 50
0.0000
  0
INSERT
  8
18
  2
ROUNDV
 10
153.0000
 20
80.5000
 30
0.0000
 41
0.9000
 42
0.9000
 43
1.0000
 50
0.0000
  0
INSERT
  8
18
  2
ROUNDV
 10
69.0000
 20
87.7500
 30
0.0000
 41
0.7000
 42
0.7000
 43
1.0000
 50
0.0000
  0
INSERT
  8
18
  2
ROUNDV
 10
70.0000
 20
69.7500
 30
0.0000
 41
0.7000
 42
0.7000
 43
1.0000
 50
0.0000
  0
INSERT
  8
18
  2
ROUNDV
 10
60.5000
 20
70.7500
 30
0.0000
 41
0.7000
 42
0.7000
 43
1.0000
 50
0.0000
  0
INSERT
  8
18
  2
ROUNDV
 10
52.0000
 20
74.5000
 30
0.0000
 41
0.7000
 42
0.7000
 43
1.0000
 50
0.0000
  0
INSERT
  8
18
  2
ROUNDV
 10
121.2500
 20
107.5000
 30
0.0000
 41
0.9000
 42
0.9000
 43
1.0000
 50
0.0000
  0
INSERT
  8
18
  2
ROUNDV
 10
121.2500
 20
103.7500
 30
0.0000
 41
0.9000
 42
0.9000
 43
1.0000
 50
0.0000
  0
INSERT
  8
18
  2
ROUNDV
 10
107.5000
 20
52.0000
 30
0.0000
 41
0.9000
 42
0.9000
 43
1.0000
 50
0.0000
  0
INSERT
  8
18
  2
ROUNDV
 10
107.5000
 20
49.5000
 30
0.0000
 41
0.9000
 42
0.9000
 43
1.0000
 50
0.0000
  0
INSERT
  8
18
  2
ROUNDV
 10
30.0000
 20
73.0000
 30
0.0000
 41
0.7000
 42
0.7000
 43
1.0000
 50
0.0000
  0
INSERT
  8
18
  2
ROUNDV
 10
27.5000
 20
73.0000
 30
0.0000
 41
0.7000
 42
0.7000
 43
1.0000
 50
0.0000
  0
INSERT
  8
18
  2
ROUNDV
 10
107.5000
 20
123.5000
 30
0.0000
 41
0.7000
 42
0.7000
 43
1.0000
 50
0.0000
  0
INSERT
  8
18
  2
ROUNDV
 10
112.7500
 20
117.0000
 30
0.0000
 41
0.7000
 42
0.7000
 43
1.0000
 50
0.0000
  0
INSERT
  8
18
  2
ROUNDV
 10
118.0000
 20
111.2500
 30
0.0000
 41
0.7000
 42
0.7000
 43
1.0000
 50
0.0000
  0
INSERT
  8
18
  2
ROUNDV
 10
60.7500
 20
67.2500
 30
0.0000
 41
0.7000
 42
0.7000
 43
1.0000
 50
0.0000
  0
INSERT
  8
18
  2
ROUNDV
 10
52.5000
 20
69.0000
 30
0.0000
 41
0.7000
 42
0.7000
 43
1.0000
 50
0.0000
  0
INSERT
  8
18
  2
ROUNDV
 10
219.2500
 20
106.5000
 30
0.0000
 41
0.9000
 42
0.9000
 43
1.0000
 50
0.0000
  0
INSERT
  8
18
  2
ROUNDV
 10
223.7500
 20
106.5000
 30
0.0000
 41
0.9000
 42
0.9000
 43
1.0000
 50
0.0000
  0
INSERT
  8
18
  2
ROUNDV
 10
218.7500
 20
95.0000
 30
0.0000
 41
0.9000
 42
0.9000
 43
1.0000
 50
0.0000
  0
INSERT
  8
18
  2
ROUNDV
 10
240.2500
 20
68.0000
 30
0.0000
 41
0.9000
 42
0.9000
 43
1.0000
 50
0.0000
  0
INSERT
  8
18
  2
ROUNDV
 10
198.7500
 20
73.2500
 30
0.0000
 41
0.9000
 42
0.9000
 43
1.0000
 50
0.0000
  0
INSERT
  8
18
  2
ROUNDV
 10
209.7500
 20
76.5000
 30
0.0000
 41
0.9000
 42
0.9000
 43
1.0000
 50
0.0000
  0
INSERT
  8
18
  2
ROUNDV
 10
195.0000
 20
66.5000
 30
0.0000
 41
0.9000
 42
0.9000
 43
1.0000
 50
0.0000
  0
INSERT
  8
18
  2
ROUNDV
 10
68.2500
 20
88.5000
 30
0.0000
 41
0.7000
 42
0.7000
 43
1.0000
 50
0.0000
  0
INSERT
  8
18
  2
ROUNDV
 10
68.2500
 20
72.5000
 30
0.0000
 41
0.7000
 42
0.7000
 43
1.0000
 50
0.0000
  0
INSERT
  8
18
  2
ROUNDV
 10
67.5000
 20
87.7500
 30
0.0000
 41
0.7000
 42
0.7000
 43
1.0000
 50
0.0000
  0
INSERT
  8
18
  2
ROUNDV
 10
67.5000
 20
71.7500
 30
0.0000
 41
0.7000
 42
0.7000
 43
1.0000
 50
0.0000
  0
INSERT
  8
18
  2
ROUNDV
 10
37.7500
 20
113.7500
 30
0.0000
 41
0.7000
 42
0.7000
 43
1.0000
 50
0.0000
  0
INSERT
  8
18
  2
ROUNDV
 10
36.2500
 20
115.2500
 30
0.0000
 41
0.7000
 42
0.7000
 43
1.0000
 50
0.0000
  0
INSERT
  8
18
  2
ROUNDV
 10
18.7500
 20
105.5000
 30
0.0000
 41
0.7000
 42
0.7000
 43
1.0000
 50
0.0000
  0
INSERT
  8
18
  2
ROUNDV
 10
18.0000
 20
101.2500
 30
0.0000
 41
0.7000
 42
0.7000
 43
1.0000
 50
0.0000
  0
INSERT
  8
18
  2
ROUNDV
 10
12.7500
 20
90.2500
 30
0.0000
 41
0.7000
 42
0.7000
 43
1.0000
 50
0.0000
  0
INSERT
  8
18
  2
ROUNDV
 10
99.5000
 20
99.7500
 30
0.0000
 41
0.7000
 42
0.7000
 43
1.0000
 50
0.0000
  0
INSERT
  8
18
  2
ROUNDV
 10
90.2500
 20
86.5000
 30
0.0000
 41
0.7000
 42
0.7000
 43
1.0000
 50
0.0000
  0
INSERT
  8
18
  2
ROUNDV
 10
66.0000
 20
84.5000
 30
0.0000
 41
0.7000
 42
0.7000
 43
1.0000
 50
0.0000
  0
INSERT
  8
18
  2
ROUNDV
 10
65.7500
 20
71.7500
 30
0.0000
 41
0.7000
 42
0.7000
 43
1.0000
 50
0.0000
  0
INSERT
  8
18
  2
ROUNDV
 10
100.2500
 20
99.0000
 30
0.0000
 41
0.7000
 42
0.7000
 43
1.0000
 50
0.0000
  0
INSERT
  8
18
  2
ROUNDV
 10
91.2500
 20
86.2500
 30
0.0000
 41
0.7000
 42
0.7000
 43
1.0000
 50
0.0000
  0
INSERT
  8
18
  2
ROUNDV
 10
66.7500
 20
83.7500
 30
0.0000
 41
0.7000
 42
0.7000
 43
1.0000
 50
0.0000
  0
INSERT
  8
18
  2
ROUNDV
 10
66.7500
 20
72.5000
 30
0.0000
 41
0.7000
 42
0.7000
 43
1.0000
 50
0.0000
  0
INSERT
  8
18
  2
ROUNDV
 10
47.5000
 20
108.5000
 30
0.0000
 41
0.7000
 42
0.7000
 43
1.0000
 50
0.0000
  0
INSERT
  8
18
  2
ROUNDV
 10
50.5000
 20
104.0000
 30
0.0000
 41
0.7000
 42
0.7000
 43
1.0000
 50
0.0000
  0
INSERT
  8
18
  2
ROUNDV
 10
67.5000
 20
95.7500
 30
0.0000
 41
0.7000
 42
0.7000
 43
1.0000
 50
0.0000
  0
INSERT
  8
18
  2
ROUNDV
 10
67.0000
 20
109.7500
 30
0.0000
 41
0.7000
 42
0.7000
 43
1.0000
 50
0.0000
  0
INSERT
  8
18
  2
ROUNDV
 10
49.5000
 20
104.0000
 30
0.0000
 41
0.7000
 42
0.7000
 43
1.0000
 50
0.0000
  0
INSERT
  8
18
  2
ROUNDV
 10
45.5000
 20
108.2500
 30
0.0000
 41
0.7000
 42
0.7000
 43
1.0000
 50
0.0000
  0
INSERT
  8
18
  2
ROUNDV
 10
67.5000
 20
94.5000
 30
0.0000
 41
0.7000
 42
0.7000
 43
1.0000
 50
0.0000
  0
INSERT
  8
18
  2
ROUNDV
 10
67.0000
 20
110.7500
 30
0.0000
 41
0.7000
 42
0.7000
 43
1.0000
 50
0.0000
  0
INSERT
  8
18
  2
ROUNDV
 10
170.5000
 20
133.2500
 30
0.0000
 41
0.9000
 42
0.9000
 43
1.0000
 50
0.0000
  0
INSERT
  8
18
  2
ROUNDV
 10
184.2500
 20
133.2500
 30
0.0000
 41
0.9000
 42
0.9000
 43
1.0000
 50
0.0000
  0
INSERT
  8
18
  2
ROUNDV
 10
169.7500
 20
189.2500
 30
0.0000
 41
0.9000
 42
0.9000
 43
1.0000
 50
0.0000
  0
INSERT
  8
18
  2
ROUNDV
 10
185.0000
 20
189.2500
 30
0.0000
 41
0.9000
 42
0.9000
 43
1.0000
 50
0.0000
  0
INSERT
  8
18
  2
ROUNDV
 10
25.7500
 20
96.7500
 30
0.0000
 41
0.7000
 42
0.7000
 43
1.0000
 50
0.0000
  0
INSERT
  8
18
  2
ROUNDV
 10
25.7500
 20
95.7500
 30
0.0000
 41
0.7000
 42
0.7000
 43
1.0000
 50
0.0000
  0
INSERT
  8
18
  2
ROUNDV
 10
28.7500
 20
101.2500
 30
0.0000
 41
0.7000
 42
0.7000
 43
1.0000
 50
0.0000
  0
INSERT
  8
18
  2
ROUNDV
 10
33.7500
 20
99.2500
 30
0.0000
 41
0.7000
 42
0.7000
 43
1.0000
 50
0.0000
  0
INSERT
  8
18
  2
ROUNDV
 10
34.0000
 20
93.2500
 30
0.0000
 41
0.7000
 42
0.7000
 43
1.0000
 50
0.0000
  0
INSERT
  8
18
  2
ROUNDV
 10
36.2500
 20
86.2500
 30
0.0000
 41
0.7000
 42
0.7000
 43
1.0000
 50
0.0000
  0
INSERT
  8
18
  2
ROUNDV
 10
33.5000
 20
86.0000
 30
0.0000
 41
0.7000
 42
0.7000
 43
1.0000
 50
0.0000
  0
INSERT
  8
18
  2
ROUNDV
 10
53.7500
 20
83.7500
 30
0.0000
 41
0.7000
 42
0.7000
 43
1.0000
 50
0.0000
  0
INSERT
  8
18
  2
ROUNDV
 10
23.7500
 20
87.7500
 30
0.0000
 41
0.7000
 42
0.7000
 43
1.0000
 50
0.0000
  0
INSERT
  8
18
  2
ROUNDV
 10
33.7500
 20
109.5000
 30
0.0000
 41
0.7000
 42
0.7000
 43
1.0000
 50
0.0000
  0
INSERT
  8
18
  2
ROUNDV
 10
26.0000
 20
113.5000
 30
0.0000
 41
0.7000
 42
0.7000
 43
1.0000
 50
0.0000
  0
INSERT
  8
18
  2
ROUNDV
 10
27.0000
 20
85.7500
 30
0.0000
 41
0.7000
 42
0.7000
 43
1.0000
 50
0.0000
  0
INSERT
  8
18
  2
ROUNDV
 10
43.0000
 20
91.7500
 30
0.0000
 41
0.7000
 42
0.7000
 43
1.0000
 50
0.0000
  0
INSERT
  8
18
  2
ROUNDV
 10
17.5000
 20
97.0000
 30
0.0000
 41
0.7000
 42
0.7000
 43
1.0000
 50
0.0000
  0
INSERT
  8
18
  2
ROUNDV
 10
28.5000
 20
93.2500
 30
0.0000
 41
0.7000
 42
0.7000
 43
1.0000
 50
0.0000
  0
INSERT
  8
18
  2
ROUNDV
 10
41.0000
 20
100.0000
 30
0.0000
 41
0.7000
 42
0.7000
 43
1.0000
 50
0.0000
  0
INSERT
  8
18
  2
ROUNDV
 10
28.5000
 20
108.7500
 30
0.0000
 41
0.7000
 42
0.7000
 43
1.0000
 50
0.0000
  0
INSERT
  8
18
  2
ROUNDV
 10
40.5000
 20
80.5000
 30
0.0000
 41
0.7000
 42
0.7000
 43
1.0000
 50
0.0000
  0
INSERT
  8
18
  2
ROUNDV
 10
42.5000
 20
80.5000
 30
0.0000
 41
0.7000
 42
0.7000
 43
1.0000
 50
0.0000
  0
INSERT
  8
18
  2
ROUNDV
 10
44.5000
 20
80.5000
 30
0.0000
 41
0.7000
 42
0.7000
 43
1.0000
 50
0.0000
  0
INSERT
  8
18
  2
ROUNDV
 10
46.5000
 20
80.5000
 30
0.0000
 41
0.7000
 42
0.7000
 43
1.0000
 50
0.0000
  0
INSERT
  8
18
  2
ROUNDV
 10
48.5000
 20
80.5000
 30
0.0000
 41
0.7000
 42
0.7000
 43
1.0000
 50
0.0000
  0
INSERT
  8
18
  2
ROUNDV
 10
50.5000
 20
80.5000
 30
0.0000
 41
0.7000
 42
0.7000
 43
1.0000
 50
0.0000
  0
INSERT
  8
18
  2
ROUNDV
 10
17.5000
 20
95.5000
 30
0.0000
 41
0.7000
 42
0.7000
 43
1.0000
 50
0.0000
  0
INSERT
  8
18
  2
ROUNDV
 10
18.2500
 20
112.7500
 30
0.0000
 41
0.7000
 42
0.7000
 43
1.0000
 50
0.0000
  0
INSERT
  8
18
  2
ROUNDV
 10
35.0000
 20
90.0000
 30
0.0000
 41
0.7000
 42
0.7000
 43
1.0000
 50
0.0000
  0
INSERT
  8
18
  2
ROUNDV
 10
46.7500
 20
86.0000
 30
0.0000
 41
0.7000
 42
0.7000
 43
1.0000
 50
0.0000
  0
INSERT
  8
18
  2
ROUNDV
 10
46.7500
 20
88.0000
 30
0.0000
 41
0.7000
 42
0.7000
 43
1.0000
 50
0.0000
  0
INSERT
  8
18
  2
ROUNDV
 10
46.7500
 20
90.0000
 30
0.0000
 41
0.7000
 42
0.7000
 43
1.0000
 50
0.0000
  0
INSERT
  8
18
  2
ROUNDV
 10
46.7500
 20
92.0000
 30
0.0000
 41
0.7000
 42
0.7000
 43
1.0000
 50
0.0000
  0
INSERT
  8
18
  2
ROUNDV
 10
46.7500
 20
94.0000
 30
0.0000
 41
0.7000
 42
0.7000
 43
1.0000
 50
0.0000
  0
INSERT
  8
18
  2
ROUNDV
 10
46.7500
 20
96.0000
 30
0.0000
 41
0.7000
 42
0.7000
 43
1.0000
 50
0.0000
  0
INSERT
  8
18
  2
ROUNDV
 10
46.7500
 20
98.0000
 30
0.0000
 41
0.7000
 42
0.7000
 43
1.0000
 50
0.0000
  0
INSERT
  8
18
  2
ROUNDV
 10
94.5000
 20
86.2500
 30
0.0000
 41
0.7000
 42
0.7000
 43
1.0000
 50
0.0000
  0
INSERT
  8
18
  2
ROUNDV
 10
103.5000
 20
120.7500
 30
0.0000
 41
0.7000
 42
0.7000
 43
1.0000
 50
0.0000
  0
INSERT
  8
18
  2
ROUNDV
 10
103.5000
 20
117.2500
 30
0.0000
 41
0.7000
 42
0.7000
 43
1.0000
 50
0.0000
  0
INSERT
  8
18
  2
ROUNDV
 10
103.5000
 20
113.7500
 30
0.0000
 41
0.7000
 42
0.7000
 43
1.0000
 50
0.0000
  0
INSERT
  8
18
  2
ROUNDV
 10
103.5000
 20
110.2500
 30
0.0000
 41
0.7000
 42
0.7000
 43
1.0000
 50
0.0000
  0
INSERT
  8
18
  2
ROUNDV
 10
103.5000
 20
106.7500
 30
0.0000
 41
0.7000
 42
0.7000
 43
1.0000
 50
0.0000
  0
INSERT
  8
18
  2
ROUNDV
 10
103.5000
 20
92.7500
 30
0.0000
 41
0.7000
 42
0.7000
 43
1.0000
 50
0.0000
  0
INSERT
  8
18
  2
ROUNDV
 10
103.5000
 20
103.2500
 30
0.0000
 41
0.7000
 42
0.7000
 43
1.0000
 50
0.0000
  0
INSERT
  8
18
  2
ROUNDV
 10
103.5000
 20
99.7500
 30
0.0000
 41
0.7000
 42
0.7000
 43
1.0000
 50
0.0000
  0
INSERT
  8
18
  2
ROUNDV
 10
103.5000
 20
96.2500
 30
0.0000
 41
0.7000
 42
0.7000
 43
1.0000
 50
0.0000
  0
INSERT
  8
18
  2
ROUNDV
 10
103.5000
 20
89.2500
 30
0.0000
 41
0.7000
 42
0.7000
 43
1.0000
 50
0.0000
  0
INSERT
  8
18
  2
ROUNDV
 10
103.5000
 20
85.7500
 30
0.0000
 41
0.7000
 42
0.7000
 43
1.0000
 50
0.0000
  0
INSERT
  8
18
  2
ROUNDV
 10
103.5000
 20
82.2500
 30
0.0000
 41
0.7000
 42
0.7000
 43
1.0000
 50
0.0000
  0
INSERT
  8
18
  2
ROUNDV
 10
17.0000
 20
77.0000
 30
0.0000
 41
0.7000
 42
0.7000
 43
1.0000
 50
0.0000
  0
INSERT
  8
18
  2
ROUNDV
 10
33.2500
 20
76.7500
 30
0.0000
 41
0.7000
 42
0.7000
 43
1.0000
 50
0.0000
  0
INSERT
  8
18
  2
ROUNDV
 10
71.7500
 20
106.2500
 30
0.0000
 41
0.7000
 42
0.7000
 43
1.0000
 50
0.0000
  0
INSERT
  8
18
  2
ROUNDV
 10
161.5000
 20
118.0000
 30
0.0000
 41
0.9000
 42
0.9000
 43
1.0000
 50
0.0000
  0
INSERT
  8
18
  2
ROUNDV
 10
161.5000
 20
111.7500
 30
0.0000
 41
0.9000
 42
0.9000
 43
1.0000
 50
0.0000
  0
INSERT
  8
18
  2
ROUNDV
 10
155.9450
 20
96.8040
 30
0.0000
 41
0.9000
 42
0.9000
 43
1.0000
 50
0.0000
  0
INSERT
  8
18
  2
ROUNDV
 10
150.6110
 20
93.7240
 30
0.0000
 41
0.9000
 42
0.9000
 43
1.0000
 50
0.0000
  0
INSERT
  8
18
  2
ROUNDV
 10
149.3410
 20
98.0740
 30
0.0000
 41
0.9000
 42
0.9000
 43
1.0000
 50
0.0000
  0
INSERT
  8
18
  2
ROUNDV
 10
148.7060
 20
100.1060
 30
0.0000
 41
0.9000
 42
0.9000
 43
1.0000
 50
0.0000
  0
INSERT
  8
18
  2
ROUNDV
 10
153.1510
 20
115.2190
 30
0.0000
 41
0.9000
 42
0.9000
 43
1.0000
 50
0.0000
  0
INSERT
  8
18
  2
ROUNDV
 10
152.0080
 20
109.8850
 30
0.0000
 41
0.9000
 42
0.9000
 43
1.0000
 50
0.0000
  0
INSERT
  8
18
  2
ROUNDV
 10
144.8960
 20
104.5510
 30
0.0000
 41
0.9000
 42
0.9000
 43
1.0000
 50
0.0000
  0
INSERT
  8
18
  2
ROUNDV
 10
152.0080
 20
107.5990
 30
0.0000
 41
0.9000
 42
0.9000
 43
1.0000
 50
0.0000
  0
INSERT
  8
18
  2
ROUNDV
 10
144.8960
 20
108.9960
 30
0.0000
 41
0.9000
 42
0.9000
 43
1.0000
 50
0.0000
  0
INSERT
  8
18
  2
ROUNDV
 10
56.2500
 20
89.0000
 30
0.0000
 41
0.7000
 42
0.7000
 43
1.0000
 50
0.0000
  0
INSERT
  8
18
  2
ROUNDV
 10
81.8515
 20
191.9074
 30
0.0000
 41
0.9000
 42
0.9000
 43
1.0000
 50
0.0000
  0
INSERT
  8
18
  2
ROUNDV
 10
93.9165
 20
191.9074
 30
0.0000
 41
0.9000
 42
0.9000
 43
1.0000
 50
0.0000
  0
INSERT
  8
18
  2
ROUNDV
 10
43.0530
 20
185.1510
 30
0.0000
 41
0.9000
 42
0.9000
 43
1.0000
 50
0.0000
  0
INSERT
  8
18
  2
ROUNDV
 10
43.0530
 20
183.8810
 30
0.0000
 41
0.9000
 42
0.9000
 43
1.0000
 50
0.0000
  0
INSERT
  8
18
  2
ROUNDV
 10
85.6615
 20
184.2874
 30
0.0000
 41
0.9000
 42
0.9000
 43
1.0000
 50
0.0000
  0
INSERT
  8
18
  2
ROUNDV
 10
81.2165
 20
186.0654
 30
0.0000
 41
0.9000
 42
0.9000
 43
1.0000
 50
0.0000
  0
INSERT
  8
18
  2
ROUNDV
 10
81.8515
 20
136.0274
 30
0.0000
 41
0.9000
 42
0.9000
 43
1.0000
 50
0.0000
  0
INSERT
  8
18
  2
ROUNDV
 10
93.9165
 20
136.0274
 30
0.0000
 41
0.9000
 42
0.9000
 43
1.0000
 50
0.0000
  0
INSERT
  8
18
  2
ROUNDV
 10
42.9260
 20
129.3980
 30
0.0000
 41
0.9000
 42
0.9000
 43
1.0000
 50
0.0000
  0
INSERT
  8
18
  2
ROUNDV
 10
42.9260
 20
128.1280
 30
0.0000
 41
0.9000
 42
0.9000
 43
1.0000
 50
0.0000
  0
INSERT
  8
18
  2
ROUNDV
 10
85.6615
 20
128.4074
 30
0.0000
 41
0.9000
 42
0.9000
 43
1.0000
 50
0.0000
  0
INSERT
  8
18
  2
ROUNDV
 10
81.2165
 20
130.1854
 30
0.0000
 41
0.9000
 42
0.9000
 43
1.0000
 50
0.0000
  0
INSERT
  8
18
  2
ROUNDV
 10
72.7500
 20
89.7500
 30
0.0000
 41
0.7000
 42
0.7000
 43
1.0000
 50
0.0000
  0
INSERT
  8
18
  2
ROUNDV
 10
182.5000
 20
66.7500
 30
0.0000
 41
0.7000
 42
0.7000
 43
1.0000
 50
0.0000
  0
INSERT
  8
18
  2
ROUNDV
 10
41.7500
 20
70.7500
 30
0.0000
 41
0.7000
 42
0.7000
 43
1.0000
 50
0.0000
  0
INSERT
  8
18
  2
ROUNDV
 10
45.2500
 20
70.7500
 30
0.0000
 41
0.7000
 42
0.7000
 43
1.0000
 50
0.0000
  0
INSERT
  8
18
  2
ROUNDV
 10
72.7500
 20
98.5000
 30
0.0000
 41
0.7000
 42
0.7000
 43
1.0000
 50
0.0000
  0
INSERT
  8
18
  2
ROUNDV
 10
75.7500
 20
103.2500
 30
0.0000
 41
0.7000
 42
0.7000
 43
1.0000
 50
0.0000
  0
INSERT
  8
18
  2
ROUNDV
 10
75.7500
 20
94.2500
 30
0.0000
 41
0.7000
 42
0.7000
 43
1.0000
 50
0.0000
  0
INSERT
  8
18
  2
ROUNDV
 10
78.5000
 20
65.5000
 30
0.0000
 41
0.9000
 42
0.9000
 43
1.0000
 50
0.0000
  0
INSERT
  8
18
  2
ROUNDV
 10
68.7500
 20
63.7500
 30
0.0000
 41
0.9000
 42
0.9000
 43
1.0000
 50
0.0000
  0
INSERT
  8
18
  2
ROUNDV
 10
88.5000
 20
66.0000
 30
0.0000
 41
0.7000
 42
0.7000
 43
1.0000
 50
0.0000
  0
INSERT
  8
18
  2
ROUNDV
 10
110.9980
 20
130.9370
 30
0.0000
 41
0.7000
 42
0.7000
 43
1.0000
 50
0.0000
  0
INSERT
  8
18
  2
ROUNDV
 10
112.5260
 20
122.0430
 30
0.0000
 41
0.7000
 42
0.7000
 43
1.0000
 50
0.0000
  0
INSERT
  8
18
  2
ROUNDV
 10
104.7500
 20
47.2500
 30
0.0000
 41
0.9000
 42
0.9000
 43
1.0000
 50
0.0000
  0
INSERT
  8
18
  2
ROUNDV
 10
100.7500
 20
47.7500
 30
0.0000
 41
0.9000
 42
0.9000
 43
1.0000
 50
0.0000
  0
INSERT
  8
18
  2
ROUNDV
 10
94.0000
 20
131.5000
 30
0.0000
 41
0.9000
 42
0.9000
 43
1.0000
 50
0.0000
  0
INSERT
  8
18
  2
ROUNDV
 10
94.2500
 20
187.7500
 30
0.0000
 41
0.9000
 42
0.9000
 43
1.0000
 50
0.0000
  0
INSERT
  8
18
  2
ROUNDV
 10
53.5000
 20
111.5000
 30
0.0000
 41
0.7000
 42
0.7000
 43
1.0000
 50
0.0000
  0
INSERT
  8
18
  2
ROUNDV
 10
58.5000
 20
111.5000
 30
0.0000
 41
0.7000
 42
0.7000
 43
1.0000
 50
0.0000
  0
INSERT
  8
18
  2
ROUNDV
 10
53.5000
 20
106.5000
 30
0.0000
 41
0.7000
 42
0.7000
 43
1.0000
 50
0.0000
  0
INSERT
  8
18
  2
ROUNDV
 10
58.5000
 20
106.5000
 30
0.0000
 41
0.7000
 42
0.7000
 43
1.0000
 50
0.0000
  0
INSERT
  8
18
  2
ROUNDV
 10
43.7500
 20
126.0000
 30
0.0000
 41
0.9000
 42
0.9000
 43
1.0000
 50
0.0000
  0
INSERT
  8
18
  2
ROUNDV
 10
167.2500
 20
68.5000
 30
0.0000
 41
0.7000
 42
0.7000
 43
1.0000
 50
0.0000
  0
INSERT
  8
18
  2
ROUNDV
 10
167.2500
 20
71.0000
 30
0.0000
 41
0.7000
 42
0.7000
 43
1.0000
 50
0.0000
  0
INSERT
  8
18
  2
ROUNDV
 10
179.2500
 20
74.2500
 30
0.0000
 41
0.7000
 42
0.7000
 43
1.0000
 50
0.0000
  0
INSERT
  8
18
  2
ROUNDV
 10
19.2500
 20
82.7500
 30
0.0000
 41
0.7000
 42
0.7000
 43
1.0000
 50
0.0000
  0
INSERT
  8
18
  2
ROUNDV
 10
12.7500
 20
86.7500
 30
0.0000
 41
0.7000
 42
0.7000
 43
1.0000
 50
0.0000
  0
INSERT
  8
18
  2
ROUNDV
 10
161.5000
 20
105.0000
 30
0.0000
 41
0.9000
 42
0.9000
 43
1.0000
 50
0.0000
  0
INSERT
  8
18
  2
ROUNDV
 10
161.5000
 20
98.2500
 30
0.0000
 41
0.9000
 42
0.9000
 43
1.0000
 50
0.0000
  0
INSERT
  8
18
  2
ROUNDV
 10
161.5000
 20
91.5000
 30
0.0000
 41
0.9000
 42
0.9000
 43
1.0000
 50
0.0000
  0
INSERT
  8
18
  2
ROUNDV
 10
145.1460
 20
115.4960
 30
0.0000
 41
0.9000
 42
0.9000
 43
1.0000
 50
0.0000
  0
INSERT
  8
18
  2
ROUNDV
 10
43.2500
 20
112.0000
 30
0.0000
 41
0.7000
 42
0.7000
 43
1.0000
 50
0.0000
  0
INSERT
  8
18
  2
ROUNDV
 10
138.0000
 20
89.7500
 30
0.0000
 41
0.7000
 42
0.7000
 43
1.0000
 50
0.0000
  0
INSERT
  8
18
  2
ROUNDV
 10
127.0000
 20
90.7500
 30
0.0000
 41
0.7000
 42
0.7000
 43
1.0000
 50
0.0000
  0
INSERT
  8
18
  2
ROUNDV
 10
144.2500
 20
90.7500
 30
0.0000
 41
0.7000
 42
0.7000
 43
1.0000
 50
0.0000
  0
INSERT
  8
18
  2
ROUNDV
 10
23.2500
 20
103.5000
 30
0.0000
 41
0.7000
 42
0.7000
 43
1.0000
 50
0.0000
  0
INSERT
  8
18
  2
ROUNDV
 10
29.0000
 20
80.7500
 30
0.0000
 41
0.7000
 42
0.7000
 43
1.0000
 50
0.0000
  0
INSERT
  8
18
  2
ROUNDV
 10
95.5000
 20
42.0000
 30
0.0000
 41
1.0000
 42
1.0000
 43
1.0000
 50
0.0000
  0
INSERT
  8
18
  2
ROUNDV
 10
134.5000
 20
42.0000
 30
0.0000
 41
1.0000
 42
1.0000
 43
1.0000
 50
0.0000
  0
INSERT
  8
18
  2
ROUNDV
 10
142.0000
 20
33.0000
 30
0.0000
 41
0.9000
 42
0.9000
 43
1.0000
 50
0.0000
  0
INSERT
  8
18
  2
ROUNDV
 10
199.2650
 20
95.2800
 30
0.0000
 41
0.9000
 42
0.9000
 43
1.0000
 50
0.0000
  0
INSERT
  8
18
  2
ROUNDV
 10
199.2650
 20
102.2650
 30
0.0000
 41
0.9000
 42
0.9000
 43
1.0000
 50
0.0000
  0
INSERT
  8
18
  2
ROUNDV
 10
199.2650
 20
109.8850
 30
0.0000
 41
0.9000
 42
0.9000
 43
1.0000
 50
0.0000
  0
INSERT
  8
18
  2
ROUNDV
 10
199.3325
 20
116.8700
 30
0.0000
 41
0.9000
 42
0.9000
 43
1.0000
 50
0.0000
  0
INSERT
  8
18
  2
ROUNDV
 10
180.0000
 20
87.5000
 30
0.0000
 41
0.9000
 42
0.9000
 43
1.0000
 50
0.0000
  0
INSERT
  8
18
  2
ROUNDV
 10
174.5505
 20
98.4550
 30
0.0000
 41
0.9000
 42
0.9000
 43
1.0000
 50
0.0000
  0
INSERT
  8
18
  2
ROUNDV
 10
173.7885
 20
96.3000
 30
0.0000
 41
0.9000
 42
0.9000
 43
1.0000
 50
0.0000
  0
INSERT
  8
18
  2
ROUNDV
 10
173.7885
 20
102.9000
 30
0.0000
 41
0.9000
 42
0.9000
 43
1.0000
 50
0.0000
  0
INSERT
  8
18
  2
ROUNDV
 10
174.5505
 20
105.0630
 30
0.0000
 41
0.9000
 42
0.9000
 43
1.0000
 50
0.0000
  0
INSERT
  8
18
  2
ROUNDV
 10
178.7500
 20
110.2500
 30
0.0000
 41
0.9000
 42
0.9000
 43
1.0000
 50
0.0000
  0
INSERT
  8
18
  2
ROUNDV
 10
174.3005
 20
111.7900
 30
0.0000
 41
0.9000
 42
0.9000
 43
1.0000
 50
0.0000
  0
INSERT
  8
18
  2
ROUNDV
 10
173.7885
 20
109.6350
 30
0.0000
 41
0.9000
 42
0.9000
 43
1.0000
 50
0.0000
  0
INSERT
  8
18
  2
ROUNDV
 10
179.7500
 20
116.7500
 30
0.0000
 41
0.9000
 42
0.9000
 43
1.0000
 50
0.0000
  0
INSERT
  8
18
  2
ROUNDV
 10
185.5000
 20
117.0000
 30
0.0000
 41
0.9000
 42
0.9000
 43
1.0000
 50
0.0000
  0
INSERT
  8
18
  2
ROUNDV
 10
185.5000
 20
111.0000
 30
0.0000
 41
0.9000
 42
0.9000
 43
1.0000
 50
0.0000
  0
INSERT
  8
18
  2
ROUNDV
 10
183.8215
 20
99.7250
 30
0.0000
 41
0.9000
 42
0.9000
 43
1.0000
 50
0.0000
  0
INSERT
  8
18
  2
ROUNDV
 10
173.7885
 20
116.2350
 30
0.0000
 41
0.9000
 42
0.9000
 43
1.0000
 50
0.0000
  0
INSERT
  8
18
  2
ROUNDV
 10
185.3455
 20
95.9150
 30
0.0000
 41
0.9000
 42
0.9000
 43
1.0000
 50
0.0000
  0
INSERT
  8
18
  2
ROUNDV
 10
176.0000
 20
102.7500
 30
0.0000
 41
0.9000
 42
0.9000
 43
1.0000
 50
0.0000
  0
INSERT
  8
18
  2
ROUNDV
 10
182.0000
 20
89.2500
 30
0.0000
 41
0.9000
 42
0.9000
 43
1.0000
 50
0.0000
  0
INSERT
  8
18
  2
ROUNDV
 10
174.4555
 20
91.6650
 30
0.0000
 41
0.9000
 42
0.9000
 43
1.0000
 50
0.0000
  0
INSERT
  8
18
  2
ROUNDV
 10
205.2500
 20
115.0000
 30
0.0000
 41
0.9000
 42
0.9000
 43
1.0000
 50
0.0000
  0
INSERT
  8
18
  2
ROUNDV
 10
64.2500
 20
83.7500
 30
0.0000
 41
0.7000
 42
0.7000
 43
1.0000
 50
0.0000
  0
INSERT
  8
18
  2
ROUNDV
 10
64.5000
 20
78.0000
 30
0.0000
 41
0.7000
 42
0.7000
 43
1.0000
 50
0.0000
  0
INSERT
  8
18
  2
ROUNDV
 10
109.7500
 20
100.7500
 30
0.0000
 41
0.7000
 42
0.7000
 43
1.0000
 50
0.0000
  0
INSERT
  8
18
  2
ROUNDV
 10
112.7500
 20
100.7500
 30
0.0000
 41
0.7000
 42
0.7000
 43
1.0000
 50
0.0000
  0
INSERT
  8
18
  2
ROUNDV
 10
110.0000
 20
86.7500
 30
0.0000
 41
0.7000
 42
0.7000
 43
1.0000
 50
0.0000
  0
INSERT
  8
18
  2
ROUNDV
 10
111.7500
 20
86.7500
 30
0.0000
 41
0.7000
 42
0.7000
 43
1.0000
 50
0.0000
  0
INSERT
  8
18
  2
ROUNDV
 10
109.7500
 20
97.5000
 30
0.0000
 41
0.7000
 42
0.7000
 43
1.0000
 50
0.0000
  0
INSERT
  8
18
  2
ROUNDV
 10
112.2500
 20
97.5000
 30
0.0000
 41
0.7000
 42
0.7000
 43
1.0000
 50
0.0000
  0
INSERT
  8
18
  2
ROUNDV
 10
63.5000
 20
83.0000
 30
0.0000
 41
0.7000
 42
0.7000
 43
1.0000
 50
0.0000
  0
INSERT
  8
18
  2
ROUNDV
 10
63.7500
 20
78.7500
 30
0.0000
 41
0.7000
 42
0.7000
 43
1.0000
 50
0.0000
  0
INSERT
  8
18
  2
ROUNDV
 10
63.5000
 20
84.5000
 30
0.0000
 41
0.7000
 42
0.7000
 43
1.0000
 50
0.0000
  0
INSERT
  8
18
  2
ROUNDV
 10
63.0000
 20
78.0000
 30
0.0000
 41
0.7000
 42
0.7000
 43
1.0000
 50
0.0000
  0
INSERT
  8
18
  2
ROUNDV
 10
111.7500
 20
108.0000
 30
0.0000
 41
0.7000
 42
0.7000
 43
1.0000
 50
0.0000
  0
INSERT
  8
18
  2
ROUNDV
 10
109.7500
 20
108.0000
 30
0.0000
 41
0.7000
 42
0.7000
 43
1.0000
 50
0.0000
  0
INSERT
  8
18
  2
ROUNDV
 10
111.2500
 20
94.0000
 30
0.0000
 41
0.7000
 42
0.7000
 43
1.0000
 50
0.0000
  0
INSERT
  8
18
  2
ROUNDV
 10
109.7500
 20
94.0000
 30
0.0000
 41
0.7000
 42
0.7000
 43
1.0000
 50
0.0000
  0
INSERT
  8
18
  2
ROUNDV
 10
111.2290
 20
104.7290
 30
0.0000
 41
0.7000
 42
0.7000
 43
1.0000
 50
0.0000
  0
INSERT
  8
18
  2
ROUNDV
 10
109.7500
 20
104.5000
 30
0.0000
 41
0.7000
 42
0.7000
 43
1.0000
 50
0.0000
  0
INSERT
  8
18
  2
ROUNDV
 10
62.5000
 20
85.2500
 30
0.0000
 41
0.7000
 42
0.7000
 43
1.0000
 50
0.0000
  0
INSERT
  8
18
  2
ROUNDV
 10
62.2500
 20
78.7500
 30
0.0000
 41
0.7000
 42
0.7000
 43
1.0000
 50
0.0000
  0
INSERT
  8
18
  2
ROUNDV
 10
37.5000
 20
112.2500
 30
0.0000
 41
0.7000
 42
0.7000
 43
1.0000
 50
0.0000
  0
INSERT
  8
18
  2
ROUNDV
 10
35.2500
 20
114.7500
 30
0.0000
 41
0.7000
 42
0.7000
 43
1.0000
 50
0.0000
  0
INSERT
  8
18
  2
ROUNDV
 10
48.5000
 20
71.2500
 30
0.0000
 41
0.7000
 42
0.7000
 43
1.0000
 50
0.0000
  0
INSERT
  8
18
  2
ROUNDV
 10
61.2500
 20
69.7500
 30
0.0000
 41
0.7000
 42
0.7000
 43
1.0000
 50
0.0000
  0
INSERT
  8
18
  2
ROUNDV
 10
204.7500
 20
61.0000
 30
0.0000
 41
0.7000
 42
0.7000
 43
1.0000
 50
0.0000
  0
INSERT
  8
18
  2
ROUNDV
 10
192.2500
 20
59.0000
 30
0.0000
 41
0.7000
 42
0.7000
 43
1.0000
 50
0.0000
  0
INSERT
  8
18
  2
ROUNDV
 10
45.2500
 20
71.7500
 30
0.0000
 41
0.7000
 42
0.7000
 43
1.0000
 50
0.0000
  0
INSERT
  8
18
  2
ROUNDV
 10
61.7500
 20
67.5000
 30
0.0000
 41
0.7000
 42
0.7000
 43
1.0000
 50
0.0000
  0
INSERT
  8
18
  2
ROUNDV
 10
61.0000
 20
84.0000
 30
0.0000
 41
0.7000
 42
0.7000
 43
1.0000
 50
0.0000
  0
INSERT
  8
18
  2
ROUNDV
 10
62.7500
 20
68.7500
 30
0.0000
 41
0.7000
 42
0.7000
 43
1.0000
 50
0.0000
  0
INSERT
  8
18
  2
ROUNDV
 10
17.0000
 20
78.5000
 30
0.0000
 41
0.7000
 42
0.7000
 43
1.0000
 50
0.0000
  0
INSERT
  8
18
  2
ROUNDV
 10
61.0000
 20
83.0000
 30
0.0000
 41
0.7000
 42
0.7000
 43
1.0000
 50
0.0000
  0
INSERT
  8
18
  2
ROUNDV
 10
62.7500
 20
67.2500
 30
0.0000
 41
0.7000
 42
0.7000
 43
1.0000
 50
0.0000
  0
INSERT
  8
18
  2
ROUNDV
 10
140.2500
 20
86.7500
 30
0.0000
 41
0.7000
 42
0.7000
 43
1.0000
 50
0.0000
  0
INSERT
  8
18
  2
ROUNDV
 10
144.2500
 20
86.7500
 30
0.0000
 41
0.7000
 42
0.7000
 43
1.0000
 50
0.0000
  0
INSERT
  8
18
  2
ROUNDV
 10
74.2500
 20
115.2500
 30
0.0000
 41
0.9000
 42
0.9000
 43
1.0000
 50
0.0000
  0
INSERT
  8
18
  2
ROUNDV
 10
88.2500
 20
102.2500
 30
0.0000
 41
0.9000
 42
0.9000
 43
1.0000
 50
0.0000
  0
INSERT
  8
18
  2
ROUNDV
 10
74.2500
 20
114.0000
 30
0.0000
 41
0.9000
 42
0.9000
 43
1.0000
 50
0.0000
  0
INSERT
  8
18
  2
ROUNDV
 10
89.2500
 20
101.2500
 30
0.0000
 41
0.9000
 42
0.9000
 43
1.0000
 50
0.0000
  0
INSERT
  8
18
  2
ROUNDV
 10
78.2500
 20
115.2500
 30
0.0000
 41
0.9000
 42
0.9000
 43
1.0000
 50
0.0000
  0
INSERT
  8
18
  2
ROUNDV
 10
88.2500
 20
100.2500
 30
0.0000
 41
0.9000
 42
0.9000
 43
1.0000
 50
0.0000
  0
INSERT
  8
18
  2
ROUNDV
 10
78.2500
 20
114.0000
 30
0.0000
 41
0.9000
 42
0.9000
 43
1.0000
 50
0.0000
  0
INSERT
  8
18
  2
ROUNDV
 10
89.2500
 20
99.2500
 30
0.0000
 41
0.9000
 42
0.9000
 43
1.0000
 50
0.0000
  0
INSERT
  8
18
  2
ROUNDV
 10
82.2500
 20
115.2500
 30
0.0000
 41
0.9000
 42
0.9000
 43
1.0000
 50
0.0000
  0
INSERT
  8
18
  2
ROUNDV
 10
88.2500
 20
98.2500
 30
0.0000
 41
0.9000
 42
0.9000
 43
1.0000
 50
0.0000
  0
INSERT
  8
18
  2
ROUNDV
 10
82.2500
 20
114.0000
 30
0.0000
 41
0.9000
 42
0.9000
 43
1.0000
 50
0.0000
  0
INSERT
  8
18
  2
ROUNDV
 10
89.2500
 20
97.2500
 30
0.0000
 41
0.9000
 42
0.9000
 43
1.0000
 50
0.0000
  0
INSERT
  8
18
  2
ROUNDV
 10
86.2500
 20
115.2500
 30
0.0000
 41
0.9000
 42
0.9000
 43
1.0000
 50
0.0000
  0
INSERT
  8
18
  2
ROUNDV
 10
88.2500
 20
96.2500
 30
0.0000
 41
0.9000
 42
0.9000
 43
1.0000
 50
0.0000
  0
INSERT
  8
18
  2
ROUNDV
 10
86.2500
 20
114.0000
 30
0.0000
 41
0.9000
 42
0.9000
 43
1.0000
 50
0.0000
  0
INSERT
  8
18
  2
ROUNDV
 10
89.2500
 20
95.2500
 30
0.0000
 41
0.9000
 42
0.9000
 43
1.0000
 50
0.0000
  0
INSERT
  8
18
  2
ROUNDV
 10
130.0000
 20
61.2500
 30
0.0000
 41
0.9000
 42
0.9000
 43
1.0000
 50
0.0000
  0
INSERT
  8
18
  2
ROUNDV
 10
130.0000
 20
63.0000
 30
0.0000
 41
0.9000
 42
0.9000
 43
1.0000
 50
0.0000
  0
INSERT
  8
18
  2
ROUNDV
 10
130.0000
 20
59.5000
 30
0.0000
 41
0.9000
 42
0.9000
 43
1.0000
 50
0.0000
  0
INSERT
  8
18
  2
ROUNDV
 10
127.2500
 20
86.7500
 30
0.0000
 41
0.7000
 42
0.7000
 43
1.0000
 50
0.0000
  0
INSERT
  8
18
  2
ROUNDV
 10
131.2500
 20
87.5000
 30
0.0000
 41
0.7000
 42
0.7000
 43
1.0000
 50
0.0000
  0
INSERT
  8
18
  2
ROUNDV
 10
90.2500
 20
115.2500
 30
0.0000
 41
0.9000
 42
0.9000
 43
1.0000
 50
0.0000
  0
INSERT
  8
18
  2
ROUNDV
 10
88.2500
 20
94.0000
 30
0.0000
 41
0.9000
 42
0.9000
 43
1.0000
 50
0.0000
  0
INSERT
  8
18
  2
ROUNDV
 10
90.2500
 20
114.0000
 30
0.0000
 41
0.9000
 42
0.9000
 43
1.0000
 50
0.0000
  0
INSERT
  8
18
  2
ROUNDV
 10
89.2500
 20
93.0000
 30
0.0000
 41
0.9000
 42
0.9000
 43
1.0000
 50
0.0000
  0
INSERT
  8
18
  2
ROUNDV
 10
94.2500
 20
115.2500
 30
0.0000
 41
0.9000
 42
0.9000
 43
1.0000
 50
0.0000
  0
INSERT
  8
18
  2
ROUNDV
 10
88.2500
 20
92.0000
 30
0.0000
 41
0.9000
 42
0.9000
 43
1.0000
 50
0.0000
  0
INSERT
  8
18
  2
ROUNDV
 10
94.2500
 20
114.0000
 30
0.0000
 41
0.9000
 42
0.9000
 43
1.0000
 50
0.0000
  0
INSERT
  8
18
  2
ROUNDV
 10
89.2500
 20
91.0000
 30
0.0000
 41
0.9000
 42
0.9000
 43
1.0000
 50
0.0000
  0
INSERT
  8
18
  2
ROUNDV
 10
98.2500
 20
115.2500
 30
0.0000
 41
0.9000
 42
0.9000
 43
1.0000
 50
0.0000
  0
INSERT
  8
18
  2
ROUNDV
 10
88.2500
 20
90.0000
 30
0.0000
 41
0.9000
 42
0.9000
 43
1.0000
 50
0.0000
  0
INSERT
  8
18
  2
ROUNDV
 10
98.2500
 20
114.0000
 30
0.0000
 41
0.9000
 42
0.9000
 43
1.0000
 50
0.0000
  0
INSERT
  8
18
  2
ROUNDV
 10
89.2500
 20
89.0000
 30
0.0000
 41
0.9000
 42
0.9000
 43
1.0000
 50
0.0000
  0
INSERT
  8
18
  2
ROUNDV
 10
24.2500
 20
74.7500
 30
0.0000
 41
0.7000
 42
0.7000
 43
1.0000
 50
0.0000
  0
INSERT
  8
18
  2
ROUNDV
 10
21.2500
 20
74.7500
 30
0.0000
 41
0.7000
 42
0.7000
 43
1.0000
 50
0.0000
  0
INSERT
  8
18
  2
ROUNDV
 10
122.5000
 20
104.0000
 30
0.0000
 41
0.7000
 42
0.7000
 43
1.0000
 50
0.0000
  0
INSERT
  8
18
  2
ROUNDV
 10
122.5000
 20
107.2500
 30
0.0000
 41
0.7000
 42
0.7000
 43
1.0000
 50
0.0000
  0
INSERT
  8
18
  2
ROUNDV
 10
225.0000
 20
96.5000
 30
0.0000
 41
0.9000
 42
0.9000
 43
1.0000
 50
0.0000
  0
INSERT
  8
18
  2
ROUNDV
 10
227.7500
 20
102.7500
 30
0.0000
 41
0.9000
 42
0.9000
 43
1.0000
 50
0.0000
  0
INSERT
  8
18
  2
ROUNDV
 10
123.7500
 20
104.0000
 30
0.0000
 41
0.7000
 42
0.7000
 43
1.0000
 50
0.0000
  0
INSERT
  8
18
  2
ROUNDV
 10
121.0000
 20
108.7500
 30
0.0000
 41
0.7000
 42
0.7000
 43
1.0000
 50
0.0000
  0
INSERT
  8
18
  2
ROUNDV
 10
216.0000
 20
78.7500
 30
0.0000
 41
0.9000
 42
0.9000
 43
1.0000
 50
0.0000
  0
INSERT
  8
18
  2
ROUNDV
 10
2.0000
 20
44.0000
 30
0.0000
 41
0.9000
 42
0.9000
 43
1.0000
 50
0.0000
  0
INSERT
  8
18
  2
ROUNDV
 10
3.0000
 20
43.0000
 30
0.0000
 41
0.9000
 42
0.9000
 43
1.0000
 50
0.0000
  0
INSERT
  8
18
  2
ROUNDV
 10
4.0000
 20
44.0000
 30
0.0000
 41
0.9000
 42
0.9000
 43
1.0000
 50
0.0000
  0
INSERT
  8
18
  2
ROUNDV
 10
6.0000
 20
44.0000
 30
0.0000
 41
0.9000
 42
0.9000
 43
1.0000
 50
0.0000
  0
INSERT
  8
18
  2
ROUNDV
 10
5.0000
 20
43.0000
 30
0.0000
 41
0.9000
 42
0.9000
 43
1.0000
 50
0.0000
  0
INSERT
  8
18
  2
ROUNDV
 10
51.5000
 20
65.7500
 30
0.0000
 41
0.7000
 42
0.7000
 43
1.0000
 50
0.0000
  0
INSERT
  8
18
  2
ROUNDV
 10
51.5000
 20
69.7500
 30
0.0000
 41
0.7000
 42
0.7000
 43
1.0000
 50
0.0000
  0
INSERT
  8
18
  2
ROUNDV
 10
111.7500
 20
122.7500
 30
0.0000
 41
0.7000
 42
0.7000
 43
1.0000
 50
0.0000
  0
INSERT
  8
18
  2
ROUNDV
 10
120.2500
 20
113.7500
 30
0.0000
 41
0.7000
 42
0.7000
 43
1.0000
 50
0.0000
  0
INSERT
  8
18
  2
ROUNDV
 10
42.5000
 20
73.2500
 30
0.0000
 41
0.7000
 42
0.7000
 43
1.0000
 50
0.0000
  0
INSERT
  8
18
  2
ROUNDV
 10
53.0000
 20
71.5000
 30
0.0000
 41
0.7000
 42
0.7000
 43
1.0000
 50
0.0000
  0
INSERT
  8
18
  2
ROUNDV
 10
67.0000
 20
108.7500
 30
0.0000
 41
0.7000
 42
0.7000
 43
1.0000
 50
0.0000
  0
INSERT
  8
18
  2
ROUNDV
 10
67.5000
 20
100.2500
 30
0.0000
 41
0.7000
 42
0.7000
 43
1.0000
 50
0.0000
  0
INSERT
  8
18
  2
ROUNDV
 10
67.0000
 20
113.7500
 30
0.0000
 41
0.7000
 42
0.7000
 43
1.0000
 50
0.0000
  0
INSERT
  8
18
  2
ROUNDV
 10
67.5000
 20
98.7500
 30
0.0000
 41
0.7000
 42
0.7000
 43
1.0000
 50
0.0000
  0
INSERT
  8
18
  2
ROUNDV
 10
116.5000
 20
115.2500
 30
0.0000
 41
0.7000
 42
0.7000
 43
1.0000
 50
0.0000
  0
INSERT
  8
18
  2
ROUNDV
 10
116.5000
 20
109.5000
 30
0.0000
 41
0.7000
 42
0.7000
 43
1.0000
 50
0.0000
  0
INSERT
  8
18
  2
ROUNDV
 10
112.6230
 20
120.2500
 30
0.0000
 41
0.7000
 42
0.7000
 43
1.0000
 50
0.0000
  0
INSERT
  8
18
  2
ROUNDV
 10
109.7500
 20
121.5000
 30
0.0000
 41
0.7000
 42
0.7000
 43
1.0000
 50
0.0000
  0
INSERT
  8
18
  2
ROUNDV
 10
112.0000
 20
117.7500
 30
0.0000
 41
0.7000
 42
0.7000
 43
1.0000
 50
0.0000
  0
INSERT
  8
18
  2
ROUNDV
 10
118.7500
 20
112.2500
 30
0.0000
 41
0.7000
 42
0.7000
 43
1.0000
 50
0.0000
  0
INSERT
  8
18
  2
ROUNDV
 10
44.5000
 20
73.2500
 30
0.0000
 41
0.7000
 42
0.7000
 43
1.0000
 50
0.0000
  0
INSERT
  8
18
  2
ROUNDV
 10
53.0000
 20
72.5000
 30
0.0000
 41
0.7000
 42
0.7000
 43
1.0000
 50
0.0000
  0
INSERT
  8
18
  2
ROUNDV
 10
111.7500
 20
119.5000
 30
0.0000
 41
0.7000
 42
0.7000
 43
1.0000
 50
0.0000
  0
INSERT
  8
18
  2
ROUNDV
 10
109.7500
 20
118.7500
 30
0.0000
 41
0.7000
 42
0.7000
 43
1.0000
 50
0.0000
  0
INSERT
  8
18
  2
ROUNDV
 10
67.5000
 20
106.2500
 30
0.0000
 41
0.7000
 42
0.7000
 43
1.0000
 50
0.0000
  0
INSERT
  8
18
  2
ROUNDV
 10
67.5000
 20
103.0000
 30
0.0000
 41
0.7000
 42
0.7000
 43
1.0000
 50
0.0000
  0
INSERT
  8
18
  2
ROUNDV
 10
67.0000
 20
112.2500
 30
0.0000
 41
0.7000
 42
0.7000
 43
1.0000
 50
0.0000
  0
INSERT
  8
18
  2
ROUNDV
 10
67.5000
 20
102.0000
 30
0.0000
 41
0.7000
 42
0.7000
 43
1.0000
 50
0.0000
  0
INSERT
  8
18
  2
ROUNDV
 10
112.0000
 20
116.2500
 30
0.0000
 41
0.7000
 42
0.7000
 43
1.0000
 50
0.0000
  0
INSERT
  8
18
  2
ROUNDV
 10
117.2500
 20
110.5000
 30
0.0000
 41
0.7000
 42
0.7000
 43
1.0000
 50
0.0000
  0
INSERT
  8
18
  2
ROUNDV
 10
48.5000
 20
73.2500
 30
0.0000
 41
0.7000
 42
0.7000
 43
1.0000
 50
0.0000
  0
INSERT
  8
18
  2
ROUNDV
 10
51.7500
 20
73.2500
 30
0.0000
 41
0.7000
 42
0.7000
 43
1.0000
 50
0.0000
  0
INSERT
  8
18
  2
ROUNDV
 10
67.5000
 20
105.0000
 30
0.0000
 41
0.7000
 42
0.7000
 43
1.0000
 50
0.0000
  0
INSERT
  8
18
  2
ROUNDV
 10
67.5000
 20
115.2500
 30
0.0000
 41
0.7000
 42
0.7000
 43
1.0000
 50
0.0000
  0
INSERT
  8
18
  2
ROUNDV
 10
67.5000
 20
104.0000
 30
0.0000
 41
0.7000
 42
0.7000
 43
1.0000
 50
0.0000
  0
INSERT
  8
18
  2
ROUNDV
 10
67.5000
 20
116.7500
 30
0.0000
 41
0.7000
 42
0.7000
 43
1.0000
 50
0.0000
  0
INSERT
  8
18
  2
ROUNDV
 10
26.2500
 20
77.0000
 30
0.0000
 41
0.7000
 42
0.7000
 43
1.0000
 50
0.0000
  0
INSERT
  8
18
  2
ROUNDV
 10
26.5000
 20
72.2500
 30
0.0000
 41
0.7000
 42
0.7000
 43
1.0000
 50
0.0000
  0
INSERT
  8
18
  2
ROUNDV
 10
52.5000
 20
67.0000
 30
0.0000
 41
0.7000
 42
0.7000
 43
1.0000
 50
0.0000
  0
INSERT
  8
18
  2
ROUNDV
 10
55.0000
 20
67.0000
 30
0.0000
 41
0.7000
 42
0.7000
 43
1.0000
 50
0.0000
  0
INSERT
  8
18
  2
ROUNDV
 10
131.2500
 20
86.2500
 30
0.0000
 41
0.7000
 42
0.7000
 43
1.0000
 50
0.0000
  0
INSERT
  8
18
  2
ROUNDV
 10
121.7500
 20
85.7500
 30
0.0000
 41
0.7000
 42
0.7000
 43
1.0000
 50
0.0000
  0
INSERT
  8
18
  2
ROUNDV
 10
25.5000
 20
74.7500
 30
0.0000
 41
0.7000
 42
0.7000
 43
1.0000
 50
0.0000
  0
INSERT
  8
18
  2
ROUNDV
 10
25.5000
 20
72.2500
 30
0.0000
 41
0.7000
 42
0.7000
 43
1.0000
 50
0.0000
  0
INSERT
  8
18
  2
ROUNDV
 10
52.5000
 20
66.0000
 30
0.0000
 41
0.7000
 42
0.7000
 43
1.0000
 50
0.0000
  0
INSERT
  8
18
  2
ROUNDV
 10
55.0000
 20
66.0000
 30
0.0000
 41
0.7000
 42
0.7000
 43
1.0000
 50
0.0000
  0
INSERT
  8
18
  2
ROUNDV
 10
21.0000
 20
77.0000
 30
0.0000
 41
0.7000
 42
0.7000
 43
1.0000
 50
0.0000
  0
INSERT
  8
18
  2
ROUNDV
 10
17.0000
 20
76.0000
 30
0.0000
 41
0.7000
 42
0.7000
 43
1.0000
 50
0.0000
  0
INSERT
  8
18
  2
ROUNDV
 10
24.0000
 20
82.2500
 30
0.0000
 41
0.7000
 42
0.7000
 43
1.0000
 50
0.0000
  0
INSERT
  8
18
  2
ROUNDV
 10
18.7500
 20
106.5000
 30
0.0000
 41
0.7000
 42
0.7000
 43
1.0000
 50
0.0000
  0
INSERT
  8
18
  2
ROUNDV
 10
18.2500
 20
108.0000
 30
0.0000
 41
0.7000
 42
0.7000
 43
1.0000
 50
0.0000
  0
ENDSEC
  0
EOF
