999
dxfrw 0.5.10
0
SECTION
  2
HEADER
9
$ACADVER
  1
AC1021
  9
$MEASUREMENT
  70
  1
  9
$INSUNITS
  70
  4
9
$HANDSEED
  5
20000
0
ENDSEC
 0
SECTION
2
CLASSES
0
ENDSEC
 0
SECTION
 2
TABLES
0
TABLE
2
VPORT
5
8
330
0
100
AcDbSymbolTable
70
1
0
VPORT
5
31
330
2
100
AcDbSymbolTableRecord
100
AcDbViewportTableRecord
2
*ACTIVE
70
0
10
0
20
0
11
1
21
1
12
209.475294253
22
86.0026335861
13
0
23
0
14
10
24
10
15
10
25
10
16
0
26
0
36
1
17
0
27
0
37
0
40
319.744231092
41
2.12946428571
42
50
43
0
44
0
50
0
51
0
71
0
72
100
73
1
74
3
75
0
76
0
77
0
78
0
281
0
65
1
110
0
120
0
130
0
111
1
121
0
131
0
112
0
122
1
132
0
79
0
146
0
348
10020
60
7
61
5
292
1
282
1
141
0
142
0
63
250
421
3358443
0
ENDTAB
0
TABLE
2
LTYPE
5
5
330
0
100
AcDbSymbolTable
70
4
0
LTYPE
5
14
330
5
100
AcDbSymbolTableRecord
100
AcDbLinetypeTableRecord
2
ByBlock
70
0
3

72
65
73
0
40
0
0
LTYPE
5
15
330
5
100
AcDbSymbolTableRecord
100
AcDbLinetypeTableRecord
2
ByLayer
70
0
3
 
72
65
73
0
40
0
0
LTYPE
5
16
330
5
100
AcDbSymbolTableRecord
100
AcDbLinetypeTableRecord
2
Continuous
70
0
3
Solid line
72
65
73
0
40
0.0
0
LTYPE
5
 0000009d
100
AcDbSymbolTableRecord
100
AcDbLinetypeTableRecord
2
DOT
70
0
3
Dot . . . . . . . . . . . . . . . . . . . . . .
72
65
73
2
40
 3.0
49
 1.0
74
 0
49
 0.0
74
 0
0
LTYPE
5
 0000009e
100
AcDbSymbolTableRecord
100
AcDbLinetypeTableRecord
2
DASHED
70
0
3
Dashed __ __ __ __ __ __ __ __ __ __ __ __ __ _
72
65
73
2
40
1.0
49
 0.55
74
0
49
-0.45
74
0
0
ENDTAB
0
TABLE
2
LAYER
5
10
330
0
100
AcDbSymbolTable
70
1
0
LAYER
5
 0000009f
330
 2
100
AcDbSymbolTableRecord
100
AcDbLayerTableRecord
2
0
70
0
62
7
6
CONTINUOUS
370
 -3,0
390
F
0
LAYER
5
 000000a0
330
 2
100
AcDbSymbolTableRecord
100
AcDbLayerTableRecord
2
contour007
70
0
62
7
6
CONTINUOUS
370
 0,1
390
F
0
LAYER
5
 000000a1
330
 2
100
AcDbSymbolTableRecord
100
AcDbLayerTableRecord
2
engraving007
70
0
62
7
6
CONTINUOUS
370
 0,1
390
F
0
LAYER
5
 000000a2
330
 2
100
AcDbSymbolTableRecord
100
AcDbLayerTableRecord
2
reference_cross001
70
0
62
1
6
CONTINUOUS
370
 0,1
390
F
0
ENDTAB
0
TABLE
2
STYLE
5
3
330
0
100
AcDbSymbolTable
70
3
0
STYLE
5
45
330
2
100
AcDbSymbolTableRecord
100
AcDbTextStyleTableRecord
2
Standard
70
0
40
0
41
1
50
0
71
0
42
1
3
txt
4
 
0
ENDTAB
0
TABLE
2
VIEW
5
6
330
0
100
AcDbSymbolTable
70
0
0
ENDTAB
0
TABLE
2
UCS
5
7
330
0
100
AcDbSymbolTable
70
0
0
ENDTAB
0
TABLE
2
APPID
5
9
330
0
100
AcDbSymbolTable
70
1
0
APPID
5
12
330
9
100
AcDbSymbolTableRecord
100
AcDbRegAppTableRecord
2
ACAD
70
0
0
ENDTAB
0
TABLE
2
DIMSTYLE
5
A
330
0
100
AcDbSymbolTable
70
1
100
AcDbDimStyleTable
71
1
0
DIMSTYLE
105
46
330
A
100
AcDbSymbolTableRecord
100
AcDbDimStyleTableRecord
2
Standard
70
0
40
1
41
0.18
42
0.0625
43
0.38
44
0.18
45
0
46
0
47
0
48
0
140
0.18
141
0.09
142
0
143
25.4
144
1
145
0
146
1
147
0.09
148
0
71
0
72
0
73
0
74
1
75
0
76
0
77
0
78
0
79
0
170
0
171
2
172
0
173
0
174
0
175
0
176
0
177
0
178
0
179
0
271
4
272
4
273
2
274
2
275
0
276
0
277
2
278
46
279
0
280
0
281
0
282
0
283
1
284
0
285
0
286
0
288
0
289
3
340
Standard
341
 
371
-2
372
-2
0
ENDTAB
0
TABLE
2
BLOCK_RECORD
5
1
330
0
100
AcDbSymbolTable
70
2
0
BLOCK_RECORD
5
1F
330
1
100
AcDbSymbolTableRecord
100
AcDbBlockTableRecord
2
*Model_Space
70
0
280
1
281
0
0
BLOCK_RECORD
5
1E
330
1
100
AcDbSymbolTableRecord
100
AcDbBlockTableRecord
2
*Paper_Space
70
0
280
1
281
0
0
ENDTAB
0
ENDSEC
0
SECTION
2
BLOCKS
0
BLOCK
5
20
330
1F
100
AcDbEntity
8
0
100
AcDbBlockBegin
2
*Model_Space
70
0
10
0
20
0
30
0
3
*Model_Space
1
 
0
ENDBLK
5
21
330
1F
100
AcDbEntity
8
0
100
AcDbBlockEnd
0
BLOCK
5
1C
330
1B
100
AcDbEntity
8
0
100
AcDbBlockBegin
2
*Paper_Space
70
0
10
0
20
0
30
0
3
*Paper_Space
1
 
0
ENDBLK
5
1D
330
1E
100
AcDbEntity
8
0
100
AcDbBlockEnd
0
ENDSEC
0
SECTION
  2
ENTITIES
0
LWPOLYLINE
  5
000000a3
 39
 0.100 
 100
AcDbEntity
8
contour007
 6
CONTINUOUS
100
AcDbPolyline
 90
5
 70
8
 10
35.220000000000
 20
128.400000000000
 10
35.220000000000
 20
0.000000000000
 10
0.000000000000
 20
0.000000000000
 10
0.000000000000
 20
128.400000000000
 10
35.220000000000
 20
128.400000000000
0
LINE
  5
000000a4
 39
 0.100 
 100
AcDbEntity
8
engraving007
 6
CONTINUOUS
 100
AcDbLine
 10
13.899622222222
 20
102.284000000000
 30
 0.0
 11
13.050733333333
 21
102.284000000000
 31
0.0
0
LWPOLYLINE
  5
000000a5
 39
 0.100 
 100
AcDbEntity
8
engraving007
 6
CONTINUOUS
100
AcDbPolyline
 90
3
 70
8
 10
14.069400000000
 20
103.048000000000
 10
13.050733333333
 20
103.048000000000
 10
13.050733333333
 20
101.520000000000
0
LINE
  5
000000a6
 39
 0.100 
 100
AcDbEntity
8
engraving007
 6
CONTINUOUS
 100
AcDbLine
 10
15.325622222222
 20
102.284000000000
 30
 0.0
 11
14.476733333333
 21
102.284000000000
 31
0.0
0
LWPOLYLINE
  5
000000a7
 39
 0.100 
 100
AcDbEntity
8
engraving007
 6
CONTINUOUS
100
AcDbPolyline
 90
4
 70
8
 10
15.495400000000
 20
103.048000000000
 10
14.476733333333
 20
103.048000000000
 10
14.476733333333
 20
101.520000000000
 10
15.495400000000
 20
101.520000000000
0
LWPOLYLINE
  5
000000a8
 39
 0.100 
 100
AcDbEntity
8
engraving007
 6
CONTINUOUS
100
AcDbPolyline
 90
6
 70
8
 10
15.902733333333
 20
103.048000000000
 10
15.902733333333
 20
101.520000000000
 10
15.902733333333
 20
102.284000000000
 10
16.921400000000
 20
102.284000000000
 10
16.921400000000
 20
101.520000000000
 10
16.921400000000
 20
103.048000000000
0
LWPOLYLINE
  5
000000a9
 39
 0.100 
 100
AcDbEntity
8
engraving007
 6
CONTINUOUS
100
AcDbPolyline
 90
3
 70
8
 10
17.328733333333
 20
103.048000000000
 10
17.328733333333
 20
101.520000000000
 10
18.177622222222
 20
101.520000000000
0
LINE
  5
000000aa
 39
 0.100 
 100
AcDbEntity
8
engraving007
 6
CONTINUOUS
 100
AcDbLine
 10
19.433622222222
 20
102.284000000000
 30
 0.0
 11
18.584733333333
 21
102.284000000000
 31
0.0
0
LWPOLYLINE
  5
000000ab
 39
 0.100 
 100
AcDbEntity
8
engraving007
 6
CONTINUOUS
100
AcDbPolyline
 90
4
 70
8
 10
19.603400000000
 20
103.048000000000
 10
18.584733333333
 20
103.048000000000
 10
18.584733333333
 20
101.520000000000
 10
19.603400000000
 20
101.520000000000
0
LWPOLYLINE
  5
000000ac
 39
 0.100 
 100
AcDbEntity
8
engraving007
 6
CONTINUOUS
100
AcDbPolyline
 90
3
 70
8
 10
20.010733333333
 20
101.520000000000
 10
20.010733333333
 20
103.048000000000
 10
20.571000000000
 20
103.048000000000
0
ARC
  5
000000ad
 39
 0.100 
 100
AcDbEntity
8
engraving007
 6
CONTINUOUS
100
AcDbCircle
 10
20.571000000000
 20
102.666000000000
 30
 0
 40
0.382000000000
100
AcDbArc
 50
270.000001580390
 51
90.000000000000
0
LWPOLYLINE
  5
000000ae
 39
 0.100 
 100
AcDbEntity
8
engraving007
 6
CONTINUOUS
100
AcDbPolyline
 90
4
 70
8
 10
20.571000000000
 20
102.284000000000
 10
20.010733333333
 20
102.284000000000
 10
20.604955555556
 20
102.284000000000
 10
20.944511111111
 20
101.520000000000
0
LWPOLYLINE
  5
000000af
 39
 0.100 
 100
AcDbEntity
8
engraving007
 6
CONTINUOUS
100
AcDbPolyline
 90
7
 70
8
 10
13.050733333333
 20
98.948000000000
 10
13.050733333333
 20
97.420000000000
 10
13.050733333333
 20
97.997244444444
 10
13.339355555556
 20
98.268888888889
 10
14.069400000000
 20
97.420000000000
 10
13.339355555556
 20
98.268888888889
 10
14.069400000000
 20
98.948000000000
0
LINE
  5
000000b0
 39
 0.100 
 100
AcDbEntity
8
engraving007
 6
CONTINUOUS
 100
AcDbLine
 10
15.495400000000
 20
97.844444444444
 30
 0.0
 11
14.646511111111
 21
97.844444444444
 31
0.0
0
LWPOLYLINE
  5
000000b1
 39
 0.100 
 100
AcDbEntity
8
engraving007
 6
CONTINUOUS
100
AcDbPolyline
 90
3
 70
8
 10
14.476733333333
 20
97.420000000000
 10
15.070955555556
 20
98.948000000000
 10
15.665177777778
 20
97.420000000000
0
LWPOLYLINE
  5
000000b2
 39
 0.100 
 100
AcDbEntity
8
engraving007
 6
CONTINUOUS
100
AcDbPolyline
 90
3
 70
8
 10
16.071733333333
 20
97.420000000000
 10
16.071733333333
 20
98.948000000000
 10
16.632000000000
 20
98.948000000000
0
ARC
  5
000000b3
 39
 0.100 
 100
AcDbEntity
8
engraving007
 6
CONTINUOUS
100
AcDbCircle
 10
16.632000000000
 20
98.566000000000
 30
 0
 40
0.382000000000
100
AcDbArc
 50
270.000001580390
 51
90.000000000000
0
LWPOLYLINE
  5
000000b4
 39
 0.100 
 100
AcDbEntity
8
engraving007
 6
CONTINUOUS
100
AcDbPolyline
 90
4
 70
8
 10
16.632000000000
 20
98.184000000000
 10
16.071733333333
 20
98.184000000000
 10
16.665955555556
 20
98.184000000000
 10
17.005511111111
 20
97.420000000000
0
LWPOLYLINE
  5
000000b5
 39
 0.100 
 100
AcDbEntity
8
engraving007
 6
CONTINUOUS
100
AcDbPolyline
 90
4
 70
8
 10
17.395733333333
 20
98.948000000000
 10
18.414400000000
 20
98.948000000000
 10
17.905066666667
 20
98.948000000000
 10
17.905066666667
 20
97.420000000000
0
LINE
  5
000000b6
 39
 0.100 
 100
AcDbEntity
8
engraving007
 6
CONTINUOUS
 100
AcDbLine
 10
19.670622222222
 20
98.184000000000
 30
 0.0
 11
18.821733333333
 21
98.184000000000
 31
0.0
0
LWPOLYLINE
  5
000000b7
 39
 0.100 
 100
AcDbEntity
8
engraving007
 6
CONTINUOUS
100
AcDbPolyline
 90
4
 70
8
 10
19.840400000000
 20
98.948000000000
 10
18.821733333333
 20
98.948000000000
 10
18.821733333333
 20
97.420000000000
 10
19.840400000000
 20
97.420000000000
0
ARC
  5
000000b8
 39
 0.100 
 100
AcDbEntity
8
engraving007
 6
CONTINUOUS
100
AcDbCircle
 10
21.877022222222
 20
97.929333333333
 30
 0
 40
0.543288888889
100
AcDbArc
 50
180.000000000000
 51
360.000000000000
0
LINE
  5
000000b9
 39
 0.100 
 100
AcDbEntity
8
engraving007
 6
CONTINUOUS
 100
AcDbLine
 10
22.420311111111
 20
98.438666666667
 30
 0.0
 11
22.420311111111
 21
97.929333333333
 31
0.0
0
ARC
  5
000000ba
 39
 0.100 
 100
AcDbEntity
8
engraving007
 6
CONTINUOUS
100
AcDbCircle
 10
21.877022222222
 20
98.438666666667
 30
 0
 40
0.543288888889
100
AcDbArc
 50
0.000000000000
 51
180.000000000000
0
LINE
  5
000000bb
 39
 0.100 
 100
AcDbEntity
8
engraving007
 6
CONTINUOUS
 100
AcDbLine
 10
21.333733333333
 20
97.929333333333
 30
 0.0
 11
21.333733333333
 21
98.438666666667
 31
0.0
0
LWPOLYLINE
  5
000000bc
 39
 0.100 
 100
AcDbEntity
8
engraving007
 6
CONTINUOUS
100
AcDbPolyline
 90
7
 70
8
 10
22.827733333333
 20
98.947000000000
 10
22.827733333333
 20
97.419000000000
 10
22.827733333333
 20
97.996244444444
 10
23.116355555556
 20
98.267888888889
 10
23.846400000000
 20
97.419000000000
 10
23.116355555556
 20
98.267888888889
 10
23.846400000000
 20
98.947000000000
0
LINE
  5
000000bd
 39
 0.100 
 100
AcDbEntity
8
engraving007
 6
CONTINUOUS
 100
AcDbLine
 10
27.489500000000
 20
98.001215069796
 30
 0.0
 11
28.864500000000
 21
100.382784930204
 31
0.0
0
LINE
  5
000000be
 39
 0.100 
 100
AcDbEntity
8
engraving007
 6
CONTINUOUS
 100
AcDbLine
 10
24.242025715868
 20
98.018011661965
 30
 0.0
 11
27.399974284132
 21
97.999988338035
 31
0.0
0
LWPOLYLINE
  5
000000bf
 39
 0.100 
 100
AcDbEntity
8
engraving007
 6
CONTINUOUS
100
AcDbPolyline
 90
3
 70
8
 10
4.551733333333
 20
24.290000000000
 10
4.551733333333
 20
25.818000000000
 10
5.112000000000
 20
25.818000000000
0
ARC
  5
000000c0
 39
 0.100 
 100
AcDbEntity
8
engraving007
 6
CONTINUOUS
100
AcDbCircle
 10
5.112000000000
 20
25.436000000000
 30
 0
 40
0.382000000000
100
AcDbArc
 50
270.000001580390
 51
90.000000000000
0
LWPOLYLINE
  5
000000c1
 39
 0.100 
 100
AcDbEntity
8
engraving007
 6
CONTINUOUS
100
AcDbPolyline
 90
4
 70
8
 10
5.112000000000
 20
25.054000000000
 10
4.551733333333
 20
25.054000000000
 10
5.145955555556
 20
25.054000000000
 10
5.485511111111
 20
24.290000000000
0
ARC
  5
000000c2
 39
 0.100 
 100
AcDbEntity
8
engraving007
 6
CONTINUOUS
100
AcDbCircle
 10
6.537587675454
 20
25.424247495150
 30
 0
 40
0.402858043083
100
AcDbArc
 50
36.734492807465
 51
77.795054648320
0
ARC
  5
000000c3
 39
 0.100 
 100
AcDbEntity
8
engraving007
 6
CONTINUOUS
100
AcDbCircle
 10
6.418222211286
 20
24.881155861767
 30
 0
 40
0.958911272360
100
AcDbArc
 50
77.684337493447
 51
106.406479484328
0
ARC
  5
000000c4
 39
 0.100 
 100
AcDbEntity
8
engraving007
 6
CONTINUOUS
100
AcDbCircle
 10
6.278202791318
 20
25.366596092155
 30
 0
 40
0.453697307302
100
AcDbArc
 50
106.759382669312
 51
144.315972914637
0
ARC
  5
000000c5
 39
 0.100 
 100
AcDbEntity
8
engraving007
 6
CONTINUOUS
100
AcDbCircle
 10
6.162030719598
 20
25.450108286855
 30
 0
 40
0.310623094943
100
AcDbArc
 50
144.328436933631
 51
251.309340895415
0
LINE
  5
000000c6
 39
 0.100 
 100
AcDbEntity
8
engraving007
 6
CONTINUOUS
 100
AcDbLine
 10
6.656711111111
 20
24.952133333333
 30
 0.0
 11
6.062488888889
 21
25.155866666667
 31
0.0
0
ARC
  5
000000c7
 39
 0.100 
 100
AcDbEntity
8
engraving007
 6
CONTINUOUS
100
AcDbCircle
 10
6.557169280402
 20
24.657891713145
 30
 0
 40
0.310623094943
100
AcDbArc
 50
324.328436933630
 51
71.309340895415
0
ARC
  5
000000c8
 39
 0.100 
 100
AcDbEntity
8
engraving007
 6
CONTINUOUS
100
AcDbCircle
 10
6.440997208682
 20
24.741403907845
 30
 0
 40
0.453697307302
100
AcDbArc
 50
646.759382669312
 51
324.315972914637
0
ARC
  5
000000c9
 39
 0.100 
 100
AcDbEntity
8
engraving007
 6
CONTINUOUS
100
AcDbCircle
 10
6.300977788714
 20
25.226844138233
 30
 0
 40
0.958911272360
100
AcDbArc
 50
617.684337493447
 51
286.406479484327
0
ARC
  5
000000ca
 39
 0.100 
 100
AcDbEntity
8
engraving007
 6
CONTINUOUS
100
AcDbCircle
 10
6.181612324546
 20
24.683752504850
 30
 0
 40
0.402858043083
100
AcDbArc
 50
576.734492807465
 51
257.795054648320
0
LINE
  5
000000cb
 39
 0.100 
 100
AcDbEntity
8
engraving007
 6
CONTINUOUS
 100
AcDbLine
 10
7.386577777778
 20
25.749088888889
 30
 0.0
 11
7.284711111111
 21
25.664200000000
 31
0.0
0
ARC
  5
000000cc
 39
 0.100 
 100
AcDbEntity
8
engraving007
 6
CONTINUOUS
100
AcDbCircle
 10
7.661830821359
 20
25.430119710248
 30
 0
 40
0.421314104824
100
AcDbArc
 50
319.207593893702
 51
130.792406106298
0
LWPOLYLINE
  5
000000cd
 39
 0.100 
 100
AcDbEntity
8
engraving007
 6
CONTINUOUS
100
AcDbPolyline
 90
3
 70
8
 10
7.980800000000
 20
25.154866666667
 10
7.267733333333
 20
24.289000000000
 10
8.116622222222
 20
24.289000000000
0
ARC
  5
000000ce
 39
 0.100 
 100
AcDbEntity
8
engraving007
 6
CONTINUOUS
100
AcDbCircle
 10
8.934112888521
 20
25.405164000553
 30
 0
 40
0.445801071591
100
AcDbArc
 50
450.374376412822
 51
157.005758639137
0
ARC
  5
000000cf
 39
 0.100 
 100
AcDbEntity
8
engraving007
 6
CONTINUOUS
100
AcDbCircle
 10
8.931200000000
 20
25.451977777778
 30
 0
 40
0.398977777778
100
AcDbArc
 50
270.000000000000
 51
90.000000000000
0
ARC
  5
000000d0
 39
 0.100 
 100
AcDbEntity
8
engraving007
 6
CONTINUOUS
100
AcDbCircle
 10
8.931200000000
 20
24.654022222222
 30
 0
 40
0.398977777778
100
AcDbArc
 50
270.000000000000
 51
90.000000000000
0
ARC
  5
000000d1
 39
 0.100 
 100
AcDbEntity
8
engraving007
 6
CONTINUOUS
100
AcDbCircle
 10
8.933517832330
 20
24.727119458597
 30
 0
 40
0.472080704259
100
AcDbArc
 50
569.768438894357
 51
269.718686778584
0
LINE
  5
000000d2
 39
 0.100 
 100
AcDbEntity
8
engraving007
 6
CONTINUOUS
 100
AcDbLine
 10
9.864577777778
 20
25.749088888889
 30
 0.0
 11
9.762711111111
 21
25.664200000000
 31
0.0
0
ARC
  5
000000d3
 39
 0.100 
 100
AcDbEntity
8
engraving007
 6
CONTINUOUS
100
AcDbCircle
 10
10.139830821359
 20
25.430119710248
 30
 0
 40
0.421314104824
100
AcDbArc
 50
319.207593893702
 51
130.792406106297
0
LWPOLYLINE
  5
000000d4
 39
 0.100 
 100
AcDbEntity
8
engraving007
 6
CONTINUOUS
100
AcDbPolyline
 90
3
 70
8
 10
10.458800000000
 20
25.154866666667
 10
9.745733333333
 20
24.289000000000
 10
10.594622222222
 20
24.289000000000
0
LINE
  5
000000d5
 39
 0.100 
 100
AcDbEntity
8
engraving007
 6
CONTINUOUS
 100
AcDbLine
 10
21.816733333333
 20
24.290000000000
 30
 0.0
 11
21.816733333333
 21
25.818000000000
 31
0.0
0
ARC
  5
000000d6
 39
 0.100 
 100
AcDbEntity
8
engraving007
 6
CONTINUOUS
100
AcDbCircle
 10
22.885587675454
 20
25.424247495150
 30
 0
 40
0.402858043083
100
AcDbArc
 50
36.734492807465
 51
77.795054648319
0
ARC
  5
000000d7
 39
 0.100 
 100
AcDbEntity
8
engraving007
 6
CONTINUOUS
100
AcDbCircle
 10
22.766222211286
 20
24.881155861767
 30
 0
 40
0.958911272360
100
AcDbArc
 50
77.684337493447
 51
106.406479484328
0
ARC
  5
000000d8
 39
 0.100 
 100
AcDbEntity
8
engraving007
 6
CONTINUOUS
100
AcDbCircle
 10
22.626202791318
 20
25.366596092155
 30
 0
 40
0.453697307302
100
AcDbArc
 50
106.759382669312
 51
144.315972914637
0
ARC
  5
000000d9
 39
 0.100 
 100
AcDbEntity
8
engraving007
 6
CONTINUOUS
100
AcDbCircle
 10
22.510030719598
 20
25.450108286855
 30
 0
 40
0.310623094943
100
AcDbArc
 50
144.328436933631
 51
251.309340895416
0
LINE
  5
000000da
 39
 0.100 
 100
AcDbEntity
8
engraving007
 6
CONTINUOUS
 100
AcDbLine
 10
23.004711111111
 20
24.952133333333
 30
 0.0
 11
22.410488888889
 21
25.155866666667
 31
0.0
0
ARC
  5
000000db
 39
 0.100 
 100
AcDbEntity
8
engraving007
 6
CONTINUOUS
100
AcDbCircle
 10
22.905169280402
 20
24.657891713145
 30
 0
 40
0.310623094943
100
AcDbArc
 50
324.328436933630
 51
71.309340895415
0
ARC
  5
000000dc
 39
 0.100 
 100
AcDbEntity
8
engraving007
 6
CONTINUOUS
100
AcDbCircle
 10
22.788997208682
 20
24.741403907845
 30
 0
 40
0.453697307302
100
AcDbArc
 50
646.759382669313
 51
324.315972914638
0
ARC
  5
000000dd
 39
 0.100 
 100
AcDbEntity
8
engraving007
 6
CONTINUOUS
100
AcDbCircle
 10
22.648977788714
 20
25.226844138233
 30
 0
 40
0.958911272360
100
AcDbArc
 50
617.684337493447
 51
286.406479484327
0
ARC
  5
000000de
 39
 0.100 
 100
AcDbEntity
8
engraving007
 6
CONTINUOUS
100
AcDbCircle
 10
22.529612324546
 20
24.683752504850
 30
 0
 40
0.402858043083
100
AcDbArc
 50
576.734492807465
 51
257.795054648320
0
LWPOLYLINE
  5
000000df
 39
 0.100 
 100
AcDbEntity
8
engraving007
 6
CONTINUOUS
100
AcDbPolyline
 90
5
 70
8
 10
23.615733333333
 20
24.289000000000
 10
23.615733333333
 20
25.817000000000
 10
24.209955555556
 20
24.713444444444
 10
24.804177777778
 20
25.817000000000
 10
24.804177777778
 20
24.289000000000
0
LWPOLYLINE
  5
000000e0
 39
 0.100 
 100
AcDbEntity
8
engraving007
 6
CONTINUOUS
100
AcDbPolyline
 90
3
 70
8
 10
12.550733333333
 20
90.388611111111
 10
14.828955555556
 20
89.249500000000
 10
12.550733333333
 20
88.138866666667
0
LWPOLYLINE
  5
000000e1
 39
 0.100 
 100
AcDbEntity
8
engraving007
 6
CONTINUOUS
100
AcDbPolyline
 90
3
 70
8
 10
12.550733333333
 20
63.132611111111
 10
14.828955555556
 20
61.993500000000
 10
12.550733333333
 20
60.882866666667
0
LWPOLYLINE
  5
000000e2
 39
 0.100 
 100
AcDbEntity
8
engraving007
 6
CONTINUOUS
100
AcDbPolyline
 90
3
 70
8
 10
12.550733333333
 20
76.562611111111
 10
14.828955555556
 20
75.423500000000
 10
12.550733333333
 20
74.312866666667
0
LINE
  5
000000e3
 39
 0.100 
 100
AcDbEntity
8
engraving007
 6
CONTINUOUS
 100
AcDbLine
 10
27.430933333333
 20
124.633500000000
 30
 0.0
 11
25.732600000000
 21
124.633500000000
 31
0.0
0
LWPOLYLINE
  5
000000e4
 39
 0.100 
 100
AcDbEntity
8
engraving007
 6
CONTINUOUS
100
AcDbPolyline
 90
4
 70
8
 10
27.770600000000
 20
126.162000000000
 10
25.732600000000
 20
126.162000000000
 10
25.732600000000
 20
123.105000000000
 10
27.770600000000
 20
123.105000000000
0
LWPOLYLINE
  5
000000e5
 39
 0.100 
 100
AcDbEntity
8
engraving007
 6
CONTINUOUS
100
AcDbPolyline
 90
3
 70
8
 10
28.585600000000
 20
126.162000000000
 10
28.585600000000
 20
123.105000000000
 10
30.283933333333
 20
123.105000000000
0
ARC
  5
000000e6
 39
 0.100 
 100
AcDbEntity
8
engraving007
 6
CONTINUOUS
100
AcDbCircle
 10
32.422741834988
 20
125.374237298870
 30
 0
 40
0.805979736718
100
AcDbArc
 50
36.734492807465
 51
77.795054648320
0
ARC
  5
000000e7
 39
 0.100 
 100
AcDbEntity
8
engraving007
 6
CONTINUOUS
100
AcDbCircle
 10
32.183932787894
 20
124.287698605643
 30
 0
 40
1.918450104453
100
AcDbArc
 50
77.684337493447
 51
106.406479484328
0
ARC
  5
000000e8
 39
 0.100 
 100
AcDbEntity
8
engraving007
 6
CONTINUOUS
100
AcDbCircle
 10
31.903802312211
 20
125.258896762905
 30
 0
 40
0.907691536925
100
AcDbArc
 50
106.759382669313
 51
144.315972914638
0
ARC
  5
000000e9
 39
 0.100 
 100
AcDbEntity
8
engraving007
 6
CONTINUOUS
100
AcDbCircle
 10
31.671382139928
 20
125.425975806882
 30
 0
 40
0.621449477251
100
AcDbArc
 50
144.328436933630
 51
251.309340895415
0
LINE
  5
000000ea
 39
 0.100 
 100
AcDbEntity
8
engraving007
 6
CONTINUOUS
 100
AcDbLine
 10
32.661066666667
 20
124.429700000000
 30
 0.0
 11
31.472233333333
 21
124.837300000000
 31
0.0
0
ARC
  5
000000eb
 39
 0.100 
 100
AcDbEntity
8
engraving007
 6
CONTINUOUS
100
AcDbCircle
 10
32.461917860072
 20
123.841024193118
 30
 0
 40
0.621449477251
100
AcDbArc
 50
324.328436933630
 51
71.309340895415
0
ARC
  5
000000ec
 39
 0.100 
 100
AcDbEntity
8
engraving007
 6
CONTINUOUS
100
AcDbCircle
 10
32.229497687789
 20
124.008103237095
 30
 0
 40
0.907691536925
100
AcDbArc
 50
646.759382669313
 51
324.315972914638
0
ARC
  5
000000ed
 39
 0.100 
 100
AcDbEntity
8
engraving007
 6
CONTINUOUS
100
AcDbCircle
 10
31.949367212106
 20
124.979301394357
 30
 0
 40
1.918450104453
100
AcDbArc
 50
617.684337493446
 51
286.406479484327
0
ARC
  5
000000ee
 39
 0.100 
 100
AcDbEntity
8
engraving007
 6
CONTINUOUS
100
AcDbCircle
 10
31.710558165012
 20
123.892762701130
 30
 0
 40
0.805979736718
100
AcDbArc
 50
576.734492807465
 51
257.795054648320
0
ARC
  5
000000ef
 39
 0.100 
 100
AcDbEntity
8
contour007
 6
CONTINUOUS
100
AcDbCircle
 10
16.590710678119
 20
28.308710678119
 30
 0
 40
0.500000000000
100
AcDbArc
 50
160.291641164843
 51
289.708358835158
0
LINE
  5
000000f0
 39
 0.100 
 100
AcDbEntity
8
contour007
 6
CONTINUOUS
 100
AcDbLine
 10
29.480673019274
 20
27.838000000000
 30
 0.0
 11
16.759326980726
 21
27.838000000000
 31
0.0
0
ARC
  5
000000f1
 39
 0.100 
 100
AcDbEntity
8
contour007
 6
CONTINUOUS
100
AcDbCircle
 10
29.649289321881
 20
28.308710678119
 30
 0
 40
0.500000000000
100
AcDbArc
 50
250.291641164843
 51
379.708358835158
0
LINE
  5
000000f2
 39
 0.100 
 100
AcDbEntity
8
contour007
 6
CONTINUOUS
 100
AcDbLine
 10
30.120000000000
 20
94.198673019274
 30
 0.0
 11
30.120000000000
 21
28.477326980726
 31
0.0
0
ARC
  5
000000f3
 39
 0.100 
 100
AcDbEntity
8
contour007
 6
CONTINUOUS
100
AcDbCircle
 10
29.649289321881
 20
94.367289321881
 30
 0
 40
0.500000000000
100
AcDbArc
 50
340.291641164842
 51
469.708358835157
0
LINE
  5
000000f4
 39
 0.100 
 100
AcDbEntity
8
contour007
 6
CONTINUOUS
 100
AcDbLine
 10
16.759326980726
 20
94.838000000000
 30
 0.0
 11
29.480673019274
 21
94.838000000000
 31
0.0
0
ARC
  5
000000f5
 39
 0.100 
 100
AcDbEntity
8
contour007
 6
CONTINUOUS
100
AcDbCircle
 10
16.590710678119
 20
94.367289321881
 30
 0
 40
0.500000000000
100
AcDbArc
 50
70.291641164842
 51
199.708358835157
0
LINE
  5
000000f6
 39
 0.100 
 100
AcDbEntity
8
contour007
 6
CONTINUOUS
 100
AcDbLine
 10
16.120000000000
 20
28.477326980726
 30
 0.0
 11
16.120000000000
 21
94.198673019274
 31
0.0
0
CIRCLE
  5
000000f7
 39
 0.100 
 100
AcDbEntity
8
contour007
 6
CONTINUOUS
100
AcDbCircle
 10
29.200000000000
 20
102.400000000000
 30
 0
 40
1.500000000000
0
CIRCLE
  5
000000f8
 39
 0.100 
 100
AcDbEntity
8
contour007
 6
CONTINUOUS
100
AcDbCircle
 10
24.195000000000
 20
102.405000000000
 30
 0
 40
1.500000000000
0
ARC
  5
000000f9
 39
 0.100 
 100
AcDbEntity
8
contour007
 6
CONTINUOUS
100
AcDbCircle
 10
7.450000000000
 20
3.000000000000
 30
 0
 40
2.949618619415
100
AcDbArc
 50
160.533027806854
 51
199.466972193146
0
ARC
  5
000000fa
 39
 0.100 
 100
AcDbEntity
8
contour007
 6
CONTINUOUS
100
AcDbCircle
 10
5.611926827375
 20
2.349999997323
 30
 0
 40
1.000000000000
100
AcDbArc
 50
199.450964620195
 51
270.004192482608
0
LINE
  5
000000fb
 39
 0.100 
 100
AcDbEntity
8
contour007
 6
CONTINUOUS
 100
AcDbLine
 10
9.288000000000
 20
1.350000000000
 30
 0.0
 11
5.612000000000
 21
1.350000000000
 31
0.0
0
ARC
  5
000000fc
 39
 0.100 
 100
AcDbEntity
8
contour007
 6
CONTINUOUS
100
AcDbCircle
 10
9.288073172625
 20
2.349999997323
 30
 0
 40
1.000000000000
100
AcDbArc
 50
269.995807517392
 51
340.549035379805
0
ARC
  5
000000fd
 39
 0.100 
 100
AcDbEntity
8
contour007
 6
CONTINUOUS
100
AcDbCircle
 10
7.450000000000
 20
3.000000000000
 30
 0
 40
2.949618619415
100
AcDbArc
 50
340.533027806854
 51
379.466972193146
0
ARC
  5
000000fe
 39
 0.100 
 100
AcDbEntity
8
contour007
 6
CONTINUOUS
100
AcDbCircle
 10
9.288073172625
 20
3.650000002677
 30
 0
 40
1.000000000000
100
AcDbArc
 50
19.450964620195
 51
90.004192482608
0
LINE
  5
000000ff
 39
 0.100 
 100
AcDbEntity
8
contour007
 6
CONTINUOUS
 100
AcDbLine
 10
5.612000000000
 20
4.650000000000
 30
 0.0
 11
9.288000000000
 21
4.650000000000
 31
0.0
0
ARC
  5
00000100
 39
 0.100 
 100
AcDbEntity
8
contour007
 6
CONTINUOUS
100
AcDbCircle
 10
5.611926827375
 20
3.650000002677
 30
 0
 40
1.000000000000
100
AcDbArc
 50
89.995807517392
 51
160.549035379805
0
ARC
  5
00000101
 39
 0.100 
 100
AcDbEntity
8
contour007
 6
CONTINUOUS
100
AcDbCircle
 10
7.450000000000
 20
125.400000000000
 30
 0
 40
2.949618619415
100
AcDbArc
 50
160.533027806854
 51
199.466972193146
0
ARC
  5
00000102
 39
 0.100 
 100
AcDbEntity
8
contour007
 6
CONTINUOUS
100
AcDbCircle
 10
5.611926827375
 20
124.749999997323
 30
 0
 40
1.000000000000
100
AcDbArc
 50
199.450964620195
 51
270.004192482608
0
LINE
  5
00000103
 39
 0.100 
 100
AcDbEntity
8
contour007
 6
CONTINUOUS
 100
AcDbLine
 10
9.288000000000
 20
123.750000000000
 30
 0.0
 11
5.612000000000
 21
123.750000000000
 31
0.0
0
ARC
  5
00000104
 39
 0.100 
 100
AcDbEntity
8
contour007
 6
CONTINUOUS
100
AcDbCircle
 10
9.288073172625
 20
124.749999997323
 30
 0
 40
1.000000000000
100
AcDbArc
 50
269.995807517392
 51
340.549035379805
0
ARC
  5
00000105
 39
 0.100 
 100
AcDbEntity
8
contour007
 6
CONTINUOUS
100
AcDbCircle
 10
7.450000000000
 20
125.400000000000
 30
 0
 40
2.949618619415
100
AcDbArc
 50
340.533027806854
 51
379.466972193146
0
ARC
  5
00000106
 39
 0.100 
 100
AcDbEntity
8
contour007
 6
CONTINUOUS
100
AcDbCircle
 10
9.288073172625
 20
126.050000002677
 30
 0
 40
1.000000000000
100
AcDbArc
 50
19.450964620195
 51
90.004192482608
0
LINE
  5
00000107
 39
 0.100 
 100
AcDbEntity
8
contour007
 6
CONTINUOUS
 100
AcDbLine
 10
5.612000000000
 20
127.050000000000
 30
 0.0
 11
9.288000000000
 21
127.050000000000
 31
0.0
0
ARC
  5
00000108
 39
 0.100 
 100
AcDbEntity
8
contour007
 6
CONTINUOUS
100
AcDbCircle
 10
5.611926827375
 20
126.050000002677
 30
 0
 40
1.000000000000
100
AcDbArc
 50
89.995807517392
 51
160.549035379805
0
CIRCLE
  5
00000109
 39
 0.100 
 100
AcDbEntity
8
contour007
 6
CONTINUOUS
100
AcDbCircle
 10
2.370000000000
 20
14.700000000000
 30
 0
 40
1.350000000000
0
CIRCLE
  5
0000010a
 39
 0.100 
 100
AcDbEntity
8
contour007
 6
CONTINUOUS
100
AcDbCircle
 10
7.450000000000
 20
14.700000000000
 30
 0
 40
1.350000000000
0
CIRCLE
  5
0000010b
 39
 0.100 
 100
AcDbEntity
8
contour007
 6
CONTINUOUS
100
AcDbCircle
 10
12.530000000000
 20
14.700000000000
 30
 0
 40
1.350000000000
0
LWPOLYLINE
  5
0000010c
 39
 0.100 
 100
AcDbEntity
8
contour007
 6
CONTINUOUS
100
AcDbPolyline
 90
209
 70
8
 10
27.807000000000
 20
111.202000000000
 10
27.970000000000
 20
111.212000000000
 10
28.018000000000
 20
111.216000000000
 10
28.066000000000
 20
111.222000000000
 10
28.105000000000
 20
111.228000000000
 10
28.265000000000
 20
111.257000000000
 10
28.312000000000
 20
111.267000000000
 10
28.359000000000
 20
111.278000000000
 10
28.405000000000
 20
111.292000000000
 10
28.561000000000
 20
111.341000000000
 10
28.606000000000
 20
111.356000000000
 10
28.651000000000
 20
111.373000000000
 10
28.690000000000
 20
111.390000000000
 10
28.838000000000
 20
111.457000000000
 10
28.882000000000
 20
111.478000000000
 10
28.924000000000
 20
111.501000000000
 10
28.956000000000
 20
111.519000000000
 10
29.096000000000
 20
111.603000000000
 10
29.136000000000
 20
111.628000000000
 10
29.176000000000
 20
111.656000000000
 10
29.216000000000
 20
111.686000000000
 10
29.344000000000
 20
111.787000000000
 10
29.381000000000
 20
111.818000000000
 10
29.417000000000
 20
111.850000000000
 10
29.445000000000
 20
111.877000000000
 10
29.560000000000
 20
111.992000000000
 10
29.593000000000
 20
112.026000000000
 10
29.625000000000
 20
112.062000000000
 10
29.650000000000
 20
112.093000000000
 10
29.751000000000
 20
112.221000000000
 10
29.780000000000
 20
112.259000000000
 10
29.807000000000
 20
112.298000000000
 10
29.834000000000
 20
112.341000000000
 10
29.918000000000
 20
112.481000000000
 10
29.942000000000
 20
112.523000000000
 10
29.964000000000
 20
112.566000000000
 10
29.980000000000
 20
112.599000000000
 10
30.047000000000
 20
112.747000000000
 10
30.066000000000
 20
112.791000000000
 10
30.083000000000
 20
112.836000000000
 10
30.096000000000
 20
112.876000000000
 10
30.145000000000
 20
113.032000000000
 10
30.159000000000
 20
113.078000000000
 10
30.170000000000
 20
113.125000000000
 10
30.180000000000
 20
113.172000000000
 10
30.209000000000
 20
113.332000000000
 10
30.216000000000
 20
113.379000000000
 10
30.222000000000
 20
113.427000000000
 10
30.225000000000
 20
113.467000000000
 10
30.235000000000
 20
113.630000000000
 10
30.237000000000
 20
113.677000000000
 10
30.237000000000
 20
113.725000000000
 10
30.235000000000
 20
113.770000000000
 10
30.225000000000
 20
113.933000000000
 10
30.221000000000
 20
113.981000000000
 10
30.215000000000
 20
114.029000000000
 10
30.209000000000
 20
114.068000000000
 10
30.180000000000
 20
114.228000000000
 10
30.170000000000
 20
114.275000000000
 10
30.159000000000
 20
114.322000000000
 10
30.145000000000
 20
114.368000000000
 10
30.096000000000
 20
114.524000000000
 10
30.081000000000
 20
114.569000000000
 10
30.064000000000
 20
114.614000000000
 10
30.047000000000
 20
114.653000000000
 10
29.980000000000
 20
114.801000000000
 10
29.959000000000
 20
114.845000000000
 10
29.936000000000
 20
114.887000000000
 10
29.918000000000
 20
114.919000000000
 10
29.834000000000
 20
115.059000000000
 10
29.809000000000
 20
115.099000000000
 10
29.781000000000
 20
115.139000000000
 10
29.751000000000
 20
115.179000000000
 10
29.650000000000
 20
115.307000000000
 10
29.619000000000
 20
115.344000000000
 10
29.587000000000
 20
115.380000000000
 10
29.560000000000
 20
115.408000000000
 10
29.445000000000
 20
115.523000000000
 10
29.411000000000
 20
115.556000000000
 10
29.375000000000
 20
115.588000000000
 10
29.344000000000
 20
115.613000000000
 10
29.216000000000
 20
115.714000000000
 10
29.178000000000
 20
115.743000000000
 10
29.139000000000
 20
115.770000000000
 10
29.096000000000
 20
115.797000000000
 10
28.956000000000
 20
115.881000000000
 10
28.914000000000
 20
115.905000000000
 10
28.871000000000
 20
115.927000000000
 10
28.838000000000
 20
115.943000000000
 10
28.690000000000
 20
116.010000000000
 10
28.646000000000
 20
116.029000000000
 10
28.601000000000
 20
116.046000000000
 10
28.561000000000
 20
116.059000000000
 10
28.405000000000
 20
116.108000000000
 10
28.359000000000
 20
116.122000000000
 10
28.312000000000
 20
116.133000000000
 10
28.265000000000
 20
116.143000000000
 10
28.105000000000
 20
116.172000000000
 10
28.058000000000
 20
116.179000000000
 10
28.010000000000
 20
116.185000000000
 10
27.970000000000
 20
116.188000000000
 10
27.807000000000
 20
116.198000000000
 10
27.760000000000
 20
116.200000000000
 10
27.712000000000
 20
116.200000000000
 10
27.667000000000
 20
116.198000000000
 10
27.504000000000
 20
116.188000000000
 10
27.456000000000
 20
116.184000000000
 10
27.408000000000
 20
116.178000000000
 10
27.369000000000
 20
116.172000000000
 10
27.209000000000
 20
116.143000000000
 10
27.162000000000
 20
116.133000000000
 10
27.115000000000
 20
116.122000000000
 10
27.069000000000
 20
116.108000000000
 10
26.913000000000
 20
116.059000000000
 10
26.868000000000
 20
116.044000000000
 10
26.823000000000
 20
116.027000000000
 10
26.784000000000
 20
116.010000000000
 10
26.636000000000
 20
115.943000000000
 10
26.592000000000
 20
115.922000000000
 10
26.550000000000
 20
115.899000000000
 10
26.518000000000
 20
115.881000000000
 10
26.378000000000
 20
115.797000000000
 10
26.338000000000
 20
115.772000000000
 10
26.298000000000
 20
115.744000000000
 10
26.258000000000
 20
115.714000000000
 10
26.130000000000
 20
115.613000000000
 10
26.093000000000
 20
115.582000000000
 10
26.057000000000
 20
115.550000000000
 10
26.029000000000
 20
115.523000000000
 10
25.914000000000
 20
115.408000000000
 10
25.881000000000
 20
115.374000000000
 10
25.849000000000
 20
115.338000000000
 10
25.824000000000
 20
115.307000000000
 10
25.723000000000
 20
115.179000000000
 10
25.694000000000
 20
115.141000000000
 10
25.667000000000
 20
115.102000000000
 10
25.640000000000
 20
115.059000000000
 10
25.556000000000
 20
114.919000000000
 10
25.532000000000
 20
114.877000000000
 10
25.510000000000
 20
114.834000000000
 10
25.494000000000
 20
114.801000000000
 10
25.427000000000
 20
114.653000000000
 10
25.408000000000
 20
114.609000000000
 10
25.391000000000
 20
114.564000000000
 10
25.378000000000
 20
114.524000000000
 10
25.329000000000
 20
114.368000000000
 10
25.315000000000
 20
114.322000000000
 10
25.304000000000
 20
114.275000000000
 10
25.294000000000
 20
114.228000000000
 10
25.265000000000
 20
114.068000000000
 10
25.258000000000
 20
114.021000000000
 10
25.252000000000
 20
113.973000000000
 10
25.249000000000
 20
113.933000000000
 10
25.239000000000
 20
113.770000000000
 10
25.237000000000
 20
113.723000000000
 10
25.237000000000
 20
113.675000000000
 10
25.239000000000
 20
113.630000000000
 10
25.249000000000
 20
113.467000000000
 10
25.253000000000
 20
113.419000000000
 10
25.259000000000
 20
113.371000000000
 10
25.265000000000
 20
113.332000000000
 10
25.294000000000
 20
113.172000000000
 10
25.304000000000
 20
113.125000000000
 10
25.315000000000
 20
113.078000000000
 10
25.329000000000
 20
113.032000000000
 10
25.378000000000
 20
112.876000000000
 10
25.393000000000
 20
112.831000000000
 10
25.410000000000
 20
112.786000000000
 10
25.427000000000
 20
112.747000000000
 10
25.494000000000
 20
112.599000000000
 10
25.515000000000
 20
112.555000000000
 10
25.538000000000
 20
112.513000000000
 10
25.556000000000
 20
112.481000000000
 10
25.640000000000
 20
112.341000000000
 10
25.665000000000
 20
112.301000000000
 10
25.693000000000
 20
112.261000000000
 10
25.723000000000
 20
112.221000000000
 10
25.824000000000
 20
112.093000000000
 10
25.855000000000
 20
112.056000000000
 10
25.887000000000
 20
112.020000000000
 10
25.914000000000
 20
111.992000000000
 10
26.029000000000
 20
111.877000000000
 10
26.063000000000
 20
111.844000000000
 10
26.099000000000
 20
111.812000000000
 10
26.130000000000
 20
111.787000000000
 10
26.258000000000
 20
111.686000000000
 10
26.296000000000
 20
111.657000000000
 10
26.335000000000
 20
111.630000000000
 10
26.378000000000
 20
111.603000000000
 10
26.518000000000
 20
111.519000000000
 10
26.560000000000
 20
111.495000000000
 10
26.603000000000
 20
111.473000000000
 10
26.636000000000
 20
111.457000000000
 10
26.784000000000
 20
111.390000000000
 10
26.828000000000
 20
111.371000000000
 10
26.873000000000
 20
111.354000000000
 10
26.913000000000
 20
111.341000000000
 10
27.069000000000
 20
111.292000000000
 10
27.115000000000
 20
111.278000000000
 10
27.162000000000
 20
111.267000000000
 10
27.209000000000
 20
111.257000000000
 10
27.369000000000
 20
111.228000000000
 10
27.416000000000
 20
111.221000000000
 10
27.464000000000
 20
111.215000000000
 10
27.504000000000
 20
111.212000000000
 10
27.667000000000
 20
111.202000000000
 10
27.714000000000
 20
111.200000000000
 10
27.762000000000
 20
111.200000000000
 10
27.807000000000
 20
111.202000000000
0
CIRCLE
  5
0000010d
 39
 0.100 
 100
AcDbEntity
8
contour007
 6
CONTINUOUS
100
AcDbCircle
 10
27.737000000000
 20
113.700000000000
 30
 0
 40
1.350000000000
0
CIRCLE
  5
0000010e
 39
 0.100 
 100
AcDbEntity
8
contour007
 6
CONTINUOUS
100
AcDbCircle
 10
32.850000000000
 20
14.700000000000
 30
 0
 40
1.350000000000
0
CIRCLE
  5
0000010f
 39
 0.100 
 100
AcDbEntity
8
contour007
 6
CONTINUOUS
100
AcDbCircle
 10
27.770000000000
 20
14.700000000000
 30
 0
 40
1.350000000000
0
CIRCLE
  5
00000110
 39
 0.100 
 100
AcDbEntity
8
contour007
 6
CONTINUOUS
100
AcDbCircle
 10
22.690000000000
 20
14.700000000000
 30
 0
 40
1.350000000000
0
ARC
  5
00000111
 39
 0.100 
 100
AcDbEntity
8
contour007
 6
CONTINUOUS
100
AcDbCircle
 10
4.576999990610
 20
34.315216682558
 30
 0
 40
2.500000000000
100
AcDbArc
 50
180.004965998469
 51
279.973926439792
0
LINE
  5
00000112
 39
 0.100 
 100
AcDbEntity
8
contour007
 6
CONTINUOUS
 100
AcDbLine
 10
11.511000000000
 20
32.999000000000
 30
 0.0
 11
5.010000000000
 21
31.853000000000
 31
0.0
0
ARC
  5
00000113
 39
 0.100 
 100
AcDbEntity
8
contour007
 6
CONTINUOUS
100
AcDbCircle
 10
11.077000216593
 20
35.461040655229
 30
 0
 40
2.500000000000
100
AcDbArc
 50
279.997192011370
 51
359.976149938282
0
LINE
  5
00000114
 39
 0.100 
 100
AcDbEntity
8
contour007
 6
CONTINUOUS
 100
AcDbLine
 10
13.577000000000
 20
48.172000000000
 30
 0.0
 11
13.577000000000
 21
35.460000000000
 31
0.0
0
ARC
  5
00000115
 39
 0.100 
 100
AcDbEntity
8
contour007
 6
CONTINUOUS
100
AcDbCircle
 10
11.077000216593
 20
48.170959344771
 30
 0
 40
2.500000000000
100
AcDbArc
 50
0.023850061737
 51
80.002807988649
0
LINE
  5
00000116
 39
 0.100 
 100
AcDbEntity
8
contour007
 6
CONTINUOUS
 100
AcDbLine
 10
5.010000000000
 20
51.779000000000
 30
 0.0
 11
11.511000000000
 21
50.633000000000
 31
0.0
0
ARC
  5
00000117
 39
 0.100 
 100
AcDbEntity
8
contour007
 6
CONTINUOUS
100
AcDbCircle
 10
4.576999990610
 20
49.316783317442
 30
 0
 40
2.500000000000
100
AcDbArc
 50
80.026073560239
 51
179.995034001562
0
LINE
  5
00000118
 39
 0.100 
 100
AcDbEntity
8
contour007
 6
CONTINUOUS
 100
AcDbLine
 10
2.077000000000
 20
34.315000000000
 30
 0.0
 11
2.077000000000
 21
49.317000000000
 31
0.0
0
CIRCLE
  5
00000119
 39
 0.100 
 100
AcDbEntity
8
contour007
 6
CONTINUOUS
100
AcDbCircle
 10
7.827000000000
 20
29.347000000000
 30
 0
 40
1.600000000000
0
CIRCLE
  5
0000011a
 39
 0.100 
 100
AcDbEntity
8
contour007
 6
CONTINUOUS
100
AcDbCircle
 10
7.827000000000
 20
54.285000000000
 30
 0
 40
1.600000000000
0
LINE
  5
0000011b
 39
 0.100 
 100
AcDbEntity
8
reference_cross001
 6
CONTINUOUS
 100
AcDbLine
 10
23.870000000000
 20
61.338000000000
 30
 0.0
 11
22.370000000000
 21
61.338000000000
 31
0.0
0
LINE
  5
0000011c
 39
 0.100 
 100
AcDbEntity
8
reference_cross001
 6
CONTINUOUS
 100
AcDbLine
 10
23.120000000000
 20
60.588000000000
 30
 0.0
 11
23.120000000000
 21
62.088000000000
 31
0.0
0
LINE
  5
0000011d
 39
 0.100 
 100
AcDbEntity
8
reference_cross001
 6
CONTINUOUS
 100
AcDbLine
 10
29.950000000000
 20
102.400000000000
 30
 0.0
 11
28.450000000000
 21
102.400000000000
 31
0.0
0
LINE
  5
0000011e
 39
 0.100 
 100
AcDbEntity
8
reference_cross001
 6
CONTINUOUS
 100
AcDbLine
 10
29.200000000000
 20
101.650000000000
 30
 0.0
 11
29.200000000000
 21
103.150000000000
 31
0.0
0
LINE
  5
0000011f
 39
 0.100 
 100
AcDbEntity
8
reference_cross001
 6
CONTINUOUS
 100
AcDbLine
 10
24.945000000000
 20
102.405000000000
 30
 0.0
 11
23.445000000000
 21
102.405000000000
 31
0.0
0
LINE
  5
00000120
 39
 0.100 
 100
AcDbEntity
8
reference_cross001
 6
CONTINUOUS
 100
AcDbLine
 10
24.195000000000
 20
101.655000000000
 30
 0.0
 11
24.195000000000
 21
103.155000000000
 31
0.0
0
LINE
  5
00000121
 39
 0.100 
 100
AcDbEntity
8
reference_cross001
 6
CONTINUOUS
 100
AcDbLine
 10
8.200000000000
 20
3.000000000000
 30
 0.0
 11
6.700000000000
 21
3.000000000000
 31
0.0
0
LINE
  5
00000122
 39
 0.100 
 100
AcDbEntity
8
reference_cross001
 6
CONTINUOUS
 100
AcDbLine
 10
7.450000000000
 20
2.250000000000
 30
 0.0
 11
7.450000000000
 21
3.750000000000
 31
0.0
0
LINE
  5
00000123
 39
 0.100 
 100
AcDbEntity
8
reference_cross001
 6
CONTINUOUS
 100
AcDbLine
 10
8.200000000000
 20
125.400000000000
 30
 0.0
 11
6.700000000000
 21
125.400000000000
 31
0.0
0
LINE
  5
00000124
 39
 0.100 
 100
AcDbEntity
8
reference_cross001
 6
CONTINUOUS
 100
AcDbLine
 10
7.450000000000
 20
124.650000000000
 30
 0.0
 11
7.450000000000
 21
126.150000000000
 31
0.0
0
LINE
  5
00000125
 39
 0.100 
 100
AcDbEntity
8
reference_cross001
 6
CONTINUOUS
 100
AcDbLine
 10
3.120000000000
 20
14.700000000000
 30
 0.0
 11
1.620000000000
 21
14.700000000000
 31
0.0
0
LINE
  5
00000126
 39
 0.100 
 100
AcDbEntity
8
reference_cross001
 6
CONTINUOUS
 100
AcDbLine
 10
2.370000000000
 20
13.950000000000
 30
 0.0
 11
2.370000000000
 21
15.450000000000
 31
0.0
0
LINE
  5
00000127
 39
 0.100 
 100
AcDbEntity
8
reference_cross001
 6
CONTINUOUS
 100
AcDbLine
 10
8.200000000000
 20
14.700000000000
 30
 0.0
 11
6.700000000000
 21
14.700000000000
 31
0.0
0
LINE
  5
00000128
 39
 0.100 
 100
AcDbEntity
8
reference_cross001
 6
CONTINUOUS
 100
AcDbLine
 10
7.450000000000
 20
13.950000000000
 30
 0.0
 11
7.450000000000
 21
15.450000000000
 31
0.0
0
LINE
  5
00000129
 39
 0.100 
 100
AcDbEntity
8
reference_cross001
 6
CONTINUOUS
 100
AcDbLine
 10
13.280000000000
 20
14.700000000000
 30
 0.0
 11
11.780000000000
 21
14.700000000000
 31
0.0
0
LINE
  5
0000012a
 39
 0.100 
 100
AcDbEntity
8
reference_cross001
 6
CONTINUOUS
 100
AcDbLine
 10
12.530000000000
 20
13.950000000000
 30
 0.0
 11
12.530000000000
 21
15.450000000000
 31
0.0
0
LINE
  5
0000012b
 39
 0.100 
 100
AcDbEntity
8
reference_cross001
 6
CONTINUOUS
 100
AcDbLine
 10
28.487000000000
 20
113.700000000000
 30
 0.0
 11
26.987000000000
 21
113.700000000000
 31
0.0
0
LINE
  5
0000012c
 39
 0.100 
 100
AcDbEntity
8
reference_cross001
 6
CONTINUOUS
 100
AcDbLine
 10
27.737000000000
 20
112.950000000000
 30
 0.0
 11
27.737000000000
 21
114.450000000000
 31
0.0
0
LINE
  5
0000012d
 39
 0.100 
 100
AcDbEntity
8
reference_cross001
 6
CONTINUOUS
 100
AcDbLine
 10
33.600000000000
 20
14.700000000000
 30
 0.0
 11
32.100000000000
 21
14.700000000000
 31
0.0
0
LINE
  5
0000012e
 39
 0.100 
 100
AcDbEntity
8
reference_cross001
 6
CONTINUOUS
 100
AcDbLine
 10
32.850000000000
 20
13.950000000000
 30
 0.0
 11
32.850000000000
 21
15.450000000000
 31
0.0
0
LINE
  5
0000012f
 39
 0.100 
 100
AcDbEntity
8
reference_cross001
 6
CONTINUOUS
 100
AcDbLine
 10
28.520000000000
 20
14.700000000000
 30
 0.0
 11
27.020000000000
 21
14.700000000000
 31
0.0
0
LINE
  5
00000130
 39
 0.100 
 100
AcDbEntity
8
reference_cross001
 6
CONTINUOUS
 100
AcDbLine
 10
27.770000000000
 20
13.950000000000
 30
 0.0
 11
27.770000000000
 21
15.450000000000
 31
0.0
0
LINE
  5
00000131
 39
 0.100 
 100
AcDbEntity
8
reference_cross001
 6
CONTINUOUS
 100
AcDbLine
 10
23.440000000000
 20
14.700000000000
 30
 0.0
 11
21.940000000000
 21
14.700000000000
 31
0.0
0
LINE
  5
00000132
 39
 0.100 
 100
AcDbEntity
8
reference_cross001
 6
CONTINUOUS
 100
AcDbLine
 10
22.690000000000
 20
13.950000000000
 30
 0.0
 11
22.690000000000
 21
15.450000000000
 31
0.0
0
LINE
  5
00000133
 39
 0.100 
 100
AcDbEntity
8
reference_cross001
 6
CONTINUOUS
 100
AcDbLine
 10
13.800000000000
 20
101.420000000000
 30
 0.0
 11
12.300000000000
 21
101.420000000000
 31
0.0
0
LINE
  5
00000134
 39
 0.100 
 100
AcDbEntity
8
reference_cross001
 6
CONTINUOUS
 100
AcDbLine
 10
13.050000000000
 20
100.670000000000
 30
 0.0
 11
13.050000000000
 21
102.170000000000
 31
0.0
0
LINE
  5
00000135
 39
 0.100 
 100
AcDbEntity
8
reference_cross001
 6
CONTINUOUS
 100
AcDbLine
 10
13.800000000000
 20
97.320000000000
 30
 0.0
 11
12.300000000000
 21
97.320000000000
 31
0.0
0
LINE
  5
00000136
 39
 0.100 
 100
AcDbEntity
8
reference_cross001
 6
CONTINUOUS
 100
AcDbLine
 10
13.050000000000
 20
96.570000000000
 30
 0.0
 11
13.050000000000
 21
98.070000000000
 31
0.0
0
LINE
  5
00000137
 39
 0.100 
 100
AcDbEntity
8
reference_cross001
 6
CONTINUOUS
 100
AcDbLine
 10
28.927000000000
 20
99.192000000000
 30
 0.0
 11
27.427000000000
 21
99.192000000000
 31
0.0
0
LINE
  5
00000138
 39
 0.100 
 100
AcDbEntity
8
reference_cross001
 6
CONTINUOUS
 100
AcDbLine
 10
28.177000000000
 20
98.442000000000
 30
 0.0
 11
28.177000000000
 21
99.942000000000
 31
0.0
0
LINE
  5
00000139
 39
 0.100 
 100
AcDbEntity
8
reference_cross001
 6
CONTINUOUS
 100
AcDbLine
 10
26.571000000000
 20
98.009000000000
 30
 0.0
 11
25.071000000000
 21
98.009000000000
 31
0.0
0
LINE
  5
0000013a
 39
 0.100 
 100
AcDbEntity
8
reference_cross001
 6
CONTINUOUS
 100
AcDbLine
 10
25.821000000000
 20
97.259000000000
 30
 0.0
 11
25.821000000000
 21
98.759000000000
 31
0.0
0
LINE
  5
0000013b
 39
 0.100 
 100
AcDbEntity
8
reference_cross001
 6
CONTINUOUS
 100
AcDbLine
 10
8.577000000000
 20
41.816000000000
 30
 0.0
 11
7.077000000000
 21
41.816000000000
 31
0.0
0
LINE
  5
0000013c
 39
 0.100 
 100
AcDbEntity
8
reference_cross001
 6
CONTINUOUS
 100
AcDbLine
 10
7.827000000000
 20
41.066000000000
 30
 0.0
 11
7.827000000000
 21
42.566000000000
 31
0.0
0
LINE
  5
0000013d
 39
 0.100 
 100
AcDbEntity
8
reference_cross001
 6
CONTINUOUS
 100
AcDbLine
 10
8.577000000000
 20
29.347000000000
 30
 0.0
 11
7.077000000000
 21
29.347000000000
 31
0.0
0
LINE
  5
0000013e
 39
 0.100 
 100
AcDbEntity
8
reference_cross001
 6
CONTINUOUS
 100
AcDbLine
 10
7.827000000000
 20
28.597000000000
 30
 0.0
 11
7.827000000000
 21
30.097000000000
 31
0.0
0
LINE
  5
0000013f
 39
 0.100 
 100
AcDbEntity
8
reference_cross001
 6
CONTINUOUS
 100
AcDbLine
 10
8.577000000000
 20
54.285000000000
 30
 0.0
 11
7.077000000000
 21
54.285000000000
 31
0.0
0
LINE
  5
00000140
 39
 0.100 
 100
AcDbEntity
8
reference_cross001
 6
CONTINUOUS
 100
AcDbLine
 10
7.827000000000
 20
53.535000000000
 30
 0.0
 11
7.827000000000
 21
55.035000000000
 31
0.0
0
LINE
  5
00000141
 39
 0.100 
 100
AcDbEntity
8
reference_cross001
 6
CONTINUOUS
 100
AcDbLine
 10
5.301000000000
 20
24.190000000000
 30
 0.0
 11
3.801000000000
 21
24.190000000000
 31
0.0
0
LINE
  5
00000142
 39
 0.100 
 100
AcDbEntity
8
reference_cross001
 6
CONTINUOUS
 100
AcDbLine
 10
4.551000000000
 20
23.440000000000
 30
 0.0
 11
4.551000000000
 21
24.940000000000
 31
0.0
0
LINE
  5
00000143
 39
 0.100 
 100
AcDbEntity
8
reference_cross001
 6
CONTINUOUS
 100
AcDbLine
 10
22.566000000000
 20
24.190000000000
 30
 0.0
 11
21.066000000000
 21
24.190000000000
 31
0.0
0
LINE
  5
00000144
 39
 0.100 
 100
AcDbEntity
8
reference_cross001
 6
CONTINUOUS
 100
AcDbLine
 10
21.816000000000
 20
23.440000000000
 30
 0.0
 11
21.816000000000
 21
24.940000000000
 31
0.0
0
LINE
  5
00000145
 39
 0.100 
 100
AcDbEntity
8
reference_cross001
 6
CONTINUOUS
 100
AcDbLine
 10
13.300000000000
 20
87.768000000000
 30
 0.0
 11
11.800000000000
 21
87.768000000000
 31
0.0
0
LINE
  5
00000146
 39
 0.100 
 100
AcDbEntity
8
reference_cross001
 6
CONTINUOUS
 100
AcDbLine
 10
12.550000000000
 20
87.018000000000
 30
 0.0
 11
12.550000000000
 21
88.518000000000
 31
0.0
0
LINE
  5
00000147
 39
 0.100 
 100
AcDbEntity
8
reference_cross001
 6
CONTINUOUS
 100
AcDbLine
 10
13.300000000000
 20
60.512000000000
 30
 0.0
 11
11.800000000000
 21
60.512000000000
 31
0.0
0
LINE
  5
00000148
 39
 0.100 
 100
AcDbEntity
8
reference_cross001
 6
CONTINUOUS
 100
AcDbLine
 10
12.550000000000
 20
59.762000000000
 30
 0.0
 11
12.550000000000
 21
61.262000000000
 31
0.0
0
LINE
  5
00000149
 39
 0.100 
 100
AcDbEntity
8
reference_cross001
 6
CONTINUOUS
 100
AcDbLine
 10
13.300000000000
 20
73.942000000000
 30
 0.0
 11
11.800000000000
 21
73.942000000000
 31
0.0
0
LINE
  5
0000014a
 39
 0.100 
 100
AcDbEntity
8
reference_cross001
 6
CONTINUOUS
 100
AcDbLine
 10
12.550000000000
 20
73.192000000000
 30
 0.0
 11
12.550000000000
 21
74.692000000000
 31
0.0
0
LINE
  5
0000014b
 39
 0.100 
 100
AcDbEntity
8
reference_cross001
 6
CONTINUOUS
 100
AcDbLine
 10
26.482000000000
 20
122.905000000000
 30
 0.0
 11
24.982000000000
 21
122.905000000000
 31
0.0
0
LINE
  5
0000014c
 39
 0.100 
 100
AcDbEntity
8
reference_cross001
 6
CONTINUOUS
 100
AcDbLine
 10
25.732000000000
 20
122.155000000000
 30
 0.0
 11
25.732000000000
 21
123.655000000000
 31
0.0
0
ENDSEC
0
SECTION
2
OBJECTS
0
DICTIONARY
5
C
330
0
100
AcDbDictionary
281
1
3
ACAD_GROUP
350
D
0
DICTIONARY
5
D
330
C
100
AcDbDictionary
281
1
0
ENDSEC
0
EOF
