999
dxfrw 0.5.10
0
SECTION
  2
HEADER
9
$ACADVER
  1
AC1021
  9
$MEASUREMENT
  70
  1
  9
$INSUNITS
  70
  4
9
$HANDSEED
  5
20000
0
ENDSEC
 0
SECTION
2
CLASSES
0
ENDSEC
 0
SECTION
 2
TABLES
0
TABLE
2
VPORT
5
8
330
0
100
AcDbSymbolTable
70
1
0
VPORT
5
31
330
2
100
AcDbSymbolTableRecord
100
AcDbViewportTableRecord
2
*ACTIVE
70
0
10
0
20
0
11
1
21
1
12
209.475294253
22
86.0026335861
13
0
23
0
14
10
24
10
15
10
25
10
16
0
26
0
36
1
17
0
27
0
37
0
40
319.744231092
41
2.12946428571
42
50
43
0
44
0
50
0
51
0
71
0
72
100
73
1
74
3
75
0
76
0
77
0
78
0
281
0
65
1
110
0
120
0
130
0
111
1
121
0
131
0
112
0
122
1
132
0
79
0
146
0
348
10020
60
7
61
5
292
1
282
1
141
0
142
0
63
250
421
3358443
0
ENDTAB
0
TABLE
2
LTYPE
5
5
330
0
100
AcDbSymbolTable
70
4
0
LTYPE
5
14
330
5
100
AcDbSymbolTableRecord
100
AcDbLinetypeTableRecord
2
ByBlock
70
0
3

72
65
73
0
40
0
0
LTYPE
5
15
330
5
100
AcDbSymbolTableRecord
100
AcDbLinetypeTableRecord
2
ByLayer
70
0
3
 
72
65
73
0
40
0
0
LTYPE
5
16
330
5
100
AcDbSymbolTableRecord
100
AcDbLinetypeTableRecord
2
Continuous
70
0
3
Solid line
72
65
73
0
40
0.0
0
LTYPE
5
 0000009d
100
AcDbSymbolTableRecord
100
AcDbLinetypeTableRecord
2
DOT
70
0
3
Dot . . . . . . . . . . . . . . . . . . . . . .
72
65
73
2
40
 3.0
49
 1.0
74
 0
49
 0.0
74
 0
0
LTYPE
5
 0000009e
100
AcDbSymbolTableRecord
100
AcDbLinetypeTableRecord
2
DASHED
70
0
3
Dashed __ __ __ __ __ __ __ __ __ __ __ __ __ _
72
65
73
2
40
1.0
49
 0.55
74
0
49
-0.45
74
0
0
ENDTAB
0
TABLE
2
LAYER
5
10
330
0
100
AcDbSymbolTable
70
1
0
LAYER
5
 0000009f
330
 2
100
AcDbSymbolTableRecord
100
AcDbLayerTableRecord
2
0
70
0
62
7
6
CONTINUOUS
370
 -3,0
390
F
0
LAYER
5
 000000a0
330
 2
100
AcDbSymbolTableRecord
100
AcDbLayerTableRecord
2
contour007
70
0
62
7
6
CONTINUOUS
370
 0,1
390
F
0
LAYER
5
 000000a1
330
 2
100
AcDbSymbolTableRecord
100
AcDbLayerTableRecord
2
engraving255
70
0
62
255
6
CONTINUOUS
370
 0,1
390
F
0
LAYER
5
 000000a2
330
 2
100
AcDbSymbolTableRecord
100
AcDbLayerTableRecord
2
reference_cross001
70
0
62
1
6
CONTINUOUS
370
 0,1
390
F
0
ENDTAB
0
TABLE
2
STYLE
5
3
330
0
100
AcDbSymbolTable
70
3
0
STYLE
5
45
330
2
100
AcDbSymbolTableRecord
100
AcDbTextStyleTableRecord
2
Standard
70
0
40
0
41
1
50
0
71
0
42
1
3
txt
4
 
0
ENDTAB
0
TABLE
2
VIEW
5
6
330
0
100
AcDbSymbolTable
70
0
0
ENDTAB
0
TABLE
2
UCS
5
7
330
0
100
AcDbSymbolTable
70
0
0
ENDTAB
0
TABLE
2
APPID
5
9
330
0
100
AcDbSymbolTable
70
1
0
APPID
5
12
330
9
100
AcDbSymbolTableRecord
100
AcDbRegAppTableRecord
2
ACAD
70
0
0
ENDTAB
0
TABLE
2
DIMSTYLE
5
A
330
0
100
AcDbSymbolTable
70
1
100
AcDbDimStyleTable
71
1
0
DIMSTYLE
105
46
330
A
100
AcDbSymbolTableRecord
100
AcDbDimStyleTableRecord
2
Standard
70
0
40
1
41
0.18
42
0.0625
43
0.38
44
0.18
45
0
46
0
47
0
48
0
140
0.18
141
0.09
142
0
143
25.4
144
1
145
0
146
1
147
0.09
148
0
71
0
72
0
73
0
74
1
75
0
76
0
77
0
78
0
79
0
170
0
171
2
172
0
173
0
174
0
175
0
176
0
177
0
178
0
179
0
271
4
272
4
273
2
274
2
275
0
276
0
277
2
278
46
279
0
280
0
281
0
282
0
283
1
284
0
285
0
286
0
288
0
289
3
340
Standard
341
 
371
-2
372
-2
0
ENDTAB
0
TABLE
2
BLOCK_RECORD
5
1
330
0
100
AcDbSymbolTable
70
2
0
BLOCK_RECORD
5
1F
330
1
100
AcDbSymbolTableRecord
100
AcDbBlockTableRecord
2
*Model_Space
70
0
280
1
281
0
0
BLOCK_RECORD
5
1E
330
1
100
AcDbSymbolTableRecord
100
AcDbBlockTableRecord
2
*Paper_Space
70
0
280
1
281
0
0
ENDTAB
0
ENDSEC
0
SECTION
2
BLOCKS
0
BLOCK
5
20
330
1F
100
AcDbEntity
8
0
100
AcDbBlockBegin
2
*Model_Space
70
0
10
0
20
0
30
0
3
*Model_Space
1
 
0
ENDBLK
5
21
330
1F
100
AcDbEntity
8
0
100
AcDbBlockEnd
0
BLOCK
5
1C
330
1B
100
AcDbEntity
8
0
100
AcDbBlockBegin
2
*Paper_Space
70
0
10
0
20
0
30
0
3
*Paper_Space
1
 
0
ENDBLK
5
1D
330
1E
100
AcDbEntity
8
0
100
AcDbBlockEnd
0
ENDSEC
0
SECTION
  2
ENTITIES
0
LWPOLYLINE
  5
000000a3
 39
 0.100 
 100
AcDbEntity
8
contour007
 6
CONTINUOUS
100
AcDbPolyline
 90
5
 70
8
 10
60.620000000000
 20
128.400000000000
 10
60.620000000000
 20
0.000000000000
 10
0.000000000000
 20
0.000000000000
 10
0.000000000000
 20
128.400000000000
 10
60.620000000000
 20
128.400000000000
0
LWPOLYLINE
  5
000000a4
 39
 0.100 
 100
AcDbEntity
8
engraving255
 6
CONTINUOUS
100
AcDbPolyline
 90
3
 70
8
 10
17.500666666667
 20
108.600000000000
 10
17.500666666667
 20
110.870000000000
 10
18.333000000000
 20
110.870000000000
0
ARC
  5
000000a5
 39
 0.100 
 100
AcDbEntity
8
engraving255
 6
CONTINUOUS
100
AcDbCircle
 10
18.333000000000
 20
110.302500000000
 30
 0
 40
0.567500000000
100
AcDbArc
 50
270.000000000000
 51
90.000000000000
0
LINE
  5
000000a6
 39
 0.100 
 100
AcDbEntity
8
engraving255
 6
CONTINUOUS
 100
AcDbLine
 10
17.500666666667
 20
109.735000000000
 30
 0.0
 11
18.333000000000
 21
109.735000000000
 31
0.0
0
LWPOLYLINE
  5
000000a7
 39
 0.100 
 100
AcDbEntity
8
engraving255
 6
CONTINUOUS
100
AcDbPolyline
 90
5
 70
8
 10
19.467666666667
 20
110.870000000000
 10
20.098222222222
 20
108.600000000000
 10
20.728777777778
 20
110.870000000000
 10
21.359333333333
 20
108.600000000000
 10
21.989888888889
 20
110.870000000000
0
LWPOLYLINE
  5
000000a8
 39
 0.100 
 100
AcDbEntity
8
engraving255
 6
CONTINUOUS
100
AcDbPolyline
 90
3
 70
8
 10
22.594666666667
 20
108.600000000000
 10
22.594666666667
 20
110.870000000000
 10
23.427000000000
 20
110.870000000000
0
ARC
  5
000000a9
 39
 0.100 
 100
AcDbEntity
8
engraving255
 6
CONTINUOUS
100
AcDbCircle
 10
23.427000000000
 20
110.302500000000
 30
 0
 40
0.567500000000
100
AcDbArc
 50
270.000000000000
 51
90.000000000000
0
LWPOLYLINE
  5
000000aa
 39
 0.100 
 100
AcDbEntity
8
engraving255
 6
CONTINUOUS
100
AcDbPolyline
 90
4
 70
8
 10
23.427000000000
 20
109.735000000000
 10
22.594666666667
 20
109.735000000000
 10
23.477444444444
 20
109.735000000000
 10
23.981888888889
 20
108.600000000000
0
ARC
  5
000000ab
 39
 0.100 
 100
AcDbEntity
8
engraving255
 6
CONTINUOUS
100
AcDbCircle
 10
26.982777777778
 20
109.356666666667
 30
 0
 40
0.807111111111
100
AcDbArc
 50
180.000000000000
 51
360.000000000000
0
LINE
  5
000000ac
 39
 0.100 
 100
AcDbEntity
8
engraving255
 6
CONTINUOUS
 100
AcDbLine
 10
27.789888888889
 20
110.113333333333
 30
 0.0
 11
27.789888888889
 21
109.356666666667
 31
0.0
0
ARC
  5
000000ad
 39
 0.100 
 100
AcDbEntity
8
engraving255
 6
CONTINUOUS
100
AcDbCircle
 10
26.982777777778
 20
110.113333333333
 30
 0
 40
0.807111111111
100
AcDbArc
 50
0.000000000000
 51
180.000000000000
0
LINE
  5
000000ae
 39
 0.100 
 100
AcDbEntity
8
engraving255
 6
CONTINUOUS
 100
AcDbLine
 10
26.175666666667
 20
109.356666666667
 30
 0.0
 11
26.175666666667
 21
110.113333333333
 31
0.0
0
LWPOLYLINE
  5
000000af
 39
 0.100 
 100
AcDbEntity
8
engraving255
 6
CONTINUOUS
100
AcDbPolyline
 90
4
 70
8
 10
28.394666666667
 20
108.600000000000
 10
28.394666666667
 20
110.870000000000
 10
29.908000000000
 20
108.600000000000
 10
29.908000000000
 20
110.870000000000
0
ARC
  5
000000b0
 39
 0.100 
 100
AcDbEntity
8
engraving255
 6
CONTINUOUS
100
AcDbCircle
 10
42.307777777778
 20
109.356666666667
 30
 0
 40
0.807111111111
100
AcDbArc
 50
180.000000000000
 51
359.999998504025
0
LINE
  5
000000b1
 39
 0.100 
 100
AcDbEntity
8
engraving255
 6
CONTINUOUS
 100
AcDbLine
 10
43.114888888889
 20
110.113333333333
 30
 0.0
 11
43.114888888889
 21
109.356666666667
 31
0.0
0
ARC
  5
000000b2
 39
 0.100 
 100
AcDbEntity
8
engraving255
 6
CONTINUOUS
100
AcDbCircle
 10
42.307777777778
 20
110.113333333333
 30
 0
 40
0.807111111111
100
AcDbArc
 50
0.000000000000
 51
179.999998504025
0
LINE
  5
000000b3
 39
 0.100 
 100
AcDbEntity
8
engraving255
 6
CONTINUOUS
 100
AcDbLine
 10
41.500666666667
 20
109.356666666667
 30
 0.0
 11
41.500666666667
 21
110.113333333333
 31
0.0
0
LWPOLYLINE
  5
000000b4
 39
 0.100 
 100
AcDbEntity
8
engraving255
 6
CONTINUOUS
100
AcDbPolyline
 90
3
 70
8
 10
43.719666666667
 20
110.870000000000
 10
44.476333333333
 20
108.600000000000
 10
45.233000000000
 20
110.870000000000
0
LINE
  5
000000b5
 39
 0.100 
 100
AcDbEntity
8
engraving255
 6
CONTINUOUS
 100
AcDbLine
 10
47.098777777778
 20
109.735000000000
 30
 0.0
 11
45.837666666667
 21
109.735000000000
 31
0.0
0
LWPOLYLINE
  5
000000b6
 39
 0.100 
 100
AcDbEntity
8
engraving255
 6
CONTINUOUS
100
AcDbPolyline
 90
4
 70
8
 10
47.351000000000
 20
110.870000000000
 10
45.837666666667
 20
110.870000000000
 10
45.837666666667
 20
108.600000000000
 10
47.351000000000
 20
108.600000000000
0
LWPOLYLINE
  5
000000b7
 39
 0.100 
 100
AcDbEntity
8
engraving255
 6
CONTINUOUS
100
AcDbPolyline
 90
3
 70
8
 10
47.955666666667
 20
108.600000000000
 10
47.955666666667
 20
110.870000000000
 10
48.788000000000
 20
110.870000000000
0
ARC
  5
000000b8
 39
 0.100 
 100
AcDbEntity
8
engraving255
 6
CONTINUOUS
100
AcDbCircle
 10
48.788000000000
 20
110.302500000000
 30
 0
 40
0.567500000000
100
AcDbArc
 50
270.000000000000
 51
90.000000000000
0
LWPOLYLINE
  5
000000b9
 39
 0.100 
 100
AcDbEntity
8
engraving255
 6
CONTINUOUS
100
AcDbPolyline
 90
4
 70
8
 10
48.788000000000
 20
109.735000000000
 10
47.955666666667
 20
109.735000000000
 10
48.838444444444
 20
109.735000000000
 10
49.342888888889
 20
108.600000000000
0
LWPOLYLINE
  5
000000ba
 39
 0.100 
 100
AcDbEntity
8
engraving255
 6
CONTINUOUS
100
AcDbPolyline
 90
3
 70
8
 10
49.922666666667
 20
110.870000000000
 10
49.922666666667
 20
108.600000000000
 10
51.183777777778
 20
108.600000000000
0
ARC
  5
000000bb
 39
 0.100 
 100
AcDbEntity
8
engraving255
 6
CONTINUOUS
100
AcDbCircle
 10
52.595777777778
 20
109.356666666667
 30
 0
 40
0.807111111111
100
AcDbArc
 50
180.000000000000
 51
360.000000000000
0
LINE
  5
000000bc
 39
 0.100 
 100
AcDbEntity
8
engraving255
 6
CONTINUOUS
 100
AcDbLine
 10
53.402888888889
 20
110.113333333333
 30
 0.0
 11
53.402888888889
 21
109.356666666667
 31
0.0
0
ARC
  5
000000bd
 39
 0.100 
 100
AcDbEntity
8
engraving255
 6
CONTINUOUS
100
AcDbCircle
 10
52.595777777778
 20
110.113333333333
 30
 0
 40
0.807111111111
100
AcDbArc
 50
0.000000000000
 51
180.000000000000
0
LINE
  5
000000be
 39
 0.100 
 100
AcDbEntity
8
engraving255
 6
CONTINUOUS
 100
AcDbLine
 10
51.788666666667
 20
109.356666666667
 30
 0.0
 11
51.788666666667
 21
110.113333333333
 31
0.0
0
LINE
  5
000000bf
 39
 0.100 
 100
AcDbEntity
8
engraving255
 6
CONTINUOUS
 100
AcDbLine
 10
55.521000000000
 20
109.230555555556
 30
 0.0
 11
54.259888888889
 21
109.230555555556
 31
0.0
0
LWPOLYLINE
  5
000000c0
 39
 0.100 
 100
AcDbEntity
8
engraving255
 6
CONTINUOUS
100
AcDbPolyline
 90
3
 70
8
 10
54.007666666667
 20
108.600000000000
 10
54.890444444444
 20
110.870000000000
 10
55.773222222222
 20
108.600000000000
0
LINE
  5
000000c1
 39
 0.100 
 100
AcDbEntity
8
engraving255
 6
CONTINUOUS
 100
AcDbLine
 10
57.159555555556
 20
110.870000000000
 30
 0.0
 11
56.377666666667
 21
110.870000000000
 31
0.0
0
ARC
  5
000000c2
 39
 0.100 
 100
AcDbEntity
8
engraving255
 6
CONTINUOUS
100
AcDbCircle
 10
57.130180253204
 20
110.109739059578
 30
 0
 40
0.760828236805
100
AcDbArc
 50
360.270675393769
 51
87.787280744071
0
LINE
  5
000000c3
 39
 0.100 
 100
AcDbEntity
8
engraving255
 6
CONTINUOUS
 100
AcDbLine
 10
57.891000000000
 20
109.356666666667
 30
 0.0
 11
57.891000000000
 21
110.113333333333
 31
0.0
0
ARC
  5
000000c4
 39
 0.100 
 100
AcDbEntity
8
engraving255
 6
CONTINUOUS
100
AcDbCircle
 10
57.160818873335
 20
109.330643607628
 30
 0
 40
0.730644699795
100
AcDbArc
 50
269.900932952710
 51
2.041110909451
0
LWPOLYLINE
  5
000000c5
 39
 0.100 
 100
AcDbEntity
8
engraving255
 6
CONTINUOUS
100
AcDbPolyline
 90
3
 70
8
 10
57.159555555556
 20
108.600000000000
 10
56.377666666667
 20
108.600000000000
 10
56.377666666667
 20
110.870000000000
0
LINE
  5
000000c6
 39
 0.100 
 100
AcDbEntity
8
engraving255
 6
CONTINUOUS
 100
AcDbLine
 10
18.812111111111
 20
94.235000000000
 30
 0.0
 11
17.500555555556
 21
94.235000000000
 31
0.0
0
LINE
  5
000000c7
 39
 0.100 
 100
AcDbEntity
8
engraving255
 6
CONTINUOUS
 100
AcDbLine
 10
18.156333333333
 20
94.890777777778
 30
 0.0
 11
18.156333333333
 21
93.579222222222
 31
0.0
0
LWPOLYLINE
  5
000000c8
 39
 0.100 
 100
AcDbEntity
8
engraving255
 6
CONTINUOUS
100
AcDbPolyline
 90
3
 70
8
 10
20.904888888889
 20
95.370000000000
 10
19.769888888889
 20
95.370000000000
 10
19.769888888889
 20
94.310666666667
0
ARC
  5
000000c9
 39
 0.100 
 100
AcDbEntity
8
engraving255
 6
CONTINUOUS
100
AcDbCircle
 10
20.297782635244
 20
93.626737314086
 30
 0
 40
0.863962479950
100
AcDbArc
 50
444.857503260515
 51
127.662906156111
0
ARC
  5
000000ca
 39
 0.100 
 100
AcDbEntity
8
engraving255
 6
CONTINUOUS
100
AcDbCircle
 10
20.306356990923
 20
93.760592590770
 30
 0
 40
0.729885635827
100
AcDbArc
 50
315.755257466132
 51
84.586049357569
0
ARC
  5
000000cb
 39
 0.100 
 100
AcDbEntity
8
engraving255
 6
CONTINUOUS
100
AcDbCircle
 10
20.342954348480
 20
93.728404312254
 30
 0
 40
0.681214477211
100
AcDbArc
 50
568.566076208518
 51
315.546980170303
0
LWPOLYLINE
  5
000000cc
 39
 0.100 
 100
AcDbEntity
8
engraving255
 6
CONTINUOUS
100
AcDbPolyline
 90
3
 70
8
 10
21.610666666667
 20
95.369000000000
 10
22.367333333333
 20
93.099000000000
 10
23.124000000000
 20
95.369000000000
0
LINE
  5
000000cd
 39
 0.100 
 100
AcDbEntity
8
engraving255
 6
CONTINUOUS
 100
AcDbLine
 10
43.312111111111
 20
94.235000000000
 30
 0.0
 11
42.000555555556
 21
94.235000000000
 31
0.0
0
LINE
  5
000000ce
 39
 0.100 
 100
AcDbEntity
8
engraving255
 6
CONTINUOUS
 100
AcDbLine
 10
42.656333333333
 20
94.890777777778
 30
 0.0
 11
42.656333333333
 21
93.579222222222
 31
0.0
0
LINE
  5
000000cf
 39
 0.100 
 100
AcDbEntity
8
engraving255
 6
CONTINUOUS
 100
AcDbLine
 10
44.421222222222
 20
95.269111111111
 30
 0.0
 11
44.269888888889
 21
95.143000000000
 31
0.0
0
ARC
  5
000000d0
 39
 0.100 
 100
AcDbEntity
8
engraving255
 6
CONTINUOUS
100
AcDbCircle
 10
44.830138720213
 20
94.795249831324
 30
 0
 40
0.625905116460
100
AcDbArc
 50
319.207593893703
 51
130.792406106299
0
LWPOLYLINE
  5
000000d1
 39
 0.100 
 100
AcDbEntity
8
engraving255
 6
CONTINUOUS
100
AcDbPolyline
 90
3
 70
8
 10
45.304000000000
 20
94.386333333333
 10
44.244666666667
 20
93.100000000000
 10
45.505777777778
 20
93.100000000000
0
LWPOLYLINE
  5
000000d2
 39
 0.100 
 100
AcDbEntity
8
engraving255
 6
CONTINUOUS
100
AcDbPolyline
 90
6
 70
8
 10
46.867333333333
 20
95.370000000000
 10
46.110666666667
 20
93.478333333333
 10
47.371777777778
 20
93.478333333333
 10
47.119555555556
 20
93.478333333333
 10
47.119555555556
 20
93.856666666667
 10
47.119555555556
 20
93.100000000000
0
LWPOLYLINE
  5
000000d3
 39
 0.100 
 100
AcDbEntity
8
engraving255
 6
CONTINUOUS
100
AcDbPolyline
 90
3
 70
8
 10
47.976666666667
 20
95.370000000000
 10
48.733333333333
 20
93.100000000000
 10
49.490000000000
 20
95.370000000000
0
LINE
  5
000000d4
 39
 0.100 
 100
AcDbEntity
8
engraving255
 6
CONTINUOUS
 100
AcDbLine
 10
17.500666666667
 20
78.806222222222
 30
 0.0
 11
17.500666666667
 21
80.370000000000
 31
0.0
0
ARC
  5
000000d5
 39
 0.100 
 100
AcDbEntity
8
engraving255
 6
CONTINUOUS
100
AcDbCircle
 10
18.257333333333
 20
78.806222222222
 30
 0
 40
0.756666666667
100
AcDbArc
 50
180.000000000000
 51
360.000000000000
0
LINE
  5
000000d6
 39
 0.100 
 100
AcDbEntity
8
engraving255
 6
CONTINUOUS
 100
AcDbLine
 10
19.014000000000
 20
80.370000000000
 30
 0.0
 11
19.014000000000
 21
78.806222222222
 31
0.0
0
ARC
  5
000000d7
 39
 0.100 
 100
AcDbEntity
8
engraving255
 6
CONTINUOUS
100
AcDbCircle
 10
20.601918863403
 20
79.785040454182
 30
 0
 40
0.598486752486
100
AcDbArc
 50
36.734492807464
 51
77.795054648319
0
ARC
  5
000000d8
 39
 0.100 
 100
AcDbEntity
8
engraving255
 6
CONTINUOUS
100
AcDbCircle
 10
20.424589279856
 20
78.978222386264
 30
 0
 40
1.424560594409
100
AcDbArc
 50
77.684337493447
 51
106.406479484328
0
ARC
  5
000000d9
 39
 0.100 
 100
AcDbEntity
8
engraving255
 6
CONTINUOUS
100
AcDbCircle
 10
20.216576136316
 20
79.699393409157
 30
 0
 40
0.674013669879
100
AcDbArc
 50
106.759382669313
 51
144.315972914638
0
ARC
  5
000000da
 39
 0.100 
 100
AcDbEntity
8
engraving255
 6
CONTINUOUS
100
AcDbCircle
 10
20.043990663276
 20
79.823459300498
 30
 0
 40
0.461462320366
100
AcDbArc
 50
144.328436933630
 51
251.309340895415
0
LINE
  5
000000db
 39
 0.100 
 100
AcDbEntity
8
engraving255
 6
CONTINUOUS
 100
AcDbLine
 10
20.778888888889
 20
79.083666666667
 30
 0.0
 11
19.896111111111
 21
79.386333333333
 31
0.0
0
ARC
  5
000000dc
 39
 0.100 
 100
AcDbEntity
8
engraving255
 6
CONTINUOUS
100
AcDbCircle
 10
20.631009336724
 20
78.646540699502
 30
 0
 40
0.461462320366
100
AcDbArc
 50
324.328436933630
 51
71.309340895415
0
ARC
  5
000000dd
 39
 0.100 
 100
AcDbEntity
8
engraving255
 6
CONTINUOUS
100
AcDbCircle
 10
20.458423863684
 20
78.770606590843
 30
 0
 40
0.674013669879
100
AcDbArc
 50
646.759382669313
 51
324.315972914637
0
ARC
  5
000000de
 39
 0.100 
 100
AcDbEntity
8
engraving255
 6
CONTINUOUS
100
AcDbCircle
 10
20.250410720144
 20
79.491777613736
 30
 0
 40
1.424560594409
100
AcDbArc
 50
617.684337493447
 51
286.406479484328
0
ARC
  5
000000df
 39
 0.100 
 100
AcDbEntity
8
engraving255
 6
CONTINUOUS
100
AcDbCircle
 10
20.073081136597
 20
78.684959545818
 30
 0
 40
0.598486752486
100
AcDbArc
 50
576.734492807464
 51
257.795054648319
0
ARC
  5
000000e0
 39
 0.100 
 100
AcDbEntity
8
engraving255
 6
CONTINUOUS
100
AcDbCircle
 10
22.519000000000
 20
79.802500000000
 30
 0
 40
0.567500000000
100
AcDbArc
 50
270.000000000000
 51
450.000000000000
0
LWPOLYLINE
  5
000000e1
 39
 0.100 
 100
AcDbEntity
8
engraving255
 6
CONTINUOUS
100
AcDbPolyline
 90
4
 70
8
 10
22.519000000000
 20
80.370000000000
 10
21.686666666667
 20
80.370000000000
 10
21.686666666667
 20
78.100000000000
 10
22.645111111111
 20
78.100000000000
0
ARC
  5
000000e2
 39
 0.100 
 100
AcDbEntity
8
engraving255
 6
CONTINUOUS
100
AcDbCircle
 10
22.645111111111
 20
78.667500000000
 30
 0
 40
0.567500000000
100
AcDbArc
 50
270.000000000000
 51
450.000000000000
0
LINE
  5
000000e3
 39
 0.100 
 100
AcDbEntity
8
engraving255
 6
CONTINUOUS
 100
AcDbLine
 10
21.686666666667
 20
79.235000000000
 30
 0.0
 11
22.645111111111
 21
79.235000000000
 31
0.0
0
LINE
  5
000000e4
 39
 0.100 
 100
AcDbEntity
8
engraving255
 6
CONTINUOUS
 100
AcDbLine
 10
25.116222222222
 20
79.235000000000
 30
 0.0
 11
23.804666666667
 21
79.235000000000
 31
0.0
0
LWPOLYLINE
  5
000000e5
 39
 0.100 
 100
AcDbEntity
8
engraving255
 6
CONTINUOUS
100
AcDbPolyline
 90
4
 70
8
 10
25.720666666667
 20
80.370000000000
 10
27.234000000000
 20
80.370000000000
 10
26.477333333333
 20
80.370000000000
 10
26.477333333333
 20
78.100000000000
0
LINE
  5
000000e6
 39
 0.100 
 100
AcDbEntity
8
engraving255
 6
CONTINUOUS
 100
AcDbLine
 10
29.099777777778
 20
78.100000000000
 30
 0.0
 11
27.838666666667
 21
79.613333333333
 31
0.0
0
LINE
  5
000000e7
 39
 0.100 
 100
AcDbEntity
8
engraving255
 6
CONTINUOUS
 100
AcDbLine
 10
29.099777777778
 20
79.613333333333
 30
 0.0
 11
27.838666666667
 21
78.100000000000
 31
0.0
0
LINE
  5
000000e8
 39
 0.100 
 100
AcDbEntity
8
engraving255
 6
CONTINUOUS
 100
AcDbLine
 10
30.486555555556
 20
80.370000000000
 30
 0.0
 11
29.704666666667
 21
80.370000000000
 31
0.0
0
ARC
  5
000000e9
 39
 0.100 
 100
AcDbEntity
8
engraving255
 6
CONTINUOUS
100
AcDbCircle
 10
30.457180253204
 20
79.609739059578
 30
 0
 40
0.760828236805
100
AcDbArc
 50
360.270675393770
 51
87.787280744071
0
LINE
  5
000000ea
 39
 0.100 
 100
AcDbEntity
8
engraving255
 6
CONTINUOUS
 100
AcDbLine
 10
31.218000000000
 20
78.856666666667
 30
 0.0
 11
31.218000000000
 21
79.613333333333
 31
0.0
0
ARC
  5
000000eb
 39
 0.100 
 100
AcDbEntity
8
engraving255
 6
CONTINUOUS
100
AcDbCircle
 10
30.487818873335
 20
78.830643607628
 30
 0
 40
0.730644699795
100
AcDbArc
 50
269.900932952710
 51
2.041110909451
0
LWPOLYLINE
  5
000000ec
 39
 0.100 
 100
AcDbEntity
8
engraving255
 6
CONTINUOUS
100
AcDbPolyline
 90
3
 70
8
 10
30.486555555556
 20
78.100000000000
 10
29.704666666667
 20
78.100000000000
 10
29.704666666667
 20
80.370000000000
0
LINE
  5
000000ed
 39
 0.100 
 100
AcDbEntity
8
engraving255
 6
CONTINUOUS
 100
AcDbLine
 10
42.000666666667
 20
78.806222222222
 30
 0.0
 11
42.000666666667
 21
80.370000000000
 31
0.0
0
ARC
  5
000000ee
 39
 0.100 
 100
AcDbEntity
8
engraving255
 6
CONTINUOUS
100
AcDbCircle
 10
42.757333333333
 20
78.806222222222
 30
 0
 40
0.756666666667
100
AcDbArc
 50
180.000000000000
 51
360.000000000000
0
LINE
  5
000000ef
 39
 0.100 
 100
AcDbEntity
8
engraving255
 6
CONTINUOUS
 100
AcDbLine
 10
43.514000000000
 20
80.370000000000
 30
 0.0
 11
43.514000000000
 21
78.806222222222
 31
0.0
0
ARC
  5
000000f0
 39
 0.100 
 100
AcDbEntity
8
engraving255
 6
CONTINUOUS
100
AcDbCircle
 10
45.101918863403
 20
79.785040454182
 30
 0
 40
0.598486752486
100
AcDbArc
 50
36.734492807465
 51
77.795054648319
0
ARC
  5
000000f1
 39
 0.100 
 100
AcDbEntity
8
engraving255
 6
CONTINUOUS
100
AcDbCircle
 10
44.924589279856
 20
78.978222386264
 30
 0
 40
1.424560594409
100
AcDbArc
 50
77.684337493447
 51
106.406479484328
0
ARC
  5
000000f2
 39
 0.100 
 100
AcDbEntity
8
engraving255
 6
CONTINUOUS
100
AcDbCircle
 10
44.716576136316
 20
79.699393409157
 30
 0
 40
0.674013669879
100
AcDbArc
 50
106.759382669313
 51
144.315972914638
0
ARC
  5
000000f3
 39
 0.100 
 100
AcDbEntity
8
engraving255
 6
CONTINUOUS
100
AcDbCircle
 10
44.543990663276
 20
79.823459300498
 30
 0
 40
0.461462320366
100
AcDbArc
 50
144.328436933630
 51
251.309340895415
0
LINE
  5
000000f4
 39
 0.100 
 100
AcDbEntity
8
engraving255
 6
CONTINUOUS
 100
AcDbLine
 10
45.278888888889
 20
79.083666666667
 30
 0.0
 11
44.396111111111
 21
79.386333333333
 31
0.0
0
ARC
  5
000000f5
 39
 0.100 
 100
AcDbEntity
8
engraving255
 6
CONTINUOUS
100
AcDbCircle
 10
45.131009336724
 20
78.646540699502
 30
 0
 40
0.461462320366
100
AcDbArc
 50
324.328436933631
 51
71.309340895416
0
ARC
  5
000000f6
 39
 0.100 
 100
AcDbEntity
8
engraving255
 6
CONTINUOUS
100
AcDbCircle
 10
44.958423863684
 20
78.770606590843
 30
 0
 40
0.674013669879
100
AcDbArc
 50
646.759382669312
 51
324.315972914637
0
ARC
  5
000000f7
 39
 0.100 
 100
AcDbEntity
8
engraving255
 6
CONTINUOUS
100
AcDbCircle
 10
44.750410720144
 20
79.491777613736
 30
 0
 40
1.424560594409
100
AcDbArc
 50
617.684337493447
 51
286.406479484328
0
ARC
  5
000000f8
 39
 0.100 
 100
AcDbEntity
8
engraving255
 6
CONTINUOUS
100
AcDbCircle
 10
44.573081136597
 20
78.684959545818
 30
 0
 40
0.598486752486
100
AcDbArc
 50
576.734492807465
 51
257.795054648320
0
ARC
  5
000000f9
 39
 0.100 
 100
AcDbEntity
8
engraving255
 6
CONTINUOUS
100
AcDbCircle
 10
47.019000000000
 20
79.802500000000
 30
 0
 40
0.567500000000
100
AcDbArc
 50
270.000000000000
 51
450.000000000000
0
LWPOLYLINE
  5
000000fa
 39
 0.100 
 100
AcDbEntity
8
engraving255
 6
CONTINUOUS
100
AcDbPolyline
 90
4
 70
8
 10
47.019000000000
 20
80.370000000000
 10
46.186666666667
 20
80.370000000000
 10
46.186666666667
 20
78.100000000000
 10
47.145111111111
 20
78.100000000000
0
ARC
  5
000000fb
 39
 0.100 
 100
AcDbEntity
8
engraving255
 6
CONTINUOUS
100
AcDbCircle
 10
47.145111111111
 20
78.667500000000
 30
 0
 40
0.567500000000
100
AcDbArc
 50
270.000000000000
 51
450.000000000000
0
LINE
  5
000000fc
 39
 0.100 
 100
AcDbEntity
8
engraving255
 6
CONTINUOUS
 100
AcDbLine
 10
46.186666666667
 20
79.235000000000
 30
 0.0
 11
47.145111111111
 21
79.235000000000
 31
0.0
0
LINE
  5
000000fd
 39
 0.100 
 100
AcDbEntity
8
engraving255
 6
CONTINUOUS
 100
AcDbLine
 10
49.616222222222
 20
79.235000000000
 30
 0.0
 11
48.304666666667
 21
79.235000000000
 31
0.0
0
LWPOLYLINE
  5
000000fe
 39
 0.100 
 100
AcDbEntity
8
engraving255
 6
CONTINUOUS
100
AcDbPolyline
 90
3
 70
8
 10
50.220666666667
 20
78.100000000000
 10
50.220666666667
 20
80.370000000000
 10
51.053000000000
 20
80.370000000000
0
ARC
  5
000000ff
 39
 0.100 
 100
AcDbEntity
8
engraving255
 6
CONTINUOUS
100
AcDbCircle
 10
51.053000000000
 20
79.802500000000
 30
 0
 40
0.567500000000
100
AcDbArc
 50
270.000000000000
 51
90.000000000000
0
LWPOLYLINE
  5
00000100
 39
 0.100 
 100
AcDbEntity
8
engraving255
 6
CONTINUOUS
100
AcDbPolyline
 90
4
 70
8
 10
51.053000000000
 20
79.235000000000
 10
50.220666666667
 20
79.235000000000
 10
51.103444444444
 20
79.235000000000
 10
51.607888888889
 20
78.100000000000
0
LINE
  5
00000101
 39
 0.100 
 100
AcDbEntity
8
engraving255
 6
CONTINUOUS
 100
AcDbLine
 10
53.448777777778
 20
78.100000000000
 30
 0.0
 11
52.187666666667
 21
79.613333333333
 31
0.0
0
LINE
  5
00000102
 39
 0.100 
 100
AcDbEntity
8
engraving255
 6
CONTINUOUS
 100
AcDbLine
 10
53.448777777778
 20
79.613333333333
 30
 0.0
 11
52.187666666667
 21
78.100000000000
 31
0.0
0
LINE
  5
00000103
 39
 0.100 
 100
AcDbEntity
8
engraving255
 6
CONTINUOUS
 100
AcDbLine
 10
54.835555555556
 20
80.370000000000
 30
 0.0
 11
54.053666666667
 21
80.370000000000
 31
0.0
0
ARC
  5
00000104
 39
 0.100 
 100
AcDbEntity
8
engraving255
 6
CONTINUOUS
100
AcDbCircle
 10
54.806180253204
 20
79.609739059578
 30
 0
 40
0.760828236805
100
AcDbArc
 50
360.270675393769
 51
87.787280744071
0
LINE
  5
00000105
 39
 0.100 
 100
AcDbEntity
8
engraving255
 6
CONTINUOUS
 100
AcDbLine
 10
55.567000000000
 20
78.856666666667
 30
 0.0
 11
55.567000000000
 21
79.613333333333
 31
0.0
0
ARC
  5
00000106
 39
 0.100 
 100
AcDbEntity
8
engraving255
 6
CONTINUOUS
100
AcDbCircle
 10
54.836818873335
 20
78.830643607628
 30
 0
 40
0.730644699795
100
AcDbArc
 50
269.900932952710
 51
2.041110909451
0
LWPOLYLINE
  5
00000107
 39
 0.100 
 100
AcDbEntity
8
engraving255
 6
CONTINUOUS
100
AcDbPolyline
 90
3
 70
8
 10
54.835555555556
 20
78.100000000000
 10
54.053666666667
 20
78.100000000000
 10
54.053666666667
 20
80.370000000000
0
LWPOLYLINE
  5
00000108
 39
 0.100 
 100
AcDbEntity
8
engraving255
 6
CONTINUOUS
100
AcDbPolyline
 90
5
 70
8
 10
17.500666666667
 20
65.370000000000
 10
18.131222222222
 20
63.100000000000
 10
18.761777777778
 20
65.370000000000
 10
19.392333333333
 20
63.100000000000
 10
20.022888888889
 20
65.370000000000
0
ARC
  5
00000109
 39
 0.100 
 100
AcDbEntity
8
engraving255
 6
CONTINUOUS
100
AcDbCircle
 10
21.460000000000
 20
64.802500000000
 30
 0
 40
0.567500000000
100
AcDbArc
 50
270.000000000000
 51
450.000000000000
0
LWPOLYLINE
  5
0000010a
 39
 0.100 
 100
AcDbEntity
8
engraving255
 6
CONTINUOUS
100
AcDbPolyline
 90
4
 70
8
 10
21.460000000000
 20
65.370000000000
 10
20.627666666667
 20
65.370000000000
 10
20.627666666667
 20
63.100000000000
 10
21.586111111111
 20
63.100000000000
0
ARC
  5
0000010b
 39
 0.100 
 100
AcDbEntity
8
engraving255
 6
CONTINUOUS
100
AcDbCircle
 10
21.586111111111
 20
63.667500000000
 30
 0
 40
0.567500000000
100
AcDbArc
 50
270.000000000000
 51
450.000000000000
0
LINE
  5
0000010c
 39
 0.100 
 100
AcDbEntity
8
engraving255
 6
CONTINUOUS
 100
AcDbLine
 10
20.627666666667
 20
64.235000000000
 30
 0.0
 11
21.586111111111
 21
64.235000000000
 31
0.0
0
ARC
  5
0000010d
 39
 0.100 
 100
AcDbEntity
8
engraving255
 6
CONTINUOUS
100
AcDbCircle
 10
23.728918863403
 20
64.785040454182
 30
 0
 40
0.598486752486
100
AcDbArc
 50
36.734492807464
 51
77.795054648319
0
ARC
  5
0000010e
 39
 0.100 
 100
AcDbEntity
8
engraving255
 6
CONTINUOUS
100
AcDbCircle
 10
23.551589279856
 20
63.978222386264
 30
 0
 40
1.424560594409
100
AcDbArc
 50
77.684337493447
 51
106.406479484328
0
ARC
  5
0000010f
 39
 0.100 
 100
AcDbEntity
8
engraving255
 6
CONTINUOUS
100
AcDbCircle
 10
23.343576136316
 20
64.699393409157
 30
 0
 40
0.674013669879
100
AcDbArc
 50
106.759382669313
 51
144.315972914638
0
ARC
  5
00000110
 39
 0.100 
 100
AcDbEntity
8
engraving255
 6
CONTINUOUS
100
AcDbCircle
 10
23.170990663276
 20
64.823459300498
 30
 0
 40
0.461462320366
100
AcDbArc
 50
144.328436933630
 51
251.309340895415
0
LINE
  5
00000111
 39
 0.100 
 100
AcDbEntity
8
engraving255
 6
CONTINUOUS
 100
AcDbLine
 10
23.905888888889
 20
64.083666666667
 30
 0.0
 11
23.023111111111
 21
64.386333333333
 31
0.0
0
ARC
  5
00000112
 39
 0.100 
 100
AcDbEntity
8
engraving255
 6
CONTINUOUS
100
AcDbCircle
 10
23.758009336724
 20
63.646540699502
 30
 0
 40
0.461462320366
100
AcDbArc
 50
324.328436933630
 51
71.309340895415
0
ARC
  5
00000113
 39
 0.100 
 100
AcDbEntity
8
engraving255
 6
CONTINUOUS
100
AcDbCircle
 10
23.585423863684
 20
63.770606590843
 30
 0
 40
0.674013669879
100
AcDbArc
 50
646.759382669312
 51
324.315972914637
0
ARC
  5
00000114
 39
 0.100 
 100
AcDbEntity
8
engraving255
 6
CONTINUOUS
100
AcDbCircle
 10
23.377410720144
 20
64.491777613736
 30
 0
 40
1.424560594409
100
AcDbArc
 50
617.684337493447
 51
286.406479484327
0
ARC
  5
00000115
 39
 0.100 
 100
AcDbEntity
8
engraving255
 6
CONTINUOUS
100
AcDbCircle
 10
23.200081136597
 20
63.684959545818
 30
 0
 40
0.598486752486
100
AcDbArc
 50
576.734492807465
 51
257.795054648320
0
LINE
  5
00000116
 39
 0.100 
 100
AcDbEntity
8
engraving255
 6
CONTINUOUS
 100
AcDbLine
 10
25.595555555556
 20
65.370000000000
 30
 0.0
 11
24.813666666667
 21
65.370000000000
 31
0.0
0
ARC
  5
00000117
 39
 0.100 
 100
AcDbEntity
8
engraving255
 6
CONTINUOUS
100
AcDbCircle
 10
25.566180253204
 20
64.609739059578
 30
 0
 40
0.760828236805
100
AcDbArc
 50
360.270675393770
 51
87.787280744071
0
LINE
  5
00000118
 39
 0.100 
 100
AcDbEntity
8
engraving255
 6
CONTINUOUS
 100
AcDbLine
 10
26.327000000000
 20
63.856666666667
 30
 0.0
 11
26.327000000000
 21
64.613333333333
 31
0.0
0
ARC
  5
00000119
 39
 0.100 
 100
AcDbEntity
8
engraving255
 6
CONTINUOUS
100
AcDbCircle
 10
25.596818873335
 20
63.830643607628
 30
 0
 40
0.730644699795
100
AcDbArc
 50
269.900932952708
 51
2.041110909449
0
LWPOLYLINE
  5
0000011a
 39
 0.100 
 100
AcDbEntity
8
engraving255
 6
CONTINUOUS
100
AcDbPolyline
 90
3
 70
8
 10
25.595555555556
 20
63.100000000000
 10
24.813666666667
 20
63.100000000000
 10
24.813666666667
 20
65.370000000000
0
LWPOLYLINE
  5
0000011b
 39
 0.100 
 100
AcDbEntity
8
engraving255
 6
CONTINUOUS
100
AcDbPolyline
 90
5
 70
8
 10
42.000666666667
 20
65.370000000000
 10
42.631222222222
 20
63.100000000000
 10
43.261777777778
 20
65.370000000000
 10
43.892333333333
 20
63.100000000000
 10
44.522888888889
 20
65.370000000000
0
ARC
  5
0000011c
 39
 0.100 
 100
AcDbEntity
8
engraving255
 6
CONTINUOUS
100
AcDbCircle
 10
45.960000000000
 20
64.802500000000
 30
 0
 40
0.567500000000
100
AcDbArc
 50
270.000000000000
 51
450.000000000000
0
LWPOLYLINE
  5
0000011d
 39
 0.100 
 100
AcDbEntity
8
engraving255
 6
CONTINUOUS
100
AcDbPolyline
 90
4
 70
8
 10
45.960000000000
 20
65.370000000000
 10
45.127666666667
 20
65.370000000000
 10
45.127666666667
 20
63.100000000000
 10
46.086111111111
 20
63.100000000000
0
ARC
  5
0000011e
 39
 0.100 
 100
AcDbEntity
8
engraving255
 6
CONTINUOUS
100
AcDbCircle
 10
46.086111111111
 20
63.667500000000
 30
 0
 40
0.567500000000
100
AcDbArc
 50
270.000000000000
 51
450.000000000000
0
LINE
  5
0000011f
 39
 0.100 
 100
AcDbEntity
8
engraving255
 6
CONTINUOUS
 100
AcDbLine
 10
45.127666666667
 20
64.235000000000
 30
 0.0
 11
46.086111111111
 21
64.235000000000
 31
0.0
0
LINE
  5
00000120
 39
 0.100 
 100
AcDbEntity
8
engraving255
 6
CONTINUOUS
 100
AcDbLine
 10
48.506777777778
 20
64.235000000000
 30
 0.0
 11
47.245666666667
 21
64.235000000000
 31
0.0
0
LWPOLYLINE
  5
00000121
 39
 0.100 
 100
AcDbEntity
8
engraving255
 6
CONTINUOUS
100
AcDbPolyline
 90
4
 70
8
 10
48.759000000000
 20
65.370000000000
 10
47.245666666667
 20
65.370000000000
 10
47.245666666667
 20
63.100000000000
 10
48.759000000000
 20
63.100000000000
0
LINE
  5
00000122
 39
 0.100 
 100
AcDbEntity
8
engraving255
 6
CONTINUOUS
 100
AcDbLine
 10
50.145555555556
 20
65.370000000000
 30
 0.0
 11
49.363666666667
 21
65.370000000000
 31
0.0
0
ARC
  5
00000123
 39
 0.100 
 100
AcDbEntity
8
engraving255
 6
CONTINUOUS
100
AcDbCircle
 10
50.116180253204
 20
64.609739059578
 30
 0
 40
0.760828236805
100
AcDbArc
 50
360.270675393770
 51
87.787280744071
0
LINE
  5
00000124
 39
 0.100 
 100
AcDbEntity
8
engraving255
 6
CONTINUOUS
 100
AcDbLine
 10
50.877000000000
 20
63.856666666667
 30
 0.0
 11
50.877000000000
 21
64.613333333333
 31
0.0
0
ARC
  5
00000125
 39
 0.100 
 100
AcDbEntity
8
engraving255
 6
CONTINUOUS
100
AcDbCircle
 10
50.146818873335
 20
63.830643607628
 30
 0
 40
0.730644699795
100
AcDbArc
 50
269.900932952708
 51
2.041110909449
0
LWPOLYLINE
  5
00000126
 39
 0.100 
 100
AcDbEntity
8
engraving255
 6
CONTINUOUS
100
AcDbPolyline
 90
3
 70
8
 10
50.145555555556
 20
63.100000000000
 10
49.363666666667
 20
63.100000000000
 10
49.363666666667
 20
65.370000000000
0
LWPOLYLINE
  5
00000127
 39
 0.100 
 100
AcDbEntity
8
contour007
 6
DASHED
100
AcDbPolyline
 90
209
 70
8
 10
7.520000000000
 20
12.202000000000
 10
7.683000000000
 20
12.212000000000
 10
7.731000000000
 20
12.216000000000
 10
7.779000000000
 20
12.222000000000
 10
7.818000000000
 20
12.228000000000
 10
7.978000000000
 20
12.257000000000
 10
8.025000000000
 20
12.267000000000
 10
8.072000000000
 20
12.278000000000
 10
8.118000000000
 20
12.292000000000
 10
8.274000000000
 20
12.341000000000
 10
8.319000000000
 20
12.356000000000
 10
8.364000000000
 20
12.373000000000
 10
8.403000000000
 20
12.390000000000
 10
8.551000000000
 20
12.457000000000
 10
8.595000000000
 20
12.478000000000
 10
8.637000000000
 20
12.501000000000
 10
8.669000000000
 20
12.519000000000
 10
8.809000000000
 20
12.603000000000
 10
8.849000000000
 20
12.628000000000
 10
8.889000000000
 20
12.656000000000
 10
8.929000000000
 20
12.686000000000
 10
9.057000000000
 20
12.787000000000
 10
9.094000000000
 20
12.818000000000
 10
9.130000000000
 20
12.850000000000
 10
9.158000000000
 20
12.877000000000
 10
9.273000000000
 20
12.992000000000
 10
9.306000000000
 20
13.026000000000
 10
9.338000000000
 20
13.062000000000
 10
9.363000000000
 20
13.093000000000
 10
9.464000000000
 20
13.221000000000
 10
9.493000000000
 20
13.259000000000
 10
9.520000000000
 20
13.298000000000
 10
9.547000000000
 20
13.341000000000
 10
9.631000000000
 20
13.481000000000
 10
9.655000000000
 20
13.523000000000
 10
9.677000000000
 20
13.566000000000
 10
9.693000000000
 20
13.599000000000
 10
9.760000000000
 20
13.747000000000
 10
9.779000000000
 20
13.791000000000
 10
9.796000000000
 20
13.836000000000
 10
9.809000000000
 20
13.876000000000
 10
9.858000000000
 20
14.032000000000
 10
9.872000000000
 20
14.078000000000
 10
9.883000000000
 20
14.125000000000
 10
9.893000000000
 20
14.172000000000
 10
9.922000000000
 20
14.332000000000
 10
9.929000000000
 20
14.379000000000
 10
9.935000000000
 20
14.427000000000
 10
9.938000000000
 20
14.467000000000
 10
9.948000000000
 20
14.630000000000
 10
9.950000000000
 20
14.677000000000
 10
9.950000000000
 20
14.725000000000
 10
9.948000000000
 20
14.770000000000
 10
9.938000000000
 20
14.933000000000
 10
9.934000000000
 20
14.981000000000
 10
9.928000000000
 20
15.029000000000
 10
9.922000000000
 20
15.068000000000
 10
9.893000000000
 20
15.228000000000
 10
9.883000000000
 20
15.275000000000
 10
9.872000000000
 20
15.322000000000
 10
9.858000000000
 20
15.368000000000
 10
9.809000000000
 20
15.524000000000
 10
9.794000000000
 20
15.569000000000
 10
9.777000000000
 20
15.614000000000
 10
9.760000000000
 20
15.653000000000
 10
9.693000000000
 20
15.801000000000
 10
9.672000000000
 20
15.845000000000
 10
9.649000000000
 20
15.887000000000
 10
9.631000000000
 20
15.919000000000
 10
9.547000000000
 20
16.059000000000
 10
9.522000000000
 20
16.099000000000
 10
9.494000000000
 20
16.139000000000
 10
9.464000000000
 20
16.179000000000
 10
9.363000000000
 20
16.307000000000
 10
9.332000000000
 20
16.344000000000
 10
9.300000000000
 20
16.380000000000
 10
9.273000000000
 20
16.408000000000
 10
9.158000000000
 20
16.523000000000
 10
9.124000000000
 20
16.556000000000
 10
9.088000000000
 20
16.588000000000
 10
9.057000000000
 20
16.613000000000
 10
8.929000000000
 20
16.714000000000
 10
8.891000000000
 20
16.743000000000
 10
8.852000000000
 20
16.770000000000
 10
8.809000000000
 20
16.797000000000
 10
8.669000000000
 20
16.881000000000
 10
8.627000000000
 20
16.905000000000
 10
8.584000000000
 20
16.927000000000
 10
8.551000000000
 20
16.943000000000
 10
8.403000000000
 20
17.010000000000
 10
8.359000000000
 20
17.029000000000
 10
8.314000000000
 20
17.046000000000
 10
8.274000000000
 20
17.059000000000
 10
8.118000000000
 20
17.108000000000
 10
8.072000000000
 20
17.122000000000
 10
8.025000000000
 20
17.133000000000
 10
7.978000000000
 20
17.143000000000
 10
7.818000000000
 20
17.172000000000
 10
7.771000000000
 20
17.179000000000
 10
7.723000000000
 20
17.185000000000
 10
7.683000000000
 20
17.188000000000
 10
7.520000000000
 20
17.198000000000
 10
7.473000000000
 20
17.200000000000
 10
7.425000000000
 20
17.200000000000
 10
7.380000000000
 20
17.198000000000
 10
7.217000000000
 20
17.188000000000
 10
7.169000000000
 20
17.184000000000
 10
7.121000000000
 20
17.178000000000
 10
7.082000000000
 20
17.172000000000
 10
6.922000000000
 20
17.143000000000
 10
6.875000000000
 20
17.133000000000
 10
6.828000000000
 20
17.122000000000
 10
6.782000000000
 20
17.108000000000
 10
6.626000000000
 20
17.059000000000
 10
6.581000000000
 20
17.044000000000
 10
6.536000000000
 20
17.027000000000
 10
6.497000000000
 20
17.010000000000
 10
6.349000000000
 20
16.943000000000
 10
6.305000000000
 20
16.922000000000
 10
6.263000000000
 20
16.899000000000
 10
6.231000000000
 20
16.881000000000
 10
6.091000000000
 20
16.797000000000
 10
6.051000000000
 20
16.772000000000
 10
6.011000000000
 20
16.744000000000
 10
5.971000000000
 20
16.714000000000
 10
5.843000000000
 20
16.613000000000
 10
5.806000000000
 20
16.582000000000
 10
5.770000000000
 20
16.550000000000
 10
5.742000000000
 20
16.523000000000
 10
5.627000000000
 20
16.408000000000
 10
5.594000000000
 20
16.374000000000
 10
5.562000000000
 20
16.338000000000
 10
5.537000000000
 20
16.307000000000
 10
5.436000000000
 20
16.179000000000
 10
5.407000000000
 20
16.141000000000
 10
5.380000000000
 20
16.102000000000
 10
5.353000000000
 20
16.059000000000
 10
5.269000000000
 20
15.919000000000
 10
5.245000000000
 20
15.877000000000
 10
5.223000000000
 20
15.834000000000
 10
5.207000000000
 20
15.801000000000
 10
5.140000000000
 20
15.653000000000
 10
5.121000000000
 20
15.609000000000
 10
5.104000000000
 20
15.564000000000
 10
5.091000000000
 20
15.524000000000
 10
5.042000000000
 20
15.368000000000
 10
5.028000000000
 20
15.322000000000
 10
5.017000000000
 20
15.275000000000
 10
5.007000000000
 20
15.228000000000
 10
4.978000000000
 20
15.068000000000
 10
4.971000000000
 20
15.021000000000
 10
4.965000000000
 20
14.973000000000
 10
4.962000000000
 20
14.933000000000
 10
4.952000000000
 20
14.770000000000
 10
4.950000000000
 20
14.723000000000
 10
4.950000000000
 20
14.675000000000
 10
4.952000000000
 20
14.630000000000
 10
4.962000000000
 20
14.467000000000
 10
4.966000000000
 20
14.419000000000
 10
4.972000000000
 20
14.371000000000
 10
4.978000000000
 20
14.332000000000
 10
5.007000000000
 20
14.172000000000
 10
5.017000000000
 20
14.125000000000
 10
5.028000000000
 20
14.078000000000
 10
5.042000000000
 20
14.032000000000
 10
5.091000000000
 20
13.876000000000
 10
5.106000000000
 20
13.831000000000
 10
5.123000000000
 20
13.786000000000
 10
5.140000000000
 20
13.747000000000
 10
5.207000000000
 20
13.599000000000
 10
5.228000000000
 20
13.555000000000
 10
5.251000000000
 20
13.513000000000
 10
5.269000000000
 20
13.481000000000
 10
5.353000000000
 20
13.341000000000
 10
5.378000000000
 20
13.301000000000
 10
5.406000000000
 20
13.261000000000
 10
5.436000000000
 20
13.221000000000
 10
5.537000000000
 20
13.093000000000
 10
5.568000000000
 20
13.056000000000
 10
5.600000000000
 20
13.020000000000
 10
5.627000000000
 20
12.992000000000
 10
5.742000000000
 20
12.877000000000
 10
5.776000000000
 20
12.844000000000
 10
5.812000000000
 20
12.812000000000
 10
5.843000000000
 20
12.787000000000
 10
5.971000000000
 20
12.686000000000
 10
6.009000000000
 20
12.657000000000
 10
6.048000000000
 20
12.630000000000
 10
6.091000000000
 20
12.603000000000
 10
6.231000000000
 20
12.519000000000
 10
6.273000000000
 20
12.495000000000
 10
6.316000000000
 20
12.473000000000
 10
6.349000000000
 20
12.457000000000
 10
6.497000000000
 20
12.390000000000
 10
6.541000000000
 20
12.371000000000
 10
6.586000000000
 20
12.354000000000
 10
6.626000000000
 20
12.341000000000
 10
6.782000000000
 20
12.292000000000
 10
6.828000000000
 20
12.278000000000
 10
6.875000000000
 20
12.267000000000
 10
6.922000000000
 20
12.257000000000
 10
7.082000000000
 20
12.228000000000
 10
7.129000000000
 20
12.221000000000
 10
7.177000000000
 20
12.215000000000
 10
7.217000000000
 20
12.212000000000
 10
7.380000000000
 20
12.202000000000
 10
7.427000000000
 20
12.200000000000
 10
7.475000000000
 20
12.200000000000
 10
7.520000000000
 20
12.202000000000
0
CIRCLE
  5
00000128
 39
 0.100 
 100
AcDbEntity
8
contour007
 6
DASHED
100
AcDbCircle
 10
7.450000000000
 20
14.700000000000
 30
 0
 40
1.350000000000
0
LWPOLYLINE
  5
00000129
 39
 0.100 
 100
AcDbEntity
8
contour007
 6
DASHED
100
AcDbPolyline
 90
209
 70
8
 10
53.240000000000
 20
12.202000000000
 10
53.403000000000
 20
12.212000000000
 10
53.451000000000
 20
12.216000000000
 10
53.499000000000
 20
12.222000000000
 10
53.538000000000
 20
12.228000000000
 10
53.698000000000
 20
12.257000000000
 10
53.745000000000
 20
12.267000000000
 10
53.792000000000
 20
12.278000000000
 10
53.838000000000
 20
12.292000000000
 10
53.994000000000
 20
12.341000000000
 10
54.039000000000
 20
12.356000000000
 10
54.084000000000
 20
12.373000000000
 10
54.123000000000
 20
12.390000000000
 10
54.271000000000
 20
12.457000000000
 10
54.315000000000
 20
12.478000000000
 10
54.357000000000
 20
12.501000000000
 10
54.389000000000
 20
12.519000000000
 10
54.529000000000
 20
12.603000000000
 10
54.569000000000
 20
12.628000000000
 10
54.609000000000
 20
12.656000000000
 10
54.649000000000
 20
12.686000000000
 10
54.777000000000
 20
12.787000000000
 10
54.814000000000
 20
12.818000000000
 10
54.850000000000
 20
12.850000000000
 10
54.878000000000
 20
12.877000000000
 10
54.993000000000
 20
12.992000000000
 10
55.026000000000
 20
13.026000000000
 10
55.058000000000
 20
13.062000000000
 10
55.083000000000
 20
13.093000000000
 10
55.184000000000
 20
13.221000000000
 10
55.213000000000
 20
13.259000000000
 10
55.240000000000
 20
13.298000000000
 10
55.267000000000
 20
13.341000000000
 10
55.351000000000
 20
13.481000000000
 10
55.375000000000
 20
13.523000000000
 10
55.397000000000
 20
13.566000000000
 10
55.413000000000
 20
13.599000000000
 10
55.480000000000
 20
13.747000000000
 10
55.499000000000
 20
13.791000000000
 10
55.516000000000
 20
13.836000000000
 10
55.529000000000
 20
13.876000000000
 10
55.578000000000
 20
14.032000000000
 10
55.592000000000
 20
14.078000000000
 10
55.603000000000
 20
14.125000000000
 10
55.613000000000
 20
14.172000000000
 10
55.642000000000
 20
14.332000000000
 10
55.649000000000
 20
14.379000000000
 10
55.655000000000
 20
14.427000000000
 10
55.658000000000
 20
14.467000000000
 10
55.668000000000
 20
14.630000000000
 10
55.670000000000
 20
14.677000000000
 10
55.670000000000
 20
14.725000000000
 10
55.668000000000
 20
14.770000000000
 10
55.658000000000
 20
14.933000000000
 10
55.654000000000
 20
14.981000000000
 10
55.648000000000
 20
15.029000000000
 10
55.642000000000
 20
15.068000000000
 10
55.613000000000
 20
15.228000000000
 10
55.603000000000
 20
15.275000000000
 10
55.592000000000
 20
15.322000000000
 10
55.578000000000
 20
15.368000000000
 10
55.529000000000
 20
15.524000000000
 10
55.514000000000
 20
15.569000000000
 10
55.497000000000
 20
15.614000000000
 10
55.480000000000
 20
15.653000000000
 10
55.413000000000
 20
15.801000000000
 10
55.392000000000
 20
15.845000000000
 10
55.369000000000
 20
15.887000000000
 10
55.351000000000
 20
15.919000000000
 10
55.267000000000
 20
16.059000000000
 10
55.242000000000
 20
16.099000000000
 10
55.214000000000
 20
16.139000000000
 10
55.184000000000
 20
16.179000000000
 10
55.083000000000
 20
16.307000000000
 10
55.052000000000
 20
16.344000000000
 10
55.020000000000
 20
16.380000000000
 10
54.993000000000
 20
16.408000000000
 10
54.878000000000
 20
16.523000000000
 10
54.844000000000
 20
16.556000000000
 10
54.808000000000
 20
16.588000000000
 10
54.777000000000
 20
16.613000000000
 10
54.649000000000
 20
16.714000000000
 10
54.611000000000
 20
16.743000000000
 10
54.572000000000
 20
16.770000000000
 10
54.529000000000
 20
16.797000000000
 10
54.389000000000
 20
16.881000000000
 10
54.347000000000
 20
16.905000000000
 10
54.304000000000
 20
16.927000000000
 10
54.271000000000
 20
16.943000000000
 10
54.123000000000
 20
17.010000000000
 10
54.079000000000
 20
17.029000000000
 10
54.034000000000
 20
17.046000000000
 10
53.994000000000
 20
17.059000000000
 10
53.838000000000
 20
17.108000000000
 10
53.792000000000
 20
17.122000000000
 10
53.745000000000
 20
17.133000000000
 10
53.698000000000
 20
17.143000000000
 10
53.538000000000
 20
17.172000000000
 10
53.491000000000
 20
17.179000000000
 10
53.443000000000
 20
17.185000000000
 10
53.403000000000
 20
17.188000000000
 10
53.240000000000
 20
17.198000000000
 10
53.193000000000
 20
17.200000000000
 10
53.145000000000
 20
17.200000000000
 10
53.100000000000
 20
17.198000000000
 10
52.937000000000
 20
17.188000000000
 10
52.889000000000
 20
17.184000000000
 10
52.841000000000
 20
17.178000000000
 10
52.802000000000
 20
17.172000000000
 10
52.642000000000
 20
17.143000000000
 10
52.595000000000
 20
17.133000000000
 10
52.548000000000
 20
17.122000000000
 10
52.502000000000
 20
17.108000000000
 10
52.346000000000
 20
17.059000000000
 10
52.301000000000
 20
17.044000000000
 10
52.256000000000
 20
17.027000000000
 10
52.217000000000
 20
17.010000000000
 10
52.069000000000
 20
16.943000000000
 10
52.025000000000
 20
16.922000000000
 10
51.983000000000
 20
16.899000000000
 10
51.951000000000
 20
16.881000000000
 10
51.811000000000
 20
16.797000000000
 10
51.771000000000
 20
16.772000000000
 10
51.731000000000
 20
16.744000000000
 10
51.691000000000
 20
16.714000000000
 10
51.563000000000
 20
16.613000000000
 10
51.526000000000
 20
16.582000000000
 10
51.490000000000
 20
16.550000000000
 10
51.462000000000
 20
16.523000000000
 10
51.347000000000
 20
16.408000000000
 10
51.314000000000
 20
16.374000000000
 10
51.282000000000
 20
16.338000000000
 10
51.257000000000
 20
16.307000000000
 10
51.156000000000
 20
16.179000000000
 10
51.127000000000
 20
16.141000000000
 10
51.100000000000
 20
16.102000000000
 10
51.073000000000
 20
16.059000000000
 10
50.989000000000
 20
15.919000000000
 10
50.965000000000
 20
15.877000000000
 10
50.943000000000
 20
15.834000000000
 10
50.927000000000
 20
15.801000000000
 10
50.860000000000
 20
15.653000000000
 10
50.841000000000
 20
15.609000000000
 10
50.824000000000
 20
15.564000000000
 10
50.811000000000
 20
15.524000000000
 10
50.762000000000
 20
15.368000000000
 10
50.748000000000
 20
15.322000000000
 10
50.737000000000
 20
15.275000000000
 10
50.727000000000
 20
15.228000000000
 10
50.698000000000
 20
15.068000000000
 10
50.691000000000
 20
15.021000000000
 10
50.685000000000
 20
14.973000000000
 10
50.682000000000
 20
14.933000000000
 10
50.672000000000
 20
14.770000000000
 10
50.670000000000
 20
14.723000000000
 10
50.670000000000
 20
14.675000000000
 10
50.672000000000
 20
14.630000000000
 10
50.682000000000
 20
14.467000000000
 10
50.686000000000
 20
14.419000000000
 10
50.692000000000
 20
14.371000000000
 10
50.698000000000
 20
14.332000000000
 10
50.727000000000
 20
14.172000000000
 10
50.737000000000
 20
14.125000000000
 10
50.748000000000
 20
14.078000000000
 10
50.762000000000
 20
14.032000000000
 10
50.811000000000
 20
13.876000000000
 10
50.826000000000
 20
13.831000000000
 10
50.843000000000
 20
13.786000000000
 10
50.860000000000
 20
13.747000000000
 10
50.927000000000
 20
13.599000000000
 10
50.948000000000
 20
13.555000000000
 10
50.971000000000
 20
13.513000000000
 10
50.989000000000
 20
13.481000000000
 10
51.073000000000
 20
13.341000000000
 10
51.098000000000
 20
13.301000000000
 10
51.126000000000
 20
13.261000000000
 10
51.156000000000
 20
13.221000000000
 10
51.257000000000
 20
13.093000000000
 10
51.288000000000
 20
13.056000000000
 10
51.320000000000
 20
13.020000000000
 10
51.347000000000
 20
12.992000000000
 10
51.462000000000
 20
12.877000000000
 10
51.496000000000
 20
12.844000000000
 10
51.532000000000
 20
12.812000000000
 10
51.563000000000
 20
12.787000000000
 10
51.691000000000
 20
12.686000000000
 10
51.729000000000
 20
12.657000000000
 10
51.768000000000
 20
12.630000000000
 10
51.811000000000
 20
12.603000000000
 10
51.951000000000
 20
12.519000000000
 10
51.993000000000
 20
12.495000000000
 10
52.036000000000
 20
12.473000000000
 10
52.069000000000
 20
12.457000000000
 10
52.217000000000
 20
12.390000000000
 10
52.261000000000
 20
12.371000000000
 10
52.306000000000
 20
12.354000000000
 10
52.346000000000
 20
12.341000000000
 10
52.502000000000
 20
12.292000000000
 10
52.548000000000
 20
12.278000000000
 10
52.595000000000
 20
12.267000000000
 10
52.642000000000
 20
12.257000000000
 10
52.802000000000
 20
12.228000000000
 10
52.849000000000
 20
12.221000000000
 10
52.897000000000
 20
12.215000000000
 10
52.937000000000
 20
12.212000000000
 10
53.100000000000
 20
12.202000000000
 10
53.147000000000
 20
12.200000000000
 10
53.195000000000
 20
12.200000000000
 10
53.240000000000
 20
12.202000000000
0
CIRCLE
  5
0000012a
 39
 0.100 
 100
AcDbEntity
8
contour007
 6
DASHED
100
AcDbCircle
 10
53.170000000000
 20
14.700000000000
 30
 0
 40
1.350000000000
0
ARC
  5
0000012b
 39
 0.100 
 100
AcDbEntity
8
contour007
 6
CONTINUOUS
100
AcDbCircle
 10
7.450000000000
 20
3.000000000000
 30
 0
 40
2.949618619415
100
AcDbArc
 50
160.533027806854
 51
199.466972193146
0
ARC
  5
0000012c
 39
 0.100 
 100
AcDbEntity
8
contour007
 6
CONTINUOUS
100
AcDbCircle
 10
5.611926827375
 20
2.349999997323
 30
 0
 40
1.000000000000
100
AcDbArc
 50
199.450964620195
 51
270.004192482608
0
LINE
  5
0000012d
 39
 0.100 
 100
AcDbEntity
8
contour007
 6
CONTINUOUS
 100
AcDbLine
 10
9.288000000000
 20
1.350000000000
 30
 0.0
 11
5.612000000000
 21
1.350000000000
 31
0.0
0
ARC
  5
0000012e
 39
 0.100 
 100
AcDbEntity
8
contour007
 6
CONTINUOUS
100
AcDbCircle
 10
9.288073172625
 20
2.349999997323
 30
 0
 40
1.000000000000
100
AcDbArc
 50
269.995807517392
 51
340.549035379805
0
ARC
  5
0000012f
 39
 0.100 
 100
AcDbEntity
8
contour007
 6
CONTINUOUS
100
AcDbCircle
 10
7.450000000000
 20
3.000000000000
 30
 0
 40
2.949618619415
100
AcDbArc
 50
340.533027806854
 51
379.466972193146
0
ARC
  5
00000130
 39
 0.100 
 100
AcDbEntity
8
contour007
 6
CONTINUOUS
100
AcDbCircle
 10
9.288073172625
 20
3.650000002677
 30
 0
 40
1.000000000000
100
AcDbArc
 50
19.450964620195
 51
90.004192482608
0
LINE
  5
00000131
 39
 0.100 
 100
AcDbEntity
8
contour007
 6
CONTINUOUS
 100
AcDbLine
 10
5.612000000000
 20
4.650000000000
 30
 0.0
 11
9.288000000000
 21
4.650000000000
 31
0.0
0
ARC
  5
00000132
 39
 0.100 
 100
AcDbEntity
8
contour007
 6
CONTINUOUS
100
AcDbCircle
 10
5.611926827375
 20
3.650000002677
 30
 0
 40
1.000000000000
100
AcDbArc
 50
89.995807517392
 51
160.549035379805
0
ARC
  5
00000133
 39
 0.100 
 100
AcDbEntity
8
contour007
 6
CONTINUOUS
100
AcDbCircle
 10
7.450000000000
 20
125.400000000000
 30
 0
 40
2.949618619415
100
AcDbArc
 50
160.533027806854
 51
199.466972193146
0
ARC
  5
00000134
 39
 0.100 
 100
AcDbEntity
8
contour007
 6
CONTINUOUS
100
AcDbCircle
 10
5.611926827375
 20
124.749999997323
 30
 0
 40
1.000000000000
100
AcDbArc
 50
199.450964620195
 51
270.004192482608
0
LINE
  5
00000135
 39
 0.100 
 100
AcDbEntity
8
contour007
 6
CONTINUOUS
 100
AcDbLine
 10
9.288000000000
 20
123.750000000000
 30
 0.0
 11
5.612000000000
 21
123.750000000000
 31
0.0
0
ARC
  5
00000136
 39
 0.100 
 100
AcDbEntity
8
contour007
 6
CONTINUOUS
100
AcDbCircle
 10
9.288073172625
 20
124.749999997323
 30
 0
 40
1.000000000000
100
AcDbArc
 50
269.995807517392
 51
340.549035379805
0
ARC
  5
00000137
 39
 0.100 
 100
AcDbEntity
8
contour007
 6
CONTINUOUS
100
AcDbCircle
 10
7.450000000000
 20
125.400000000000
 30
 0
 40
2.949618619415
100
AcDbArc
 50
340.533027806854
 51
379.466972193146
0
ARC
  5
00000138
 39
 0.100 
 100
AcDbEntity
8
contour007
 6
CONTINUOUS
100
AcDbCircle
 10
9.288073172625
 20
126.050000002677
 30
 0
 40
1.000000000000
100
AcDbArc
 50
19.450964620195
 51
90.004192482608
0
LINE
  5
00000139
 39
 0.100 
 100
AcDbEntity
8
contour007
 6
CONTINUOUS
 100
AcDbLine
 10
5.612000000000
 20
127.050000000000
 30
 0.0
 11
9.288000000000
 21
127.050000000000
 31
0.0
0
ARC
  5
0000013a
 39
 0.100 
 100
AcDbEntity
8
contour007
 6
CONTINUOUS
100
AcDbCircle
 10
5.611926827375
 20
126.050000002677
 30
 0
 40
1.000000000000
100
AcDbArc
 50
89.995807517392
 51
160.549035379805
0
CIRCLE
  5
0000013b
 39
 0.100 
 100
AcDbEntity
8
contour007
 6
CONTINUOUS
100
AcDbCircle
 10
2.370000000000
 20
14.700000000000
 30
 0
 40
1.350000000000
0
CIRCLE
  5
0000013c
 39
 0.100 
 100
AcDbEntity
8
contour007
 6
CONTINUOUS
100
AcDbCircle
 10
12.530000000000
 20
14.700000000000
 30
 0
 40
1.350000000000
0
CIRCLE
  5
0000013d
 39
 0.100 
 100
AcDbEntity
8
contour007
 6
CONTINUOUS
100
AcDbCircle
 10
58.250000000000
 20
14.700000000000
 30
 0
 40
1.350000000000
0
CIRCLE
  5
0000013e
 39
 0.100 
 100
AcDbEntity
8
contour007
 6
CONTINUOUS
100
AcDbCircle
 10
48.090000000000
 20
14.700000000000
 30
 0
 40
1.350000000000
0
ARC
  5
0000013f
 39
 0.100 
 100
AcDbEntity
8
contour007
 6
CONTINUOUS
100
AcDbCircle
 10
53.170000000000
 20
3.000000000000
 30
 0
 40
2.949618619415
100
AcDbArc
 50
160.533027806854
 51
199.466972193146
0
ARC
  5
00000140
 39
 0.100 
 100
AcDbEntity
8
contour007
 6
CONTINUOUS
100
AcDbCircle
 10
51.331926827375
 20
2.349999997323
 30
 0
 40
1.000000000000
100
AcDbArc
 50
199.450964620195
 51
270.004192482608
0
LINE
  5
00000141
 39
 0.100 
 100
AcDbEntity
8
contour007
 6
CONTINUOUS
 100
AcDbLine
 10
55.008000000000
 20
1.350000000000
 30
 0.0
 11
51.332000000000
 21
1.350000000000
 31
0.0
0
ARC
  5
00000142
 39
 0.100 
 100
AcDbEntity
8
contour007
 6
CONTINUOUS
100
AcDbCircle
 10
55.008073172625
 20
2.349999997323
 30
 0
 40
1.000000000000
100
AcDbArc
 50
269.995807517392
 51
340.549035379805
0
ARC
  5
00000143
 39
 0.100 
 100
AcDbEntity
8
contour007
 6
CONTINUOUS
100
AcDbCircle
 10
53.170000000000
 20
3.000000000000
 30
 0
 40
2.949618619415
100
AcDbArc
 50
340.533027806854
 51
379.466972193146
0
ARC
  5
00000144
 39
 0.100 
 100
AcDbEntity
8
contour007
 6
CONTINUOUS
100
AcDbCircle
 10
55.008073172625
 20
3.650000002677
 30
 0
 40
1.000000000000
100
AcDbArc
 50
19.450964620195
 51
90.004192482608
0
LINE
  5
00000145
 39
 0.100 
 100
AcDbEntity
8
contour007
 6
CONTINUOUS
 100
AcDbLine
 10
51.332000000000
 20
4.650000000000
 30
 0.0
 11
55.008000000000
 21
4.650000000000
 31
0.0
0
ARC
  5
00000146
 39
 0.100 
 100
AcDbEntity
8
contour007
 6
CONTINUOUS
100
AcDbCircle
 10
51.331926827375
 20
3.650000002677
 30
 0
 40
1.000000000000
100
AcDbArc
 50
89.995807517392
 51
160.549035379805
0
ARC
  5
00000147
 39
 0.100 
 100
AcDbEntity
8
contour007
 6
CONTINUOUS
100
AcDbCircle
 10
53.170000000000
 20
125.400000000000
 30
 0
 40
2.949618619415
100
AcDbArc
 50
160.533027806854
 51
199.466972193146
0
ARC
  5
00000148
 39
 0.100 
 100
AcDbEntity
8
contour007
 6
CONTINUOUS
100
AcDbCircle
 10
51.331926827375
 20
124.749999997323
 30
 0
 40
1.000000000000
100
AcDbArc
 50
199.450964620195
 51
270.004192482608
0
LINE
  5
00000149
 39
 0.100 
 100
AcDbEntity
8
contour007
 6
CONTINUOUS
 100
AcDbLine
 10
55.008000000000
 20
123.750000000000
 30
 0.0
 11
51.332000000000
 21
123.750000000000
 31
0.0
0
ARC
  5
0000014a
 39
 0.100 
 100
AcDbEntity
8
contour007
 6
CONTINUOUS
100
AcDbCircle
 10
55.008073172625
 20
124.749999997323
 30
 0
 40
1.000000000000
100
AcDbArc
 50
269.995807517392
 51
340.549035379805
0
ARC
  5
0000014b
 39
 0.100 
 100
AcDbEntity
8
contour007
 6
CONTINUOUS
100
AcDbCircle
 10
53.170000000000
 20
125.400000000000
 30
 0
 40
2.949618619415
100
AcDbArc
 50
340.533027806854
 51
379.466972193146
0
ARC
  5
0000014c
 39
 0.100 
 100
AcDbEntity
8
contour007
 6
CONTINUOUS
100
AcDbCircle
 10
55.008073172625
 20
126.050000002677
 30
 0
 40
1.000000000000
100
AcDbArc
 50
19.450964620195
 51
90.004192482608
0
LINE
  5
0000014d
 39
 0.100 
 100
AcDbEntity
8
contour007
 6
CONTINUOUS
 100
AcDbLine
 10
51.332000000000
 20
127.050000000000
 30
 0.0
 11
55.008000000000
 21
127.050000000000
 31
0.0
0
ARC
  5
0000014e
 39
 0.100 
 100
AcDbEntity
8
contour007
 6
CONTINUOUS
100
AcDbCircle
 10
51.331926827375
 20
126.050000002677
 30
 0
 40
1.000000000000
100
AcDbArc
 50
89.995807517392
 51
160.549035379805
0
LWPOLYLINE
  5
0000014f
 39
 0.100 
 100
AcDbEntity
8
contour007
 6
CONTINUOUS
100
AcDbPolyline
 90
229
 70
8
 10
5.164000000000
 20
27.005000000000
 10
5.217000000000
 20
27.008000000000
 10
5.269000000000
 20
27.012000000000
 10
5.330000000000
 20
27.019000000000
 10
5.505000000000
 20
27.044000000000
 10
5.557000000000
 20
27.053000000000
 10
5.609000000000
 20
27.063000000000
 10
5.648000000000
 20
27.072000000000
 10
5.819000000000
 20
27.115000000000
 10
5.870000000000
 20
27.129000000000
 10
5.921000000000
 20
27.145000000000
 10
5.970000000000
 20
27.162000000000
 10
6.135000000000
 20
27.224000000000
 10
6.185000000000
 20
27.244000000000
 10
6.233000000000
 20
27.265000000000
 10
6.272000000000
 20
27.284000000000
 10
6.429000000000
 20
27.363000000000
 10
6.476000000000
 20
27.388000000000
 10
6.522000000000
 20
27.414000000000
 10
6.567000000000
 20
27.443000000000
 10
6.715000000000
 20
27.540000000000
 10
6.759000000000
 20
27.570000000000
 10
6.802000000000
 20
27.601000000000
 10
6.838000000000
 20
27.630000000000
 10
6.974000000000
 20
27.742000000000
 10
7.014000000000
 20
27.777000000000
 10
7.053000000000
 20
27.813000000000
 10
7.086000000000
 20
27.845000000000
 10
7.209000000000
 20
27.971000000000
 10
7.245000000000
 20
28.010000000000
 10
7.280000000000
 20
28.049000000000
 10
7.313000000000
 20
28.090000000000
 10
7.421000000000
 20
28.229000000000
 10
7.452000000000
 20
28.271000000000
 10
7.482000000000
 20
28.315000000000
 10
7.508000000000
 20
28.356000000000
 10
7.600000000000
 20
28.506000000000
 10
7.627000000000
 20
28.552000000000
 10
7.652000000000
 20
28.598000000000
 10
7.675000000000
 20
28.644000000000
 10
7.750000000000
 20
28.804000000000
 10
7.771000000000
 20
28.852000000000
 10
7.791000000000
 20
28.901000000000
 10
7.805000000000
 20
28.939000000000
 10
7.863000000000
 20
29.106000000000
 10
7.879000000000
 20
29.156000000000
 10
7.893000000000
 20
29.207000000000
 10
7.907000000000
 20
29.263000000000
 10
7.945000000000
 20
29.435000000000
 10
7.955000000000
 20
29.487000000000
 10
7.964000000000
 20
29.539000000000
 10
7.969000000000
 20
29.578000000000
 10
7.989000000000
 20
29.753000000000
 10
7.994000000000
 20
29.806000000000
 10
7.997000000000
 20
29.859000000000
 10
7.998000000000
 20
29.912000000000
 10
7.998000000000
 20
30.088000000000
 10
7.997000000000
 20
30.141000000000
 10
7.994000000000
 20
30.194000000000
 10
7.989000000000
 20
30.247000000000
 10
7.969000000000
 20
30.422000000000
 10
7.962000000000
 20
30.474000000000
 10
7.953000000000
 20
30.527000000000
 10
7.945000000000
 20
30.565000000000
 10
7.907000000000
 20
30.737000000000
 10
7.895000000000
 20
30.788000000000
 10
7.880000000000
 20
30.839000000000
 10
7.863000000000
 20
30.894000000000
 10
7.805000000000
 20
31.061000000000
 10
7.786000000000
 20
31.111000000000
 10
7.766000000000
 20
31.160000000000
 10
7.750000000000
 20
31.196000000000
 10
7.675000000000
 20
31.356000000000
 10
7.651000000000
 20
31.404000000000
 10
7.626000000000
 20
31.450000000000
 10
7.600000000000
 20
31.494000000000
 10
7.508000000000
 20
31.644000000000
 10
7.480000000000
 20
31.689000000000
 10
7.450000000000
 20
31.732000000000
 10
7.421000000000
 20
31.771000000000
 10
7.313000000000
 20
31.910000000000
 10
7.279000000000
 20
31.951000000000
 10
7.244000000000
 20
31.991000000000
 10
7.209000000000
 20
32.029000000000
 10
7.086000000000
 20
32.155000000000
 10
7.048000000000
 20
32.192000000000
 10
7.009000000000
 20
32.228000000000
 10
6.974000000000
 20
32.258000000000
 10
6.838000000000
 20
32.370000000000
 10
6.797000000000
 20
32.403000000000
 10
6.754000000000
 20
32.434000000000
 10
6.715000000000
 20
32.460000000000
 10
6.567000000000
 20
32.557000000000
 10
6.523000000000
 20
32.585000000000
 10
6.477000000000
 20
32.612000000000
 10
6.429000000000
 20
32.637000000000
 10
6.272000000000
 20
32.716000000000
 10
6.225000000000
 20
32.738000000000
 10
6.176000000000
 20
32.760000000000
 10
6.135000000000
 20
32.776000000000
 10
5.970000000000
 20
32.838000000000
 10
5.921000000000
 20
32.855000000000
 10
5.870000000000
 20
32.871000000000
 10
5.819000000000
 20
32.885000000000
 10
5.648000000000
 20
32.928000000000
 10
5.597000000000
 20
32.940000000000
 10
5.545000000000
 20
32.950000000000
 10
5.505000000000
 20
32.956000000000
 10
5.330000000000
 20
32.981000000000
 10
5.277000000000
 20
32.987000000000
 10
5.225000000000
 20
32.992000000000
 10
5.164000000000
 20
32.995000000000
 10
4.988000000000
 20
32.999000000000
 10
4.935000000000
 20
32.999000000000
 10
4.882000000000
 20
32.997000000000
 10
4.845000000000
 20
32.995000000000
 10
4.669000000000
 20
32.981000000000
 10
4.616000000000
 20
32.975000000000
 10
4.564000000000
 20
32.968000000000
 10
4.510000000000
 20
32.959000000000
 10
4.337000000000
 20
32.925000000000
 10
4.285000000000
 20
32.914000000000
 10
4.234000000000
 20
32.900000000000
 10
4.186000000000
 20
32.886000000000
 10
4.018000000000
 20
32.833000000000
 10
3.968000000000
 20
32.816000000000
 10
3.918000000000
 20
32.798000000000
 10
3.881000000000
 20
32.782000000000
 10
3.720000000000
 20
32.712000000000
 10
3.672000000000
 20
32.690000000000
 10
3.624000000000
 20
32.666000000000
 10
3.574000000000
 20
32.638000000000
 10
3.421000000000
 20
32.549000000000
 10
3.376000000000
 20
32.522000000000
 10
3.332000000000
 20
32.493000000000
 10
3.298000000000
 20
32.468000000000
 10
3.156000000000
 20
32.364000000000
 10
3.114000000000
 20
32.332000000000
 10
3.073000000000
 20
32.299000000000
 10
3.038000000000
 20
32.268000000000
 10
2.908000000000
 20
32.149000000000
 10
2.869000000000
 20
32.112000000000
 10
2.832000000000
 20
32.074000000000
 10
2.798000000000
 20
32.036000000000
 10
2.682000000000
 20
31.903000000000
 10
2.648000000000
 20
31.863000000000
 10
2.615000000000
 20
31.821000000000
 10
2.585000000000
 20
31.778000000000
 10
2.485000000000
 20
31.633000000000
 10
2.455000000000
 20
31.589000000000
 10
2.428000000000
 20
31.544000000000
 10
2.406000000000
 20
31.505000000000
 10
2.322000000000
 20
31.350000000000
 10
2.298000000000
 20
31.303000000000
 10
2.275000000000
 20
31.255000000000
 10
2.255000000000
 20
31.208000000000
 10
2.189000000000
 20
31.045000000000
 10
2.170000000000
 20
30.996000000000
 10
2.153000000000
 20
30.946000000000
 10
2.140000000000
 20
30.900000000000
 10
2.092000000000
 20
30.730000000000
 10
2.078000000000
 20
30.679000000000
 10
2.067000000000
 20
30.628000000000
 10
2.058000000000
 20
30.580000000000
 10
2.029000000000
 20
30.406000000000
 10
2.021000000000
 20
30.354000000000
 10
2.016000000000
 20
30.301000000000
 10
2.012000000000
 20
30.255000000000
 10
2.002000000000
 20
30.079000000000
 10
2.000000000000
 20
30.027000000000
 10
2.000000000000
 20
29.974000000000
 10
2.002000000000
 20
29.921000000000
 10
2.012000000000
 20
29.745000000000
 10
2.016000000000
 20
29.692000000000
 10
2.022000000000
 20
29.639000000000
 10
2.029000000000
 20
29.594000000000
 10
2.058000000000
 20
29.420000000000
 10
2.068000000000
 20
29.368000000000
 10
2.079000000000
 20
29.316000000000
 10
2.092000000000
 20
29.270000000000
 10
2.140000000000
 20
29.100000000000
 10
2.155000000000
 20
29.049000000000
 10
2.172000000000
 20
28.999000000000
 10
2.189000000000
 20
28.955000000000
 10
2.255000000000
 20
28.792000000000
 10
2.276000000000
 20
28.743000000000
 10
2.299000000000
 20
28.695000000000
 10
2.322000000000
 20
28.650000000000
 10
2.406000000000
 20
28.495000000000
 10
2.432000000000
 20
28.449000000000
 10
2.460000000000
 20
28.404000000000
 10
2.485000000000
 20
28.367000000000
 10
2.585000000000
 20
28.222000000000
 10
2.615000000000
 20
28.179000000000
 10
2.648000000000
 20
28.137000000000
 10
2.682000000000
 20
28.097000000000
 10
2.798000000000
 20
27.964000000000
 10
2.833000000000
 20
27.925000000000
 10
2.870000000000
 20
27.887000000000
 10
2.908000000000
 20
27.851000000000
 10
3.038000000000
 20
27.732000000000
 10
3.077000000000
 20
27.697000000000
 10
3.118000000000
 20
27.664000000000
 10
3.156000000000
 20
27.636000000000
 10
3.298000000000
 20
27.532000000000
 10
3.341000000000
 20
27.501000000000
 10
3.385000000000
 20
27.472000000000
 10
3.421000000000
 20
27.451000000000
 10
3.574000000000
 20
27.362000000000
 10
3.620000000000
 20
27.336000000000
 10
3.667000000000
 20
27.312000000000
 10
3.720000000000
 20
27.288000000000
 10
3.881000000000
 20
27.218000000000
 10
3.930000000000
 20
27.198000000000
 10
3.979000000000
 20
27.180000000000
 10
4.018000000000
 20
27.167000000000
 10
4.186000000000
 20
27.114000000000
 10
4.237000000000
 20
27.099000000000
 10
4.288000000000
 20
27.086000000000
 10
4.337000000000
 20
27.075000000000
 10
4.510000000000
 20
27.041000000000
 10
4.562000000000
 20
27.032000000000
 10
4.615000000000
 20
27.025000000000
 10
4.669000000000
 20
27.019000000000
 10
4.845000000000
 20
27.005000000000
 10
4.898000000000
 20
27.002000000000
 10
4.951000000000
 20
27.001000000000
 10
4.988000000000
 20
27.001000000000
 10
5.164000000000
 20
27.005000000000
0
CIRCLE
  5
00000150
 39
 0.100 
 100
AcDbEntity
8
contour007
 6
CONTINUOUS
100
AcDbCircle
 10
5.000000000000
 20
30.000000000000
 30
 0
 40
1.600000000000
0
LWPOLYLINE
  5
00000151
 39
 0.100 
 100
AcDbEntity
8
contour007
 6
CONTINUOUS
100
AcDbPolyline
 90
229
 70
8
 10
5.164000000000
 20
95.505000000000
 10
5.217000000000
 20
95.508000000000
 10
5.269000000000
 20
95.512000000000
 10
5.330000000000
 20
95.519000000000
 10
5.505000000000
 20
95.544000000000
 10
5.557000000000
 20
95.553000000000
 10
5.609000000000
 20
95.563000000000
 10
5.648000000000
 20
95.572000000000
 10
5.819000000000
 20
95.615000000000
 10
5.870000000000
 20
95.629000000000
 10
5.921000000000
 20
95.645000000000
 10
5.970000000000
 20
95.662000000000
 10
6.135000000000
 20
95.724000000000
 10
6.185000000000
 20
95.744000000000
 10
6.233000000000
 20
95.765000000000
 10
6.272000000000
 20
95.784000000000
 10
6.429000000000
 20
95.863000000000
 10
6.476000000000
 20
95.888000000000
 10
6.522000000000
 20
95.914000000000
 10
6.567000000000
 20
95.943000000000
 10
6.715000000000
 20
96.040000000000
 10
6.759000000000
 20
96.070000000000
 10
6.802000000000
 20
96.101000000000
 10
6.838000000000
 20
96.130000000000
 10
6.974000000000
 20
96.242000000000
 10
7.014000000000
 20
96.277000000000
 10
7.053000000000
 20
96.313000000000
 10
7.086000000000
 20
96.345000000000
 10
7.209000000000
 20
96.471000000000
 10
7.245000000000
 20
96.510000000000
 10
7.280000000000
 20
96.549000000000
 10
7.313000000000
 20
96.590000000000
 10
7.421000000000
 20
96.729000000000
 10
7.452000000000
 20
96.771000000000
 10
7.482000000000
 20
96.815000000000
 10
7.508000000000
 20
96.856000000000
 10
7.600000000000
 20
97.006000000000
 10
7.627000000000
 20
97.052000000000
 10
7.652000000000
 20
97.098000000000
 10
7.675000000000
 20
97.144000000000
 10
7.750000000000
 20
97.304000000000
 10
7.771000000000
 20
97.352000000000
 10
7.791000000000
 20
97.401000000000
 10
7.805000000000
 20
97.439000000000
 10
7.863000000000
 20
97.606000000000
 10
7.879000000000
 20
97.656000000000
 10
7.893000000000
 20
97.707000000000
 10
7.907000000000
 20
97.763000000000
 10
7.945000000000
 20
97.935000000000
 10
7.955000000000
 20
97.987000000000
 10
7.964000000000
 20
98.039000000000
 10
7.969000000000
 20
98.078000000000
 10
7.989000000000
 20
98.253000000000
 10
7.994000000000
 20
98.306000000000
 10
7.997000000000
 20
98.359000000000
 10
7.998000000000
 20
98.412000000000
 10
7.998000000000
 20
98.588000000000
 10
7.997000000000
 20
98.641000000000
 10
7.994000000000
 20
98.694000000000
 10
7.989000000000
 20
98.747000000000
 10
7.969000000000
 20
98.922000000000
 10
7.962000000000
 20
98.974000000000
 10
7.953000000000
 20
99.027000000000
 10
7.945000000000
 20
99.065000000000
 10
7.907000000000
 20
99.237000000000
 10
7.895000000000
 20
99.288000000000
 10
7.880000000000
 20
99.339000000000
 10
7.863000000000
 20
99.394000000000
 10
7.805000000000
 20
99.561000000000
 10
7.786000000000
 20
99.611000000000
 10
7.766000000000
 20
99.660000000000
 10
7.750000000000
 20
99.696000000000
 10
7.675000000000
 20
99.856000000000
 10
7.651000000000
 20
99.904000000000
 10
7.626000000000
 20
99.950000000000
 10
7.600000000000
 20
99.994000000000
 10
7.508000000000
 20
100.144000000000
 10
7.480000000000
 20
100.189000000000
 10
7.450000000000
 20
100.232000000000
 10
7.421000000000
 20
100.271000000000
 10
7.313000000000
 20
100.410000000000
 10
7.279000000000
 20
100.451000000000
 10
7.244000000000
 20
100.491000000000
 10
7.209000000000
 20
100.529000000000
 10
7.086000000000
 20
100.655000000000
 10
7.048000000000
 20
100.692000000000
 10
7.009000000000
 20
100.728000000000
 10
6.974000000000
 20
100.758000000000
 10
6.838000000000
 20
100.870000000000
 10
6.797000000000
 20
100.903000000000
 10
6.754000000000
 20
100.934000000000
 10
6.715000000000
 20
100.960000000000
 10
6.567000000000
 20
101.057000000000
 10
6.523000000000
 20
101.085000000000
 10
6.477000000000
 20
101.112000000000
 10
6.429000000000
 20
101.137000000000
 10
6.272000000000
 20
101.216000000000
 10
6.225000000000
 20
101.238000000000
 10
6.176000000000
 20
101.260000000000
 10
6.135000000000
 20
101.276000000000
 10
5.970000000000
 20
101.338000000000
 10
5.921000000000
 20
101.355000000000
 10
5.870000000000
 20
101.371000000000
 10
5.819000000000
 20
101.385000000000
 10
5.648000000000
 20
101.428000000000
 10
5.597000000000
 20
101.440000000000
 10
5.545000000000
 20
101.450000000000
 10
5.505000000000
 20
101.456000000000
 10
5.330000000000
 20
101.481000000000
 10
5.277000000000
 20
101.487000000000
 10
5.225000000000
 20
101.492000000000
 10
5.164000000000
 20
101.495000000000
 10
4.988000000000
 20
101.499000000000
 10
4.935000000000
 20
101.499000000000
 10
4.882000000000
 20
101.497000000000
 10
4.845000000000
 20
101.495000000000
 10
4.669000000000
 20
101.481000000000
 10
4.616000000000
 20
101.475000000000
 10
4.564000000000
 20
101.468000000000
 10
4.510000000000
 20
101.459000000000
 10
4.337000000000
 20
101.425000000000
 10
4.285000000000
 20
101.414000000000
 10
4.234000000000
 20
101.400000000000
 10
4.186000000000
 20
101.386000000000
 10
4.018000000000
 20
101.333000000000
 10
3.968000000000
 20
101.316000000000
 10
3.918000000000
 20
101.298000000000
 10
3.881000000000
 20
101.282000000000
 10
3.720000000000
 20
101.212000000000
 10
3.672000000000
 20
101.190000000000
 10
3.624000000000
 20
101.166000000000
 10
3.574000000000
 20
101.138000000000
 10
3.421000000000
 20
101.049000000000
 10
3.376000000000
 20
101.022000000000
 10
3.332000000000
 20
100.993000000000
 10
3.298000000000
 20
100.968000000000
 10
3.156000000000
 20
100.864000000000
 10
3.114000000000
 20
100.832000000000
 10
3.073000000000
 20
100.799000000000
 10
3.038000000000
 20
100.768000000000
 10
2.908000000000
 20
100.649000000000
 10
2.869000000000
 20
100.612000000000
 10
2.832000000000
 20
100.574000000000
 10
2.798000000000
 20
100.536000000000
 10
2.682000000000
 20
100.403000000000
 10
2.648000000000
 20
100.363000000000
 10
2.615000000000
 20
100.321000000000
 10
2.585000000000
 20
100.278000000000
 10
2.485000000000
 20
100.133000000000
 10
2.455000000000
 20
100.089000000000
 10
2.428000000000
 20
100.044000000000
 10
2.406000000000
 20
100.005000000000
 10
2.322000000000
 20
99.850000000000
 10
2.298000000000
 20
99.803000000000
 10
2.275000000000
 20
99.755000000000
 10
2.255000000000
 20
99.708000000000
 10
2.189000000000
 20
99.545000000000
 10
2.170000000000
 20
99.496000000000
 10
2.153000000000
 20
99.446000000000
 10
2.140000000000
 20
99.400000000000
 10
2.092000000000
 20
99.230000000000
 10
2.078000000000
 20
99.179000000000
 10
2.067000000000
 20
99.128000000000
 10
2.058000000000
 20
99.080000000000
 10
2.029000000000
 20
98.906000000000
 10
2.021000000000
 20
98.854000000000
 10
2.016000000000
 20
98.801000000000
 10
2.012000000000
 20
98.755000000000
 10
2.002000000000
 20
98.579000000000
 10
2.000000000000
 20
98.527000000000
 10
2.000000000000
 20
98.474000000000
 10
2.002000000000
 20
98.421000000000
 10
2.012000000000
 20
98.245000000000
 10
2.016000000000
 20
98.192000000000
 10
2.022000000000
 20
98.139000000000
 10
2.029000000000
 20
98.094000000000
 10
2.058000000000
 20
97.920000000000
 10
2.068000000000
 20
97.868000000000
 10
2.079000000000
 20
97.816000000000
 10
2.092000000000
 20
97.770000000000
 10
2.140000000000
 20
97.600000000000
 10
2.155000000000
 20
97.549000000000
 10
2.172000000000
 20
97.499000000000
 10
2.189000000000
 20
97.455000000000
 10
2.255000000000
 20
97.292000000000
 10
2.276000000000
 20
97.243000000000
 10
2.299000000000
 20
97.195000000000
 10
2.322000000000
 20
97.150000000000
 10
2.406000000000
 20
96.995000000000
 10
2.432000000000
 20
96.949000000000
 10
2.460000000000
 20
96.904000000000
 10
2.485000000000
 20
96.867000000000
 10
2.585000000000
 20
96.722000000000
 10
2.615000000000
 20
96.679000000000
 10
2.648000000000
 20
96.637000000000
 10
2.682000000000
 20
96.597000000000
 10
2.798000000000
 20
96.464000000000
 10
2.833000000000
 20
96.425000000000
 10
2.870000000000
 20
96.387000000000
 10
2.908000000000
 20
96.351000000000
 10
3.038000000000
 20
96.232000000000
 10
3.077000000000
 20
96.197000000000
 10
3.118000000000
 20
96.164000000000
 10
3.156000000000
 20
96.136000000000
 10
3.298000000000
 20
96.032000000000
 10
3.341000000000
 20
96.001000000000
 10
3.385000000000
 20
95.972000000000
 10
3.421000000000
 20
95.951000000000
 10
3.574000000000
 20
95.862000000000
 10
3.620000000000
 20
95.836000000000
 10
3.667000000000
 20
95.812000000000
 10
3.720000000000
 20
95.788000000000
 10
3.881000000000
 20
95.718000000000
 10
3.930000000000
 20
95.698000000000
 10
3.979000000000
 20
95.680000000000
 10
4.018000000000
 20
95.667000000000
 10
4.186000000000
 20
95.614000000000
 10
4.237000000000
 20
95.599000000000
 10
4.288000000000
 20
95.586000000000
 10
4.337000000000
 20
95.575000000000
 10
4.510000000000
 20
95.541000000000
 10
4.562000000000
 20
95.532000000000
 10
4.615000000000
 20
95.525000000000
 10
4.669000000000
 20
95.519000000000
 10
4.845000000000
 20
95.505000000000
 10
4.898000000000
 20
95.502000000000
 10
4.951000000000
 20
95.501000000000
 10
4.988000000000
 20
95.501000000000
 10
5.164000000000
 20
95.505000000000
0
CIRCLE
  5
00000152
 39
 0.100 
 100
AcDbEntity
8
contour007
 6
CONTINUOUS
100
AcDbCircle
 10
5.000000000000
 20
98.500000000000
 30
 0
 40
1.600000000000
0
CIRCLE
  5
00000153
 39
 0.100 
 100
AcDbEntity
8
contour007
 6
CONTINUOUS
100
AcDbCircle
 10
37.000000000000
 20
108.500000000000
 30
 0
 40
3.100000000000
0
CIRCLE
  5
00000154
 39
 0.100 
 100
AcDbEntity
8
contour007
 6
CONTINUOUS
100
AcDbCircle
 10
12.500000000000
 20
108.500000000000
 30
 0
 40
3.100000000000
0
CIRCLE
  5
00000155
 39
 0.100 
 100
AcDbEntity
8
contour007
 6
CONTINUOUS
100
AcDbCircle
 10
37.000000000000
 20
78.000000000000
 30
 0
 40
3.100000000000
0
CIRCLE
  5
00000156
 39
 0.100 
 100
AcDbEntity
8
contour007
 6
CONTINUOUS
100
AcDbCircle
 10
37.000000000000
 20
93.000000000000
 30
 0
 40
3.100000000000
0
CIRCLE
  5
00000157
 39
 0.100 
 100
AcDbEntity
8
contour007
 6
CONTINUOUS
100
AcDbCircle
 10
12.500000000000
 20
93.000000000000
 30
 0
 40
3.100000000000
0
CIRCLE
  5
00000158
 39
 0.100 
 100
AcDbEntity
8
contour007
 6
CONTINUOUS
100
AcDbCircle
 10
12.500000000000
 20
78.000000000000
 30
 0
 40
3.100000000000
0
CIRCLE
  5
00000159
 39
 0.100 
 100
AcDbEntity
8
contour007
 6
CONTINUOUS
100
AcDbCircle
 10
37.000000000000
 20
63.000000000000
 30
 0
 40
3.100000000000
0
CIRCLE
  5
0000015a
 39
 0.100 
 100
AcDbEntity
8
contour007
 6
CONTINUOUS
100
AcDbCircle
 10
12.500000000000
 20
63.000000000000
 30
 0
 40
3.100000000000
0
ARC
  5
0000015b
 39
 0.100 
 100
AcDbEntity
8
contour007
 6
CONTINUOUS
100
AcDbCircle
 10
9.500000000000
 20
39.000000000000
 30
 0
 40
0.500000000000
100
AcDbArc
 50
180.000000000000
 51
270.000000000000
0
LINE
  5
0000015c
 39
 0.100 
 100
AcDbEntity
8
contour007
 6
CONTINUOUS
 100
AcDbLine
 10
22.500000000000
 20
38.500000000000
 30
 0.0
 11
9.500000000000
 21
38.500000000000
 31
0.0
0
ARC
  5
0000015d
 39
 0.100 
 100
AcDbEntity
8
contour007
 6
CONTINUOUS
100
AcDbCircle
 10
22.500000000000
 20
39.000000000000
 30
 0
 40
0.500000000000
100
AcDbArc
 50
270.000000000000
 51
360.000000000000
0
LINE
  5
0000015e
 39
 0.100 
 100
AcDbEntity
8
contour007
 6
CONTINUOUS
 100
AcDbLine
 10
23.000000000000
 20
51.000000000000
 30
 0.0
 11
23.000000000000
 21
39.000000000000
 31
0.0
0
ARC
  5
0000015f
 39
 0.100 
 100
AcDbEntity
8
contour007
 6
CONTINUOUS
100
AcDbCircle
 10
22.500000000000
 20
51.000000000000
 30
 0
 40
0.500000000000
100
AcDbArc
 50
0.000000000000
 51
90.000000000000
0
LINE
  5
00000160
 39
 0.100 
 100
AcDbEntity
8
contour007
 6
CONTINUOUS
 100
AcDbLine
 10
9.500000000000
 20
51.500000000000
 30
 0.0
 11
22.500000000000
 21
51.500000000000
 31
0.0
0
ARC
  5
00000161
 39
 0.100 
 100
AcDbEntity
8
contour007
 6
CONTINUOUS
100
AcDbCircle
 10
9.500000000000
 20
51.000000000000
 30
 0
 40
0.500000000000
100
AcDbArc
 50
90.000000000000
 51
180.000000000000
0
LINE
  5
00000162
 39
 0.100 
 100
AcDbEntity
8
contour007
 6
CONTINUOUS
 100
AcDbLine
 10
9.000000000000
 20
39.000000000000
 30
 0.0
 11
9.000000000000
 21
51.000000000000
 31
0.0
0
ARC
  5
00000163
 39
 0.100 
 100
AcDbEntity
8
contour007
 6
CONTINUOUS
100
AcDbCircle
 10
35.107216682558
 20
48.210000009390
 30
 0
 40
2.500000000000
100
AcDbArc
 50
90.004965998438
 51
189.973926439761
0
LINE
  5
00000164
 39
 0.100 
 100
AcDbEntity
8
contour007
 6
CONTINUOUS
 100
AcDbLine
 10
33.791000000000
 20
41.276000000000
 30
 0.0
 11
32.645000000000
 21
47.777000000000
 31
0.0
0
ARC
  5
00000165
 39
 0.100 
 100
AcDbEntity
8
contour007
 6
CONTINUOUS
100
AcDbCircle
 10
36.253040655229
 20
41.709999783407
 30
 0
 40
2.500000000000
100
AcDbArc
 50
189.997192011370
 51
269.976149938282
0
LINE
  5
00000166
 39
 0.100 
 100
AcDbEntity
8
contour007
 6
CONTINUOUS
 100
AcDbLine
 10
48.964000000000
 20
39.210000000000
 30
 0.0
 11
36.252000000000
 21
39.210000000000
 31
0.0
0
ARC
  5
00000167
 39
 0.100 
 100
AcDbEntity
8
contour007
 6
CONTINUOUS
100
AcDbCircle
 10
48.962959344771
 20
41.709999783407
 30
 0
 40
2.500000000000
100
AcDbArc
 50
270.023850061718
 51
350.002807988630
0
LINE
  5
00000168
 39
 0.100 
 100
AcDbEntity
8
contour007
 6
CONTINUOUS
 100
AcDbLine
 10
52.571000000000
 20
47.777000000000
 30
 0.0
 11
51.425000000000
 21
41.276000000000
 31
0.0
0
ARC
  5
00000169
 39
 0.100 
 100
AcDbEntity
8
contour007
 6
CONTINUOUS
100
AcDbCircle
 10
50.108783317442
 20
48.210000009390
 30
 0
 40
2.500000000000
100
AcDbArc
 50
350.026073560239
 51
449.995034001562
0
LINE
  5
0000016a
 39
 0.100 
 100
AcDbEntity
8
contour007
 6
CONTINUOUS
 100
AcDbLine
 10
35.107000000000
 20
50.710000000000
 30
 0.0
 11
50.109000000000
 21
50.710000000000
 31
0.0
0
CIRCLE
  5
0000016b
 39
 0.100 
 100
AcDbEntity
8
contour007
 6
CONTINUOUS
100
AcDbCircle
 10
55.108000000000
 20
44.960000000000
 30
 0
 40
1.600000000000
0
CIRCLE
  5
0000016c
 39
 0.100 
 100
AcDbEntity
8
contour007
 6
CONTINUOUS
100
AcDbCircle
 10
30.108000000000
 20
44.960000000000
 30
 0
 40
1.600000000000
0
LINE
  5
0000016d
 39
 0.100 
 100
AcDbEntity
8
reference_cross001
 6
CONTINUOUS
 100
AcDbLine
 10
8.200000000000
 20
3.000000000000
 30
 0.0
 11
6.700000000000
 21
3.000000000000
 31
0.0
0
LINE
  5
0000016e
 39
 0.100 
 100
AcDbEntity
8
reference_cross001
 6
CONTINUOUS
 100
AcDbLine
 10
7.450000000000
 20
2.250000000000
 30
 0.0
 11
7.450000000000
 21
3.750000000000
 31
0.0
0
LINE
  5
0000016f
 39
 0.100 
 100
AcDbEntity
8
reference_cross001
 6
CONTINUOUS
 100
AcDbLine
 10
8.200000000000
 20
125.400000000000
 30
 0.0
 11
6.700000000000
 21
125.400000000000
 31
0.0
0
LINE
  5
00000170
 39
 0.100 
 100
AcDbEntity
8
reference_cross001
 6
CONTINUOUS
 100
AcDbLine
 10
7.450000000000
 20
124.650000000000
 30
 0.0
 11
7.450000000000
 21
126.150000000000
 31
0.0
0
LINE
  5
00000171
 39
 0.100 
 100
AcDbEntity
8
reference_cross001
 6
CONTINUOUS
 100
AcDbLine
 10
3.120000000000
 20
14.700000000000
 30
 0.0
 11
1.620000000000
 21
14.700000000000
 31
0.0
0
LINE
  5
00000172
 39
 0.100 
 100
AcDbEntity
8
reference_cross001
 6
CONTINUOUS
 100
AcDbLine
 10
2.370000000000
 20
13.950000000000
 30
 0.0
 11
2.370000000000
 21
15.450000000000
 31
0.0
0
LINE
  5
00000173
 39
 0.100 
 100
AcDbEntity
8
reference_cross001
 6
CONTINUOUS
 100
AcDbLine
 10
8.200000000000
 20
14.700000000000
 30
 0.0
 11
6.700000000000
 21
14.700000000000
 31
0.0
0
LINE
  5
00000174
 39
 0.100 
 100
AcDbEntity
8
reference_cross001
 6
CONTINUOUS
 100
AcDbLine
 10
7.450000000000
 20
13.950000000000
 30
 0.0
 11
7.450000000000
 21
15.450000000000
 31
0.0
0
LINE
  5
00000175
 39
 0.100 
 100
AcDbEntity
8
reference_cross001
 6
CONTINUOUS
 100
AcDbLine
 10
13.280000000000
 20
14.700000000000
 30
 0.0
 11
11.780000000000
 21
14.700000000000
 31
0.0
0
LINE
  5
00000176
 39
 0.100 
 100
AcDbEntity
8
reference_cross001
 6
CONTINUOUS
 100
AcDbLine
 10
12.530000000000
 20
13.950000000000
 30
 0.0
 11
12.530000000000
 21
15.450000000000
 31
0.0
0
LINE
  5
00000177
 39
 0.100 
 100
AcDbEntity
8
reference_cross001
 6
CONTINUOUS
 100
AcDbLine
 10
59.000000000000
 20
14.700000000000
 30
 0.0
 11
57.500000000000
 21
14.700000000000
 31
0.0
0
LINE
  5
00000178
 39
 0.100 
 100
AcDbEntity
8
reference_cross001
 6
CONTINUOUS
 100
AcDbLine
 10
58.250000000000
 20
13.950000000000
 30
 0.0
 11
58.250000000000
 21
15.450000000000
 31
0.0
0
LINE
  5
00000179
 39
 0.100 
 100
AcDbEntity
8
reference_cross001
 6
CONTINUOUS
 100
AcDbLine
 10
53.920000000000
 20
14.700000000000
 30
 0.0
 11
52.420000000000
 21
14.700000000000
 31
0.0
0
LINE
  5
0000017a
 39
 0.100 
 100
AcDbEntity
8
reference_cross001
 6
CONTINUOUS
 100
AcDbLine
 10
53.170000000000
 20
13.950000000000
 30
 0.0
 11
53.170000000000
 21
15.450000000000
 31
0.0
0
LINE
  5
0000017b
 39
 0.100 
 100
AcDbEntity
8
reference_cross001
 6
CONTINUOUS
 100
AcDbLine
 10
48.840000000000
 20
14.700000000000
 30
 0.0
 11
47.340000000000
 21
14.700000000000
 31
0.0
0
LINE
  5
0000017c
 39
 0.100 
 100
AcDbEntity
8
reference_cross001
 6
CONTINUOUS
 100
AcDbLine
 10
48.090000000000
 20
13.950000000000
 30
 0.0
 11
48.090000000000
 21
15.450000000000
 31
0.0
0
LINE
  5
0000017d
 39
 0.100 
 100
AcDbEntity
8
reference_cross001
 6
CONTINUOUS
 100
AcDbLine
 10
53.920000000000
 20
3.000000000000
 30
 0.0
 11
52.420000000000
 21
3.000000000000
 31
0.0
0
LINE
  5
0000017e
 39
 0.100 
 100
AcDbEntity
8
reference_cross001
 6
CONTINUOUS
 100
AcDbLine
 10
53.170000000000
 20
2.250000000000
 30
 0.0
 11
53.170000000000
 21
3.750000000000
 31
0.0
0
LINE
  5
0000017f
 39
 0.100 
 100
AcDbEntity
8
reference_cross001
 6
CONTINUOUS
 100
AcDbLine
 10
53.920000000000
 20
125.400000000000
 30
 0.0
 11
52.420000000000
 21
125.400000000000
 31
0.0
0
LINE
  5
00000180
 39
 0.100 
 100
AcDbEntity
8
reference_cross001
 6
CONTINUOUS
 100
AcDbLine
 10
53.170000000000
 20
124.650000000000
 30
 0.0
 11
53.170000000000
 21
126.150000000000
 31
0.0
0
LINE
  5
00000181
 39
 0.100 
 100
AcDbEntity
8
reference_cross001
 6
CONTINUOUS
 100
AcDbLine
 10
5.750000000000
 20
30.000000000000
 30
 0.0
 11
4.250000000000
 21
30.000000000000
 31
0.0
0
LINE
  5
00000182
 39
 0.100 
 100
AcDbEntity
8
reference_cross001
 6
CONTINUOUS
 100
AcDbLine
 10
5.000000000000
 20
29.250000000000
 30
 0.0
 11
5.000000000000
 21
30.750000000000
 31
0.0
0
LINE
  5
00000183
 39
 0.100 
 100
AcDbEntity
8
reference_cross001
 6
CONTINUOUS
 100
AcDbLine
 10
5.750000000000
 20
98.500000000000
 30
 0.0
 11
4.250000000000
 21
98.500000000000
 31
0.0
0
LINE
  5
00000184
 39
 0.100 
 100
AcDbEntity
8
reference_cross001
 6
CONTINUOUS
 100
AcDbLine
 10
5.000000000000
 20
97.750000000000
 30
 0.0
 11
5.000000000000
 21
99.250000000000
 31
0.0
0
LINE
  5
00000185
 39
 0.100 
 100
AcDbEntity
8
reference_cross001
 6
CONTINUOUS
 100
AcDbLine
 10
37.750000000000
 20
108.500000000000
 30
 0.0
 11
36.250000000000
 21
108.500000000000
 31
0.0
0
LINE
  5
00000186
 39
 0.100 
 100
AcDbEntity
8
reference_cross001
 6
CONTINUOUS
 100
AcDbLine
 10
37.000000000000
 20
107.750000000000
 30
 0.0
 11
37.000000000000
 21
109.250000000000
 31
0.0
0
LINE
  5
00000187
 39
 0.100 
 100
AcDbEntity
8
reference_cross001
 6
CONTINUOUS
 100
AcDbLine
 10
13.250000000000
 20
108.500000000000
 30
 0.0
 11
11.750000000000
 21
108.500000000000
 31
0.0
0
LINE
  5
00000188
 39
 0.100 
 100
AcDbEntity
8
reference_cross001
 6
CONTINUOUS
 100
AcDbLine
 10
12.500000000000
 20
107.750000000000
 30
 0.0
 11
12.500000000000
 21
109.250000000000
 31
0.0
0
LINE
  5
00000189
 39
 0.100 
 100
AcDbEntity
8
reference_cross001
 6
CONTINUOUS
 100
AcDbLine
 10
37.750000000000
 20
78.000000000000
 30
 0.0
 11
36.250000000000
 21
78.000000000000
 31
0.0
0
LINE
  5
0000018a
 39
 0.100 
 100
AcDbEntity
8
reference_cross001
 6
CONTINUOUS
 100
AcDbLine
 10
37.000000000000
 20
77.250000000000
 30
 0.0
 11
37.000000000000
 21
78.750000000000
 31
0.0
0
LINE
  5
0000018b
 39
 0.100 
 100
AcDbEntity
8
reference_cross001
 6
CONTINUOUS
 100
AcDbLine
 10
37.750000000000
 20
93.000000000000
 30
 0.0
 11
36.250000000000
 21
93.000000000000
 31
0.0
0
LINE
  5
0000018c
 39
 0.100 
 100
AcDbEntity
8
reference_cross001
 6
CONTINUOUS
 100
AcDbLine
 10
37.000000000000
 20
92.250000000000
 30
 0.0
 11
37.000000000000
 21
93.750000000000
 31
0.0
0
LINE
  5
0000018d
 39
 0.100 
 100
AcDbEntity
8
reference_cross001
 6
CONTINUOUS
 100
AcDbLine
 10
13.250000000000
 20
93.000000000000
 30
 0.0
 11
11.750000000000
 21
93.000000000000
 31
0.0
0
LINE
  5
0000018e
 39
 0.100 
 100
AcDbEntity
8
reference_cross001
 6
CONTINUOUS
 100
AcDbLine
 10
12.500000000000
 20
92.250000000000
 30
 0.0
 11
12.500000000000
 21
93.750000000000
 31
0.0
0
LINE
  5
0000018f
 39
 0.100 
 100
AcDbEntity
8
reference_cross001
 6
CONTINUOUS
 100
AcDbLine
 10
13.250000000000
 20
78.000000000000
 30
 0.0
 11
11.750000000000
 21
78.000000000000
 31
0.0
0
LINE
  5
00000190
 39
 0.100 
 100
AcDbEntity
8
reference_cross001
 6
CONTINUOUS
 100
AcDbLine
 10
12.500000000000
 20
77.250000000000
 30
 0.0
 11
12.500000000000
 21
78.750000000000
 31
0.0
0
LINE
  5
00000191
 39
 0.100 
 100
AcDbEntity
8
reference_cross001
 6
CONTINUOUS
 100
AcDbLine
 10
37.750000000000
 20
63.000000000000
 30
 0.0
 11
36.250000000000
 21
63.000000000000
 31
0.0
0
LINE
  5
00000192
 39
 0.100 
 100
AcDbEntity
8
reference_cross001
 6
CONTINUOUS
 100
AcDbLine
 10
37.000000000000
 20
62.250000000000
 30
 0.0
 11
37.000000000000
 21
63.750000000000
 31
0.0
0
LINE
  5
00000193
 39
 0.100 
 100
AcDbEntity
8
reference_cross001
 6
CONTINUOUS
 100
AcDbLine
 10
13.250000000000
 20
63.000000000000
 30
 0.0
 11
11.750000000000
 21
63.000000000000
 31
0.0
0
LINE
  5
00000194
 39
 0.100 
 100
AcDbEntity
8
reference_cross001
 6
CONTINUOUS
 100
AcDbLine
 10
12.500000000000
 20
62.250000000000
 30
 0.0
 11
12.500000000000
 21
63.750000000000
 31
0.0
0
LINE
  5
00000195
 39
 0.100 
 100
AcDbEntity
8
reference_cross001
 6
CONTINUOUS
 100
AcDbLine
 10
16.750000000000
 20
45.000000000000
 30
 0.0
 11
15.250000000000
 21
45.000000000000
 31
0.0
0
LINE
  5
00000196
 39
 0.100 
 100
AcDbEntity
8
reference_cross001
 6
CONTINUOUS
 100
AcDbLine
 10
16.000000000000
 20
44.250000000000
 30
 0.0
 11
16.000000000000
 21
45.750000000000
 31
0.0
0
LINE
  5
00000197
 39
 0.100 
 100
AcDbEntity
8
reference_cross001
 6
CONTINUOUS
 100
AcDbLine
 10
18.250000000000
 20
108.500000000000
 30
 0.0
 11
16.750000000000
 21
108.500000000000
 31
0.0
0
LINE
  5
00000198
 39
 0.100 
 100
AcDbEntity
8
reference_cross001
 6
CONTINUOUS
 100
AcDbLine
 10
17.500000000000
 20
107.750000000000
 30
 0.0
 11
17.500000000000
 21
109.250000000000
 31
0.0
0
LINE
  5
00000199
 39
 0.100 
 100
AcDbEntity
8
reference_cross001
 6
CONTINUOUS
 100
AcDbLine
 10
42.250000000000
 20
108.500000000000
 30
 0.0
 11
40.750000000000
 21
108.500000000000
 31
0.0
0
LINE
  5
0000019a
 39
 0.100 
 100
AcDbEntity
8
reference_cross001
 6
CONTINUOUS
 100
AcDbLine
 10
41.500000000000
 20
107.750000000000
 30
 0.0
 11
41.500000000000
 21
109.250000000000
 31
0.0
0
LINE
  5
0000019b
 39
 0.100 
 100
AcDbEntity
8
reference_cross001
 6
CONTINUOUS
 100
AcDbLine
 10
18.250000000000
 20
93.000000000000
 30
 0.0
 11
16.750000000000
 21
93.000000000000
 31
0.0
0
LINE
  5
0000019c
 39
 0.100 
 100
AcDbEntity
8
reference_cross001
 6
CONTINUOUS
 100
AcDbLine
 10
17.500000000000
 20
92.250000000000
 30
 0.0
 11
17.500000000000
 21
93.750000000000
 31
0.0
0
LINE
  5
0000019d
 39
 0.100 
 100
AcDbEntity
8
reference_cross001
 6
CONTINUOUS
 100
AcDbLine
 10
42.750000000000
 20
93.000000000000
 30
 0.0
 11
41.250000000000
 21
93.000000000000
 31
0.0
0
LINE
  5
0000019e
 39
 0.100 
 100
AcDbEntity
8
reference_cross001
 6
CONTINUOUS
 100
AcDbLine
 10
42.000000000000
 20
92.250000000000
 30
 0.0
 11
42.000000000000
 21
93.750000000000
 31
0.0
0
LINE
  5
0000019f
 39
 0.100 
 100
AcDbEntity
8
reference_cross001
 6
CONTINUOUS
 100
AcDbLine
 10
18.250000000000
 20
78.000000000000
 30
 0.0
 11
16.750000000000
 21
78.000000000000
 31
0.0
0
LINE
  5
000001a0
 39
 0.100 
 100
AcDbEntity
8
reference_cross001
 6
CONTINUOUS
 100
AcDbLine
 10
17.500000000000
 20
77.250000000000
 30
 0.0
 11
17.500000000000
 21
78.750000000000
 31
0.0
0
LINE
  5
000001a1
 39
 0.100 
 100
AcDbEntity
8
reference_cross001
 6
CONTINUOUS
 100
AcDbLine
 10
42.750000000000
 20
78.000000000000
 30
 0.0
 11
41.250000000000
 21
78.000000000000
 31
0.0
0
LINE
  5
000001a2
 39
 0.100 
 100
AcDbEntity
8
reference_cross001
 6
CONTINUOUS
 100
AcDbLine
 10
42.000000000000
 20
77.250000000000
 30
 0.0
 11
42.000000000000
 21
78.750000000000
 31
0.0
0
LINE
  5
000001a3
 39
 0.100 
 100
AcDbEntity
8
reference_cross001
 6
CONTINUOUS
 100
AcDbLine
 10
18.250000000000
 20
63.000000000000
 30
 0.0
 11
16.750000000000
 21
63.000000000000
 31
0.0
0
LINE
  5
000001a4
 39
 0.100 
 100
AcDbEntity
8
reference_cross001
 6
CONTINUOUS
 100
AcDbLine
 10
17.500000000000
 20
62.250000000000
 30
 0.0
 11
17.500000000000
 21
63.750000000000
 31
0.0
0
LINE
  5
000001a5
 39
 0.100 
 100
AcDbEntity
8
reference_cross001
 6
CONTINUOUS
 100
AcDbLine
 10
42.750000000000
 20
63.000000000000
 30
 0.0
 11
41.250000000000
 21
63.000000000000
 31
0.0
0
LINE
  5
000001a6
 39
 0.100 
 100
AcDbEntity
8
reference_cross001
 6
CONTINUOUS
 100
AcDbLine
 10
42.000000000000
 20
62.250000000000
 30
 0.0
 11
42.000000000000
 21
63.750000000000
 31
0.0
0
LINE
  5
000001a7
 39
 0.100 
 100
AcDbEntity
8
reference_cross001
 6
CONTINUOUS
 100
AcDbLine
 10
43.358000000000
 20
44.960000000000
 30
 0.0
 11
41.858000000000
 21
44.960000000000
 31
0.0
0
LINE
  5
000001a8
 39
 0.100 
 100
AcDbEntity
8
reference_cross001
 6
CONTINUOUS
 100
AcDbLine
 10
42.608000000000
 20
44.210000000000
 30
 0.0
 11
42.608000000000
 21
45.710000000000
 31
0.0
0
LINE
  5
000001a9
 39
 0.100 
 100
AcDbEntity
8
reference_cross001
 6
CONTINUOUS
 100
AcDbLine
 10
55.858000000000
 20
44.960000000000
 30
 0.0
 11
54.358000000000
 21
44.960000000000
 31
0.0
0
LINE
  5
000001aa
 39
 0.100 
 100
AcDbEntity
8
reference_cross001
 6
CONTINUOUS
 100
AcDbLine
 10
55.108000000000
 20
44.210000000000
 30
 0.0
 11
55.108000000000
 21
45.710000000000
 31
0.0
0
LINE
  5
000001ab
 39
 0.100 
 100
AcDbEntity
8
reference_cross001
 6
CONTINUOUS
 100
AcDbLine
 10
30.858000000000
 20
44.960000000000
 30
 0.0
 11
29.358000000000
 21
44.960000000000
 31
0.0
0
LINE
  5
000001ac
 39
 0.100 
 100
AcDbEntity
8
reference_cross001
 6
CONTINUOUS
 100
AcDbLine
 10
30.108000000000
 20
44.210000000000
 30
 0.0
 11
30.108000000000
 21
45.710000000000
 31
0.0
0
ENDSEC
0
SECTION
2
OBJECTS
0
DICTIONARY
5
C
330
0
100
AcDbDictionary
281
1
3
ACAD_GROUP
350
D
0
DICTIONARY
5
D
330
C
100
AcDbDictionary
281
1
0
ENDSEC
0
EOF
