0
SECTION
2
HEADER
9
$INSUNITS
70
4
9
$ACADVER
1
AC1014
9
$HANDSEED
5
FFFF
0
ENDSEC
0
SECTION
2
TABLES
0
TABLE
2
VPORT
5
8
100
AcDbSymbolTable
0
ENDTAB
0
TABLE
2
LTYPE
5
5
100
AcDbSymbolTable
0
LTYPE
5
14
100
AcDbSymbolTableRecord
100
AcDbLinetypeTableRecord
2
BYBLOCK
70
0
0
LTYPE
5
15
100
AcDbSymbolTableRecord
100
AcDbLinetypeTableRecord
2
BYLAYER
70
0
0
LTYPE
5
16
100
AcDbSymbolTableRecord
100
AcDbLinetypeTableRecord
2
DASHED
70
0
3
Dashed __ __ __ __ __ __ __ __ __ __ __ __ __ _
72
65
73
2
40
0.75
49
0.5
74
0
49
-0.25
74
0
0
ENDTAB
0
TABLE
2
LAYER
5
2
100
AcDbSymbolTable
70
2
0
LAYER
5
50
100
AcDbSymbolTableRecord
100
AcDbLayerTableRecord
2
0
70
0
62
7
6
CONTINUOUS
0
ENDTAB
0
TABLE
2
STYLE
5
3
100
AcDbSymbolTable
70
1
0
STYLE
5
11
100
AcDbSymbolTableRecord
100
AcDbTextStyleTableRecord
2
STANDARD
70
0
0
ENDTAB
0
TABLE
2
VIEW
5
6
100
AcDbSymbolTable
70
0
0
ENDTAB
0
TABLE
2
UCS
5
7
100
AcDbSymbolTable
70
0
0
ENDTAB
0
TABLE
2
APPID
5
9
100
AcDbSymbolTable
70
2
0
APPID
5
12
100
AcDbSymbolTableRecord
100
AcDbRegAppTableRecord
2
ACAD
70
0
0
ENDTAB
0
TABLE
2
DIMSTYLE
5
A
100
AcDbSymbolTable
70
1
0
ENDTAB
0
TABLE
2
BLOCK_RECORD
5
1
100
AcDbSymbolTable
70
1
0
BLOCK_RECORD
5
1F
100
AcDbSymbolTableRecord
100
AcDbBlockTableRecord
2
*MODEL_SPACE
0
BLOCK_RECORD
5
1B
100
AcDbSymbolTableRecord
100
AcDbBlockTableRecord
2
*PAPER_SPACE
0
ENDTAB
0
ENDSEC
0
SECTION
2
BLOCKS
0
BLOCK
5
20
100
AcDbEntity
100
AcDbBlockBegin
2
*MODEL_SPACE
0
ENDBLK
5
21
100
AcDbEntity
100
AcDbBlockEnd
0
BLOCK
5
1C
100
AcDbEntity
100
AcDbBlockBegin
2
*PAPER_SPACE
0
ENDBLK
5
1D
100
AcDbEntity
100
AcDbBlockEnd
0
ENDSEC
0
SECTION
2
ENTITIES
0
POINT
5
100
100
AcDbEntity
8
0
100
AcDbPoint
10
-5
20
-18.750000000000004
30
0
0
POINT
5
101
100
AcDbEntity
8
0
100
AcDbPoint
10
-18.5
20
-18.750000000000004
30
0
0
POINT
5
102
100
AcDbEntity
8
0
100
AcDbPoint
10
-18.5
20
-5.2500000000000036
30
0
0
POINT
5
103
100
AcDbEntity
8
0
100
AcDbPoint
10
-5
20
-5.2500000000000036
30
0
0
POINT
5
104
100
AcDbEntity
8
0
100
AcDbPoint
10
-11.75
20
-12.000000000000004
30
0
0
POINT
5
105
100
AcDbEntity
8
0
100
AcDbPoint
10
0
20
0
30
0
0
POINT
5
106
100
AcDbEntity
8
0
100
AcDbPoint
10
-5
20
-20.020000000000007
30
0
0
POINT
5
107
100
AcDbEntity
8
0
100
AcDbPoint
10
-5
20
-17.480000000000004
30
0
0
POINT
5
108
100
AcDbEntity
8
0
100
AcDbPoint
10
-18.5
20
-20.020000000000003
30
0
0
POINT
5
109
100
AcDbEntity
8
0
100
AcDbPoint
10
-18.5
20
-17.480000000000008
30
0
0
POINT
5
110
100
AcDbEntity
8
0
100
AcDbPoint
10
-11.75
20
-13.270000000000003
30
0
0
POINT
5
111
100
AcDbEntity
8
0
100
AcDbPoint
10
-11.75
20
-10.730000000000004
30
0
0
POINT
5
112
100
AcDbEntity
8
0
100
AcDbPoint
10
-18.5
20
-6.5200000000000031
30
0
0
POINT
5
113
100
AcDbEntity
8
0
100
AcDbPoint
10
-18.5
20
-3.9800000000000035
30
0
0
POINT
5
114
100
AcDbEntity
8
0
100
AcDbPoint
10
-5
20
-6.5200000000000031
30
0
0
POINT
5
115
100
AcDbEntity
8
0
100
AcDbPoint
10
-5
20
-3.9800000000000035
30
0
0
POINT
5
116
100
AcDbEntity
8
0
100
AcDbPoint
10
-52.250000000000007
20
-10.730000000000004
30
0
0
POINT
5
117
100
AcDbEntity
8
0
100
AcDbPoint
10
-45.500000000000007
20
-3.9800000000000013
30
0
0
POINT
5
118
100
AcDbEntity
8
0
100
AcDbPoint
10
-45.500000000000007
20
-17.480000000000008
30
0
0
POINT
5
119
100
AcDbEntity
8
0
100
AcDbPoint
10
-59
20
-5.2500000000000036
30
0
0
POINT
5
120
100
AcDbEntity
8
0
100
AcDbPoint
10
-52.250000000000007
20
-13.270000000000003
30
0
0
POINT
5
121
100
AcDbEntity
8
0
100
AcDbPoint
10
-45.500000000000007
20
-5.2500000000000036
30
0
0
POINT
5
122
100
AcDbEntity
8
0
100
AcDbPoint
10
-52.250000000000007
20
-12.000000000000004
30
0
0
POINT
5
123
100
AcDbEntity
8
0
100
AcDbPoint
10
-59
20
-6.5200000000000058
30
0
0
POINT
5
124
100
AcDbEntity
8
0
100
AcDbPoint
10
-59
20
-17.480000000000004
30
0
0
POINT
5
125
100
AcDbEntity
8
0
100
AcDbPoint
10
-45.500000000000007
20
-6.5200000000000058
30
0
0
POINT
5
126
100
AcDbEntity
8
0
100
AcDbPoint
10
-59
20
-3.9800000000000013
30
0
0
POINT
5
127
100
AcDbEntity
8
0
100
AcDbPoint
10
-45.500000000000007
20
-18.750000000000004
30
0
0
POINT
5
128
100
AcDbEntity
8
0
100
AcDbPoint
10
-45.500000000000007
20
-20.020000000000003
30
0
0
POINT
5
129
100
AcDbEntity
8
0
100
AcDbPoint
10
-59
20
-20.020000000000007
30
0
0
POINT
5
130
100
AcDbEntity
8
0
100
AcDbPoint
10
-59
20
-18.750000000000004
30
0
0
LWPOLYLINE
5
131
100
AcDbEntity
8
0
100
AcDbPolyline
90
4
70
1
43
0.0
10
0
20
-24.000000000000004
10
0
20
0
10
-64
20
0
10
-64
20
-24.000000000000004
0
LINE
5
132
100
AcDbEntity
8
0
100
AcDbLine
10
-12.25
20
-3.4800000000000035
30
0
11
-18.010102051443365
21
-3.4800000000000035
31
0
0
LINE
5
133
100
AcDbEntity
8
0
100
AcDbLine
10
-11.75
20
-4.4800000000000031
30
0
11
-18.010102051443365
21
-4.4800000000000031
31
0
0
LINE
5
134
100
AcDbEntity
8
0
100
AcDbLine
10
-12.25
20
-1.1456439237389597
30
0
11
-12.25
21
-3.4800000000000035
31
0
0
LINE
5
135
100
AcDbEntity
8
0
100
AcDbLine
10
-11.25
20
-1.1456439237389597
30
0
11
-11.25
21
-3.4800000000000035
31
0
0
LINE
5
136
100
AcDbEntity
8
0
100
AcDbLine
10
-5.4898979485566359
20
-3.4800000000000035
30
0
11
-11.25
21
-3.4800000000000035
31
0
0
LINE
5
137
100
AcDbEntity
8
0
100
AcDbLine
10
-5.4898979485566359
20
-4.4800000000000031
30
0
11
-11.75
21
-4.4800000000000031
31
0
0
LINE
5
138
100
AcDbEntity
8
0
100
AcDbLine
10
-4.5101020514433641
20
-4.4800000000000031
30
0
11
-2.5
21
-4.4800000000000031
31
0
0
LINE
5
139
100
AcDbEntity
8
0
100
AcDbLine
10
-4.5101020514433641
20
-3.4800000000000035
30
0
11
-1.5000000000000002
21
-3.4800000000000035
31
0
0
LINE
5
140
100
AcDbEntity
8
0
100
AcDbLine
10
-1.5000000000000002
20
-3.4800000000000035
30
0
11
-1.5000000000000002
21
-22.883546711835969
31
0
0
LINE
5
141
100
AcDbEntity
8
0
100
AcDbLine
10
-1.5000000000000002
20
-22.883546711835969
30
0
11
-62.5
21
-22.883546711835969
31
0
0
LINE
5
142
100
AcDbEntity
8
0
100
AcDbLine
10
-62.5
20
-22.883546711835969
30
0
11
-62.5
21
-3.4800000000000031
31
0
0
LINE
5
143
100
AcDbEntity
8
0
100
AcDbLine
10
-24.565848879923003
20
-21.883546711835969
30
0
11
-24.565848879923003
21
-16.980000000000004
31
0
0
LINE
5
144
100
AcDbEntity
8
0
100
AcDbLine
10
-24.565848879923003
20
-16.980000000000004
30
0
11
-19
21
-16.980000000000008
31
0
0
LINE
5
145
100
AcDbEntity
8
0
100
AcDbLine
10
-19
20
-10.230000000000004
30
0
11
-19
21
-16.980000000000008
31
0
0
LINE
5
146
100
AcDbEntity
8
0
100
AcDbLine
10
-19
20
-10.230000000000004
30
0
11
-12.239897948556635
21
-10.230000000000004
31
0
0
LINE
5
147
100
AcDbEntity
8
0
100
AcDbLine
10
-23.56584887992301
20
-21.883546711835969
30
0
11
-23.56584887992301
21
-17.980000000000004
31
0
0
LINE
5
148
100
AcDbEntity
8
0
100
AcDbLine
10
-18
20
-11.230000000000004
30
0
11
-12.239897948556635
21
-11.230000000000004
31
0
0
LINE
5
149
100
AcDbEntity
8
0
100
AcDbLine
10
-4.5101020514433641
20
-17.980000000000004
30
0
11
-2.5
21
-17.980000000000004
31
0
0
LINE
5
150
100
AcDbEntity
8
0
100
AcDbLine
10
-4.510102051443365
20
-16.980000000000004
30
0
11
-2.5
21
-16.980000000000004
31
0
0
LINE
5
151
100
AcDbEntity
8
0
100
AcDbLine
10
-38.160966607575148
20
-21.883546711835969
30
0
11
-38.160966607575148
21
-16.980000000000008
31
0
0
LINE
5
152
100
AcDbEntity
8
0
100
AcDbLine
10
-38.160966607575148
20
-16.980000000000008
30
0
11
-45.000000000000007
21
-16.980000000000008
31
0
0
LINE
5
153
100
AcDbEntity
8
0
100
AcDbLine
10
-45.000000000000007
20
-16.980000000000008
30
0
11
-45.000000000000007
21
-10.230000000000004
31
0
0
LINE
5
154
100
AcDbEntity
8
0
100
AcDbLine
10
-45.000000000000007
20
-10.230000000000004
30
0
11
-51.760102051443369
21
-10.230000000000004
31
0
0
LINE
5
155
100
AcDbEntity
8
0
100
AcDbLine
10
-39.160966607575141
20
-21.883546711835969
30
0
11
-39.160966607575141
21
-17.980000000000008
31
0
0
LINE
5
156
100
AcDbEntity
8
0
100
AcDbLine
10
-46.000000000000007
20
-11.230000000000004
30
0
11
-51.760102051443369
21
-11.230000000000004
31
0
0
LINE
5
157
100
AcDbEntity
8
0
100
AcDbLine
10
-59.489897948556639
20
-16.980000000000004
30
0
11
-61.5
21
-16.980000000000004
31
0
0
LINE
5
158
100
AcDbEntity
8
0
100
AcDbLine
10
-59.489897948556639
20
-17.980000000000004
30
0
11
-61.5
21
-17.980000000000004
31
0
0
LINE
5
159
100
AcDbEntity
8
0
100
AcDbLine
10
-18.989897948556635
20
-3.4800000000000035
30
0
11
-20.500000000000004
21
-3.4800000000000035
31
0
0
LINE
5
160
100
AcDbEntity
8
0
100
AcDbLine
10
-18.989897948556635
20
-4.4800000000000031
30
0
11
-20.500000000000004
21
-4.4800000000000031
31
0
0
LINE
5
161
100
AcDbEntity
8
0
100
AcDbLine
10
-20.500000000000004
20
-4.4800000000000031
30
0
11
-20.500000000000004
21
-3.4800000000000035
31
0
0
LINE
5
162
100
AcDbEntity
8
0
100
AcDbLine
10
-11.260102051443365
20
-11.230000000000004
30
0
11
-9.75
21
-11.230000000000004
31
0
0
LINE
5
163
100
AcDbEntity
8
0
100
AcDbLine
10
-11.260102051443365
20
-10.230000000000004
30
0
11
-9.75
21
-10.230000000000004
31
0
0
LINE
5
164
100
AcDbEntity
8
0
100
AcDbLine
10
-9.75
20
-11.230000000000004
30
0
11
-9.75
21
-10.230000000000004
31
0
0
LINE
5
165
100
AcDbEntity
8
0
100
AcDbLine
10
-5.489897948556635
20
-16.980000000000004
30
0
11
-7
21
-16.980000000000004
31
0
0
LINE
5
166
100
AcDbEntity
8
0
100
AcDbLine
10
-5.489897948556635
20
-17.980000000000004
30
0
11
-7
21
-17.980000000000004
31
0
0
LINE
5
167
100
AcDbEntity
8
0
100
AcDbLine
10
-7
20
-17.980000000000004
30
0
11
-7
21
-16.980000000000004
31
0
0
LINE
5
168
100
AcDbEntity
8
0
100
AcDbLine
10
-58.510102051443369
20
-17.980000000000004
30
0
11
-57
21
-17.980000000000004
31
0
0
LINE
5
169
100
AcDbEntity
8
0
100
AcDbLine
10
-58.510102051443369
20
-16.980000000000004
30
0
11
-57
21
-16.980000000000004
31
0
0
LINE
5
170
100
AcDbEntity
8
0
100
AcDbLine
10
-52.739897948556646
20
-10.230000000000004
30
0
11
-54.250000000000007
21
-10.230000000000004
31
0
0
LINE
5
171
100
AcDbEntity
8
0
100
AcDbLine
10
-52.739897948556646
20
-11.230000000000004
30
0
11
-54.250000000000007
21
-11.230000000000004
31
0
0
LINE
5
172
100
AcDbEntity
8
0
100
AcDbLine
10
-45.010102051443369
20
-4.4800000000000013
30
0
11
-43.500000000000007
21
-4.4800000000000013
31
0
0
LINE
5
173
100
AcDbEntity
8
0
100
AcDbLine
10
-45.010102051443369
20
-3.4800000000000013
30
0
11
-43.500000000000007
21
-3.4800000000000013
31
0
0
LINE
5
174
100
AcDbEntity
8
0
100
AcDbLine
10
-57
20
-17.980000000000004
30
0
11
-57
21
-16.980000000000004
31
0
0
LINE
5
175
100
AcDbEntity
8
0
100
AcDbLine
10
-54.250000000000007
20
-11.230000000000004
30
0
11
-54.250000000000007
21
-10.230000000000004
31
0
0
LINE
5
176
100
AcDbEntity
8
0
100
AcDbLine
10
-43.500000000000007
20
-4.4800000000000013
30
0
11
-43.500000000000007
21
-3.4800000000000013
31
0
0
LINE
5
177
100
AcDbEntity
8
0
100
AcDbLine
10
-39.314132314157689
20
-1.1456439237389611
30
0
11
-39.314132314157689
21
-6.0200000000000031
31
0
0
LINE
5
178
100
AcDbEntity
8
0
100
AcDbLine
10
-38.314132314157696
20
-1.1456439237389606
30
0
11
-38.314132314157689
21
-6.0200000000000031
31
0
0
LINE
5
179
100
AcDbEntity
8
0
100
AcDbLine
10
-5.5
20
-7.020000000000004
30
0
11
-5.5
21
-12.760336923419045
31
0
0
LINE
5
180
100
AcDbEntity
8
0
100
AcDbLine
10
-58.500000000000007
20
-12.770000000000003
30
0
11
-58.500000000000007
21
-7.0200000000000067
31
0
0
LINE
5
181
100
AcDbEntity
8
0
100
AcDbLine
10
-58.500000000000007
20
-12.770000000000003
30
0
11
-52.739897948556646
21
-12.770000000000003
31
0
0
LINE
5
182
100
AcDbEntity
8
0
100
AcDbLine
10
-4.5
20
-13.758792121822367
30
0
11
-11.259329639495618
21
-13.76924202279306
31
0
0
LINE
5
183
100
AcDbEntity
8
0
100
AcDbLine
10
-59.5
20
-13.770000000000005
30
0
11
-52.739897948556646
21
-13.770000000000005
31
0
0
LINE
5
184
100
AcDbEntity
8
0
100
AcDbLine
10
-11.75
20
-20.520000000000003
30
0
11
-18.010102051443365
21
-20.52
31
0
0
LINE
5
185
100
AcDbEntity
8
0
100
AcDbLine
10
-11.75
20
-20.520000000000003
30
0
11
-5.4898979485566368
21
-20.520000000000003
31
0
0
LINE
5
186
100
AcDbEntity
8
0
100
AcDbLine
10
-12.25
20
-19.520000000000007
30
0
11
-18.010102051443365
21
-19.520000000000003
31
0
0
LINE
5
187
100
AcDbEntity
8
0
100
AcDbLine
10
-11.25
20
-19.520000000000007
30
0
11
-5.489897948556635
21
-19.520000000000007
31
0
0
LINE
5
188
100
AcDbEntity
8
0
100
AcDbLine
10
-11.25
20
-19.520000000000007
30
0
11
-11.25
21
-13.759897948556642
31
0
0
LINE
5
189
100
AcDbEntity
8
0
100
AcDbLine
10
-12.25
20
-19.520000000000007
30
0
11
-12.25
21
-13.759897948556638
31
0
0
LINE
5
190
100
AcDbEntity
8
0
100
AcDbLine
10
-51.750000000000007
20
-19.520000000000003
30
0
11
-45.989897948556646
21
-19.520000000000003
31
0
0
LINE
5
191
100
AcDbEntity
8
0
100
AcDbLine
10
-52.75
20
-19.520000000000003
30
0
11
-58.510102051443369
21
-19.520000000000007
31
0
0
LINE
5
192
100
AcDbEntity
8
0
100
AcDbLine
10
-52.250000000000007
20
-20.52
30
0
11
-45.989897948556646
21
-20.52
31
0
0
LINE
5
193
100
AcDbEntity
8
0
100
AcDbLine
10
-52.250000000000007
20
-20.52
30
0
11
-58.510102051443369
21
-20.520000000000003
31
0
0
LINE
5
194
100
AcDbEntity
8
0
100
AcDbLine
10
-52.75
20
-13.759897948556642
30
0
11
-52.75
21
-19.520000000000003
31
0
0
LINE
5
195
100
AcDbEntity
8
0
100
AcDbLine
10
-51.750000000000007
20
-13.759897948556642
30
0
11
-51.750000000000007
21
-19.520000000000003
31
0
0
LINE
5
196
100
AcDbEntity
8
0
100
AcDbLine
10
-2.5
20
-4.4800000000000031
30
0
11
-2.5
21
-16.980000000000004
31
0
0
LINE
5
197
100
AcDbEntity
8
0
100
AcDbLine
10
-2.5
20
-17.980000000000004
30
0
11
-2.5
21
-21.883546711835969
31
0
0
ARC
5
198
100
AcDbEntity
8
0
100
AcDbCircle
10
-5
20
-17.480000000000004
30
0
40
0.69999999999999996
210
0
220
-0
230
1
100
AcDbArc
50
45.584691402807067
51
134.41530859719293
0
ARC
5
199
100
AcDbEntity
8
0
100
AcDbCircle
10
-5
20
-17.480000000000004
30
0
40
0.69999999999999962
210
0
220
0
230
1
100
AcDbArc
50
225.58469140280704
51
314.41530859719302
0
ARC
5
200
100
AcDbEntity
8
0
100
AcDbCircle
10
-5
20
-20.020000000000007
30
0
40
0.69999999999999962
210
0
220
0
230
1
100
AcDbArc
50
-134.41530859719327
51
134.41530859719293
0
ARC
5
201
100
AcDbEntity
8
0
100
AcDbCircle
10
-18.5
20
-20.020000000000003
30
0
40
0.69999999999999962
210
0
220
-0
230
1
100
AcDbArc
50
45.584691402807067
51
314.41530859719313
0
LINE
5
202
100
AcDbEntity
8
0
100
AcDbLine
10
-23.56584887992301
20
-17.980000000000004
30
0
11
-18.989897948556635
21
-17.980000000000008
31
0
0
LINE
5
203
100
AcDbEntity
8
0
100
AcDbLine
10
-18.010102051443365
20
-17.980000000000008
30
0
11
-18
21
-17.980000000000008
31
0
0
LINE
5
204
100
AcDbEntity
8
0
100
AcDbLine
10
-18
20
-11.230000000000004
30
0
11
-18
21
-16.990102051443372
31
0
0
LINE
5
205
100
AcDbEntity
8
0
100
AcDbLine
10
-18
20
-17.969897948556643
30
0
11
-18
21
-17.980000000000008
31
0
0
LINE
5
206
100
AcDbEntity
8
0
100
AcDbLine
10
-2.5
20
-21.883546711835969
30
0
11
-23.56584887992301
21
-21.883546711835969
31
0
0
ARC
5
207
100
AcDbEntity
8
0
100
AcDbCircle
10
-11.75
20
-13.270000000000003
30
0
40
0.70000000000000151
210
0
220
0
230
1
100
AcDbArc
50
314.50388760973857
51
315.58469140280681
0
ARC
5
208
100
AcDbEntity
8
0
100
AcDbCircle
10
-11.75
20
-13.270000000000003
30
0
40
0.70000000000000107
210
0
220
-0
230
1
100
AcDbArc
50
45.673270415352661
51
224.41530859719293
0
LINE
5
209
100
AcDbEntity
8
0
100
AcDbLine
10
-5.5
20
-12.760336923419045
30
0
11
-11.260875634296859
21
-12.769243217843735
31
0
0
LINE
5
210
100
AcDbEntity
8
0
100
AcDbLine
10
-11.75
20
-12.76999940247395
30
0
11
-11.75077299740062
21
-12.770000597525343
31
0
0
ARC
5
211
100
AcDbEntity
8
0
100
AcDbCircle
10
-11.75
20
-10.730000000000004
30
0
40
0.69999999999999962
210
0
220
-0
230
1
100
AcDbArc
50
45.584691402807067
51
134.41530859719293
0
ARC
5
212
100
AcDbEntity
8
0
100
AcDbCircle
10
-11.75
20
-10.730000000000004
30
0
40
0.69999999999999962
210
0
220
0
230
1
100
AcDbArc
50
225.58469140280704
51
314.4153085971929
0
ARC
5
213
100
AcDbEntity
8
0
100
AcDbCircle
10
-18.5
20
-17.480000000000008
30
0
40
0.69999999999999962
210
0
220
0
230
1
100
AcDbArc
50
-134.41530859719293
51
44.41530859719294
0
ARC
5
214
100
AcDbEntity
8
0
100
AcDbCircle
10
-5
20
-6.5200000000000031
30
0
40
0.69999999999999962
210
0
220
0
230
1
100
AcDbArc
50
-44.415308597193167
51
134.41530859719293
0
LINE
5
215
100
AcDbEntity
8
0
100
AcDbLine
10
-4.5000000000000018
20
-6.0200000000000031
30
0
11
-4.5000000000000018
21
-6.0301020514433663
31
0
0
LINE
5
216
100
AcDbEntity
8
0
100
AcDbLine
10
-4.5000000000000018
20
-7.0098979485566399
30
0
11
-4.5
21
-13.758792121822367
31
0
0
LINE
5
217
100
AcDbEntity
8
0
100
AcDbLine
10
-4.510102051443365
20
-6.0200000000000031
30
0
11
-4.5000000000000018
21
-6.0200000000000031
31
0
0
LINE
5
218
100
AcDbEntity
8
0
100
AcDbLine
10
-18.010102051443365
20
-7.020000000000004
30
0
11
-5.5
21
-7.020000000000004
31
0
0
LINE
5
219
100
AcDbEntity
8
0
100
AcDbLine
10
-18.010102051443365
20
-6.0200000000000031
30
0
11
-5.489897948556635
21
-6.0200000000000031
31
0
0
ARC
5
220
100
AcDbEntity
8
0
100
AcDbCircle
10
-18.5
20
-6.5200000000000031
30
0
40
0.69999999999999962
210
0
220
-0
230
1
100
AcDbArc
50
45.584691402807067
51
134.41530859719262
0
ARC
5
221
100
AcDbEntity
8
0
100
AcDbCircle
10
-18.5
20
-6.5200000000000031
30
0
40
0.69999999999999962
210
0
220
0
230
1
100
AcDbArc
50
225.58469140280749
51
314.4153085971929
0
ARC
5
222
100
AcDbEntity
8
0
100
AcDbCircle
10
-18.5
20
-3.9800000000000035
30
0
40
0.69999999999999929
210
0
220
-0
230
1
100
AcDbArc
50
45.584691402807067
51
134.41530859719293
0
ARC
5
223
100
AcDbEntity
8
0
100
AcDbCircle
10
-18.5
20
-3.9800000000000035
30
0
40
0.69999999999999929
210
0
220
0
230
1
100
AcDbArc
50
225.58469140280704
51
314.41530859719296
0
ARC
5
224
100
AcDbEntity
8
0
100
AcDbCircle
10
-5
20
-3.9800000000000035
30
0
40
0.69999999999999996
210
0
220
-0
230
1
100
AcDbArc
50
45.584691402807003
51
134.41530859719302
0
ARC
5
225
100
AcDbEntity
8
0
100
AcDbCircle
10
-5
20
-3.9800000000000035
30
0
40
0.69999999999999996
210
0
220
0
230
1
100
AcDbArc
50
225.58469140280698
51
314.41530859719302
0
ARC
5
226
100
AcDbEntity
8
0
100
AcDbCircle
10
-11.75
20
0
30
0
40
1.25
210
0
220
0
230
1
100
AcDbArc
50
180
51
246.42182152179814
0
ARC
5
227
100
AcDbEntity
8
0
100
AcDbCircle
10
-11.75
20
0
30
0
40
1.25
210
0
220
0
230
1
100
AcDbArc
50
-66.421821521798179
51
0
0
ARC
5
228
100
AcDbEntity
8
0
100
AcDbCircle
10
-38.814132314157696
20
0
30
0
40
1.25
210
0
220
0
230
1
100
AcDbArc
50
180
51
246.42182152179851
0
ARC
5
229
100
AcDbEntity
8
0
100
AcDbCircle
10
-38.814132314157696
20
0
30
0
40
1.2499999999999998
210
0
220
0
230
1
100
AcDbArc
50
-66.421821521798179
51
0
0
LINE
5
230
100
AcDbEntity
8
0
100
AcDbLine
10
-38.314132314157689
20
-6.0200000000000031
30
0
11
-18.989897948556631
21
-6.0200000000000014
31
0
0
LINE
5
231
100
AcDbEntity
8
0
100
AcDbLine
10
-59.5
20
-6.0200000000000049
30
0
11
-59.489897948556639
21
-6.0200000000000049
31
0
0
LINE
5
232
100
AcDbEntity
8
0
100
AcDbLine
10
-59.5
20
-13.770000000000005
30
0
11
-59.5
21
-7.0098979485566426
31
0
0
LINE
5
233
100
AcDbEntity
8
0
100
AcDbLine
10
-59.5
20
-6.030102051443369
30
0
11
-59.5
21
-6.0200000000000049
31
0
0
ARC
5
234
100
AcDbEntity
8
0
100
AcDbCircle
10
-59
20
-6.5200000000000058
30
0
40
0.69999999999999962
210
0
220
-0
230
1
100
AcDbArc
50
45.584691402807174
51
224.41530859719305
0
LINE
5
235
100
AcDbEntity
8
0
100
AcDbLine
10
-58.500000000000007
20
-7.0200000000000067
30
0
11
-45.989897948556646
21
-7.0200000000000067
31
0
0
LINE
5
236
100
AcDbEntity
8
0
100
AcDbLine
10
-45.010102051443369
20
-7.0200000000000067
30
0
11
-18.989897948556631
21
-7.0200000000000067
31
0
0
LINE
5
237
100
AcDbEntity
8
0
100
AcDbLine
10
-58.510102051443369
20
-6.0200000000000076
30
0
11
-45.989897948556646
21
-6.0200000000000076
31
0
0
LINE
5
238
100
AcDbEntity
8
0
100
AcDbLine
10
-45.010102051443369
20
-6.020000000000004
30
0
11
-39.314132314157689
21
-6.0200000000000031
31
0
0
ARC
5
239
100
AcDbEntity
8
0
100
AcDbCircle
10
-45.500000000000007
20
-3.9800000000000013
30
0
40
0.70000000000000073
210
0
220
-0
230
1
100
AcDbArc
50
45.584691402806847
51
134.41530859719319
0
ARC
5
240
100
AcDbEntity
8
0
100
AcDbCircle
10
-45.500000000000007
20
-3.9800000000000013
30
0
40
0.70000000000000073
210
0
220
0
230
1
100
AcDbArc
50
225.58469140280684
51
314.41530859719319
0
LINE
5
241
100
AcDbEntity
8
0
100
AcDbLine
10
-61.5
20
-4.4800000000000031
30
0
11
-59.489897948556639
21
-4.4800000000000031
31
0
0
LINE
5
242
100
AcDbEntity
8
0
100
AcDbLine
10
-58.510102051443369
20
-4.4800000000000031
30
0
11
-45.989897948556646
21
-4.4800000000000013
31
0
0
LINE
5
243
100
AcDbEntity
8
0
100
AcDbLine
10
-62.5
20
-3.4800000000000031
30
0
11
-59.489897948556639
21
-3.4800000000000031
31
0
0
LINE
5
244
100
AcDbEntity
8
0
100
AcDbLine
10
-58.510102051443369
20
-3.4800000000000026
30
0
11
-45.989897948556646
21
-3.4800000000000013
31
0
0
ARC
5
245
100
AcDbEntity
8
0
100
AcDbCircle
10
-59
20
-3.9800000000000013
30
0
40
0.69999999999999996
210
0
220
-0
230
1
100
AcDbArc
50
45.584691402807188
51
134.41530859719327
0
ARC
5
246
100
AcDbEntity
8
0
100
AcDbCircle
10
-59
20
-3.9800000000000013
30
0
40
0.70000000000000195
210
0
220
0
230
1
100
AcDbArc
50
225.58469140280695
51
314.41530859719262
0
ARC
5
247
100
AcDbEntity
8
0
100
AcDbCircle
10
-52.250000000000007
20
-10.730000000000004
30
0
40
0.70000000000000118
210
0
220
-0
230
1
100
AcDbArc
50
45.584691402806847
51
134.41530859719319
0
ARC
5
248
100
AcDbEntity
8
0
100
AcDbCircle
10
-52.250000000000007
20
-10.730000000000004
30
0
40
0.70000000000000118
210
0
220
0
230
1
100
AcDbArc
50
225.58469140280684
51
314.41530859719319
0
ARC
5
249
100
AcDbEntity
8
0
100
AcDbCircle
10
-52.250000000000007
20
-13.270000000000003
30
0
40
0.69999999999999962
210
0
220
0
230
1
100
AcDbArc
50
-44.415308597193167
51
134.41530859719319
0
ARC
5
250
100
AcDbEntity
8
0
100
AcDbCircle
10
-52.250000000000007
20
-13.270000000000003
30
0
40
0.69999999999999962
210
0
220
0
230
1
100
AcDbArc
50
224.41530859719356
51
225.58469140280695
0
ARC
5
251
100
AcDbEntity
8
0
100
AcDbCircle
10
-45.500000000000007
20
-20.020000000000003
30
0
40
0.69999999999999962
210
0
220
0
230
1
100
AcDbArc
50
-134.41530859719333
51
134.41530859719319
0
ARC
5
252
100
AcDbEntity
8
0
100
AcDbCircle
10
-59
20
-20.020000000000007
30
0
40
0.70000000000000118
210
0
220
-0
230
1
100
AcDbArc
50
45.584691402807266
51
314.4153085971929
0
ARC
5
253
100
AcDbEntity
8
0
100
AcDbCircle
10
-59
20
-17.480000000000004
30
0
40
0.70000000000000118
210
0
220
-0
230
1
100
AcDbArc
50
45.584691402807266
51
134.41530859719319
0
ARC
5
254
100
AcDbEntity
8
0
100
AcDbCircle
10
-59
20
-17.480000000000004
30
0
40
0.70000000000000118
210
0
220
0
230
1
100
AcDbArc
50
225.58469140280684
51
314.41530859719273
0
LINE
5
255
100
AcDbEntity
8
0
100
AcDbLine
10
-24.565848879923003
20
-21.883546711835969
30
0
11
-38.160966607575148
21
-21.883546711835969
31
0
0
LINE
5
256
100
AcDbEntity
8
0
100
AcDbLine
10
-39.160966607575141
20
-21.883546711835969
30
0
11
-61.5
21
-21.883546711835969
31
0
0
LINE
5
257
100
AcDbEntity
8
0
100
AcDbLine
10
-61.5
20
-21.883546711835969
30
0
11
-61.5
21
-17.980000000000004
31
0
0
LINE
5
258
100
AcDbEntity
8
0
100
AcDbLine
10
-61.5
20
-16.980000000000004
30
0
11
-61.5
21
-4.4800000000000031
31
0
0
LINE
5
259
100
AcDbEntity
8
0
100
AcDbLine
10
-39.160966607575141
20
-17.980000000000008
30
0
11
-45.010102051443369
21
-17.980000000000008
31
0
0
LINE
5
260
100
AcDbEntity
8
0
100
AcDbLine
10
-45.989897948556646
20
-17.980000000000008
30
0
11
-46.000000000000007
21
-17.980000000000008
31
0
0
LINE
5
261
100
AcDbEntity
8
0
100
AcDbLine
10
-46.000000000000007
20
-17.980000000000008
30
0
11
-46.000000000000007
21
-17.969897948556643
31
0
0
LINE
5
262
100
AcDbEntity
8
0
100
AcDbLine
10
-46.000000000000007
20
-16.990102051443369
30
0
11
-46.000000000000007
21
-11.230000000000004
31
0
0
ARC
5
263
100
AcDbEntity
8
0
100
AcDbCircle
10
-45.500000000000007
20
-17.480000000000008
30
0
40
0.69999999999999962
210
0
220
0
230
1
100
AcDbArc
50
135.58469140280684
51
314.41530859719319
0
ARC
5
264
100
AcDbEntity
8
0
100
AcDbCircle
10
-45.500000000000007
20
-6.5200000000000058
30
0
40
0.70000000000000195
210
0
220
-0
230
1
100
AcDbArc
50
45.584691402806953
51
134.41530859719327
0
ARC
5
265
100
AcDbEntity
8
0
100
AcDbCircle
10
-45.500000000000007
20
-6.5200000000000058
30
0
40
0.70000000000000118
210
0
220
0
230
1
100
AcDbArc
50
225.58469140280687
51
314.41530859719313
0
CIRCLE
5
266
100
AcDbEntity
8
0
100
AcDbCircle
10
-5
20
-20.020000000000007
30
0
40
0.35000000000000031
210
0
220
0
230
1
0
CIRCLE
5
267
100
AcDbEntity
8
0
100
AcDbCircle
10
-5
20
-17.480000000000004
30
0
40
0.35000000000000031
210
0
220
0
230
1
0
CIRCLE
5
268
100
AcDbEntity
8
0
100
AcDbCircle
10
-18.5
20
-20.020000000000003
30
0
40
0.35000000000000059
210
0
220
0
230
1
0
CIRCLE
5
269
100
AcDbEntity
8
0
100
AcDbCircle
10
-18.5
20
-17.480000000000008
30
0
40
0.34999999999999898
210
0
220
0
230
1
0
CIRCLE
5
270
100
AcDbEntity
8
0
100
AcDbCircle
10
-11.75
20
-13.270000000000003
30
0
40
0.34999999999999942
210
0
220
0
230
1
0
CIRCLE
5
271
100
AcDbEntity
8
0
100
AcDbCircle
10
-11.75
20
-10.730000000000004
30
0
40
0.34999999999999987
210
0
220
0
230
1
0
CIRCLE
5
272
100
AcDbEntity
8
0
100
AcDbCircle
10
-5
20
-6.5200000000000031
30
0
40
0.35000000000000031
210
0
220
0
230
1
0
CIRCLE
5
273
100
AcDbEntity
8
0
100
AcDbCircle
10
-5
20
-3.9800000000000035
30
0
40
0.34999999999999953
210
0
220
0
230
1
0
CIRCLE
5
274
100
AcDbEntity
8
0
100
AcDbCircle
10
-18.5
20
-6.5200000000000031
30
0
40
0.35000000000000053
210
0
220
0
230
1
0
CIRCLE
5
275
100
AcDbEntity
8
0
100
AcDbCircle
10
-18.5
20
-3.9800000000000035
30
0
40
0.34999999999999976
210
0
220
0
230
1
0
CIRCLE
5
276
100
AcDbEntity
8
0
100
AcDbCircle
10
-45.500000000000007
20
-20.020000000000003
30
0
40
0.35000000000000164
210
0
220
0
230
1
0
CIRCLE
5
277
100
AcDbEntity
8
0
100
AcDbCircle
10
-59
20
-20.020000000000007
30
0
40
0.35000000000000142
210
0
220
0
230
1
0
CIRCLE
5
278
100
AcDbEntity
8
0
100
AcDbCircle
10
-59
20
-17.480000000000004
30
0
40
0.3500000000000022
210
0
220
0
230
1
0
CIRCLE
5
279
100
AcDbEntity
8
0
100
AcDbCircle
10
-52.250000000000007
20
-13.270000000000003
30
0
40
0.35000000000000142
210
0
220
0
230
1
0
CIRCLE
5
280
100
AcDbEntity
8
0
100
AcDbCircle
10
-45.500000000000007
20
-17.480000000000008
30
0
40
0.35000000000000142
210
0
220
0
230
1
0
CIRCLE
5
281
100
AcDbEntity
8
0
100
AcDbCircle
10
-52.250000000000007
20
-10.730000000000004
30
0
40
0.34999999999999926
210
0
220
0
230
1
0
CIRCLE
5
282
100
AcDbEntity
8
0
100
AcDbCircle
10
-59
20
-6.5200000000000058
30
0
40
0.35000000000000142
210
0
220
0
230
1
0
CIRCLE
5
283
100
AcDbEntity
8
0
100
AcDbCircle
10
-59
20
-3.9800000000000013
30
0
40
0.34999999999999742
210
0
220
0
230
1
0
CIRCLE
5
284
100
AcDbEntity
8
0
100
AcDbCircle
10
-45.500000000000007
20
-6.5200000000000058
30
0
40
0.35000000000000142
210
0
220
0
230
1
0
CIRCLE
5
285
100
AcDbEntity
8
0
100
AcDbCircle
10
-45.500000000000007
20
-3.9800000000000013
30
0
40
0.35000000000000087
210
0
220
0
230
1
0
ENDSEC
0
SECTION
2
OBJECTS
0
DICTIONARY
5
C
100
AcDbDictionary
3
ACAD_GROUP
350
D
3
ACAD_MLINESTYLE
350
17
0
DICTIONARY
5
D
100
AcDbDictionary
0
DICTIONARY
5
1A
330
C
100
AcDbDictionary
0
DICTIONARY
5
17
100
AcDbDictionary
0
ENDSEC
0
EOF
