0
SECTION
2
HEADER
9
$INSUNITS
70
4
9
$ACADVER
1
AC1014
9
$HANDSEED
5
FFFF
0
ENDSEC
0
SECTION
2
TABLES
0
TABLE
2
VPORT
5
8
100
AcDbSymbolTable
0
ENDTAB
0
TABLE
2
LTYPE
5
5
100
AcDbSymbolTable
0
LTYPE
5
14
100
AcDbSymbolTableRecord
100
AcDbLinetypeTableRecord
2
BYBLOCK
70
0
0
LTYPE
5
15
100
AcDbSymbolTableRecord
100
AcDbLinetypeTableRecord
2
BYLAYER
70
0
0
ENDTAB
0
TABLE
2
LAYER
5
2
100
AcDbSymbolTable
70
2
0
LAYER
5
50
100
AcDbSymbolTableRecord
100
AcDbLayerTableRecord
2
0
70
0
6
CONTINUOUS
0
ENDTAB
0
TABLE
2
STYLE
5
3
100
AcDbSymbolTable
70
1
0
STYLE
5
11
100
AcDbSymbolTableRecord
100
AcDbTextStyleTableRecord
2
STANDARD
70
0
0
ENDTAB
0
TABLE
2
VIEW
5
6
100
AcDbSymbolTable
70
0
0
ENDTAB
0
TABLE
2
UCS
5
7
100
AcDbSymbolTable
70
0
0
ENDTAB
0
TABLE
2
APPID
5
9
100
AcDbSymbolTable
70
2
0
APPID
5
12
100
AcDbSymbolTableRecord
100
AcDbRegAppTableRecord
2
ACAD
70
0
0
ENDTAB
0
TABLE
2
DIMSTYLE
5
A
100
AcDbSymbolTable
70
1
0
ENDTAB
0
TABLE
2
BLOCK_RECORD
5
1
100
AcDbSymbolTable
70
1
0
BLOCK_RECORD
5
1F
100
AcDbSymbolTableRecord
100
AcDbBlockTableRecord
2
*MODEL_SPACE
0
BLOCK_RECORD
5
1B
100
AcDbSymbolTableRecord
100
AcDbBlockTableRecord
2
*PAPER_SPACE
0
ENDTAB
0
ENDSEC
0
SECTION
2
BLOCKS
0
BLOCK
5
20
100
AcDbEntity
100
AcDbBlockBegin
2
*MODEL_SPACE
0
ENDBLK
5
21
100
AcDbEntity
100
AcDbBlockEnd
0
BLOCK
5
1C
100
AcDbEntity
100
AcDbBlockBegin
2
*PAPER_SPACE
0
ENDBLK
5
1D
100
AcDbEntity
100
AcDbBlockEnd
0
ENDSEC
0
SECTION
2
ENTITIES
0
LINE
5
100
100
AcDbEntity
8
0
100
AcDbLine
10
186
20
-102.49999999999983
30
0
11
186.00000000000026
21
-175.02943725152323
31
0
0
ARC
5
101
100
AcDbEntity
8
0
100
AcDbCircle
10
191.99999999999986
20
-175.02943725152338
30
0
40
5.9999999999995879
100
AcDbArc
50
180
51
225.00000000000173
0
LINE
5
102
100
AcDbEntity
8
0
100
AcDbLine
10
187.75735931288099
20
-179.2720779386425
30
0
11
200.46066017177992
21
-191.97537879754137
31
0
0
ARC
5
103
100
AcDbEntity
8
0
100
AcDbCircle
10
199.40000000000003
20
-199.40000000000009
30
0
40
7.4999999999999458
100
AcDbArc
50
8.1301023541567261
51
81.869897645843508
0
LINE
5
104
100
AcDbEntity
8
0
100
AcDbLine
10
206.82462120245873
20
-198.33933982822018
30
0
11
214.28427124746213
21
-205.7989898732236
31
0
0
ARC
5
105
100
AcDbEntity
8
0
100
AcDbCircle
10
210.04163056034287
20
-210.0416305603429
30
0
40
5.9999999999999885
100
AcDbArc
50
-134.9999999999998
51
45.000000000000199
0
LINE
5
106
100
AcDbEntity
8
0
100
AcDbLine
10
205.7989898732236
20
-214.28427124746219
30
0
11
198.3393398282202
21
-206.82462120245879
31
0
0
ARC
5
107
100
AcDbEntity
8
0
100
AcDbCircle
10
199.40000000000003
20
-199.40000000000009
30
0
40
7.5000000000000657
100
AcDbArc
50
188.1301023541555
51
261.86989764584388
0
LINE
5
108
100
AcDbEntity
8
0
100
AcDbLine
10
191.97537879754123
20
-200.46066017177986
30
0
11
179.27207793864244
21
-187.75735931288108
31
0
0
ARC
5
109
100
AcDbEntity
8
0
100
AcDbCircle
10
175.02943725152312
20
-192.00000000000048
30
0
40
6.0000000000001137
100
AcDbArc
50
45.000000000000568
51
90
0
LINE
5
110
100
AcDbEntity
8
0
100
AcDbLine
10
175.02943725152312
20
-186.00000000000034
30
0
11
102.50000000000016
21
-186.0000000000008
31
0
0
LINE
5
111
100
AcDbEntity
8
0
100
AcDbLine
10
102.50000000000016
20
-186.0000000000008
30
0
11
102.50000000000016
21
-194.00000000000006
31
0
0
ARC
5
112
100
AcDbEntity
8
0
100
AcDbCircle
10
96.500000000000171
20
-194.00000000000006
30
0
40
6.0000000000000142
100
AcDbArc
50
-90
51
0
0
LINE
5
113
100
AcDbEntity
8
0
100
AcDbLine
10
96.500000000000171
20
-200.00000000000006
30
0
11
-96.499999999999844
21
-199.99999999999977
31
0
0
ARC
5
114
100
AcDbEntity
8
0
100
AcDbCircle
10
-96.499999999999844
20
-193.99999999999977
30
0
40
5.9999999999999964
100
AcDbArc
50
180
51
270
0
LINE
5
115
100
AcDbEntity
8
0
100
AcDbLine
10
-102.49999999999984
20
-193.99999999999977
30
0
11
-102.49999999999986
21
-185.99999999999997
31
0
0
LINE
5
116
100
AcDbEntity
8
0
100
AcDbLine
10
-102.49999999999986
20
-185.99999999999997
30
0
11
-175.02943725152318
21
-186.00000000000017
31
0
0
ARC
5
117
100
AcDbEntity
8
0
100
AcDbCircle
10
-175.02943725152332
20
-191.99999999999977
30
0
40
5.9999999999996234
100
AcDbArc
50
89.99999999999865
51
135.00000000000173
0
LINE
5
118
100
AcDbEntity
8
0
100
AcDbLine
10
-179.27207793864241
20
-187.75735931288094
30
0
11
-191.97537879754128
21
-200.46066017177981
31
0
0
ARC
5
119
100
AcDbEntity
8
0
100
AcDbCircle
10
-199.40000000000015
20
-199.40000000000001
30
0
40
7.500000000000111
100
AcDbArc
50
278.13010235415595
51
351.86989764584433
0
LINE
5
120
100
AcDbEntity
8
0
100
AcDbLine
10
-198.33933982822032
20
-206.82462120245887
30
0
11
-205.79898987322363
21
-214.2842712474621
31
0
0
ARC
5
121
100
AcDbEntity
8
0
100
AcDbCircle
10
-210.04163056034292
20
-210.04163056034281
30
0
40
6.0000000000000133
100
AcDbArc
50
134.9999999999998
51
315
0
LINE
5
122
100
AcDbEntity
8
0
100
AcDbLine
10
-214.28427124746221
20
-205.79898987322349
30
0
11
-206.82462120245879
21
-198.33933982822009
31
0
0
ARC
5
123
100
AcDbEntity
8
0
100
AcDbCircle
10
-199.40000000000015
20
-199.40000000000001
30
0
40
7.4999999999999147
100
AcDbArc
50
98.130102354157017
51
171.86989764584322
0
LINE
5
124
100
AcDbEntity
8
0
100
AcDbLine
10
-200.46066017178009
20
-191.97537879754137
30
0
11
-187.75735931288111
21
-179.27207793864241
31
0
0
ARC
5
125
100
AcDbEntity
8
0
100
AcDbCircle
10
-192.00000000000051
20
-175.02943725152306
30
0
40
6.0000000000001386
100
AcDbArc
50
315.0000000000004
51
360
0
LINE
5
126
100
AcDbEntity
8
0
100
AcDbLine
10
-186.00000000000037
20
-175.02943725152309
30
0
11
-186.00000000000082
21
-102.50000000000016
31
0
0
LINE
5
127
100
AcDbEntity
8
0
100
AcDbLine
10
-186.00000000000082
20
-102.50000000000016
30
0
11
-194.00000000000006
21
-102.50000000000016
31
0
0
ARC
5
128
100
AcDbEntity
8
0
100
AcDbCircle
10
-194.00000000000006
20
-96.500000000000171
30
0
40
6.0000000000000142
100
AcDbArc
50
180
51
270
0
LINE
5
129
100
AcDbEntity
8
0
100
AcDbLine
10
-200.00000000000006
20
-96.500000000000171
30
0
11
-199.99999999999977
21
96.499999999999844
31
0
0
ARC
5
130
100
AcDbEntity
8
0
100
AcDbCircle
10
-193.99999999999977
20
96.499999999999844
30
0
40
5.9999999999999964
100
AcDbArc
50
90
51
180
0
LINE
5
131
100
AcDbEntity
8
0
100
AcDbLine
10
-193.99999999999977
20
102.49999999999984
30
0
11
-185.99999999999997
21
102.49999999999984
31
0
0
LINE
5
132
100
AcDbEntity
8
0
100
AcDbLine
10
-185.99999999999997
20
102.49999999999984
30
0
11
-186.00000000000017
21
175.02943725152318
31
0
0
ARC
5
133
100
AcDbEntity
8
0
100
AcDbCircle
10
-191.99999999999977
20
175.02943725152332
30
0
40
5.9999999999996234
100
AcDbArc
50
0
51
45.00000000000172
0
LINE
5
134
100
AcDbEntity
8
0
100
AcDbLine
10
-187.75735931288094
20
179.27207793864241
30
0
11
-200.46066017177981
21
191.97537879754128
31
0
0
ARC
5
135
100
AcDbEntity
8
0
100
AcDbCircle
10
-199.39999999999995
20
199.40000000000012
30
0
40
7.5000000000000853
100
AcDbArc
50
188.13010235415661
51
261.86989764584388
0
LINE
5
136
100
AcDbEntity
8
0
100
AcDbLine
10
-206.82462120245876
20
198.3393398282202
30
0
11
-214.28427124746213
21
205.79898987322363
31
0
0
ARC
5
137
100
AcDbEntity
8
0
100
AcDbCircle
10
-210.04163056034281
20
210.04163056034292
30
0
40
5.9999999999999885
100
AcDbArc
50
45
51
224.99999999999977
0
LINE
5
138
100
AcDbEntity
8
0
100
AcDbLine
10
-205.79898987322352
20
214.28427124746221
30
0
11
-198.33933982822006
21
206.82462120245876
31
0
0
ARC
5
139
100
AcDbEntity
8
0
100
AcDbCircle
10
-199.39999999999995
20
199.40000000000012
30
0
40
7.4999999999999041
100
AcDbArc
50
8.1301023541563211
51
81.869897645843395
0
LINE
5
140
100
AcDbEntity
8
0
100
AcDbLine
10
-191.97537879754128
20
200.46066017177998
30
0
11
-179.27207793864241
21
187.75735931288111
31
0
0
ARC
5
141
100
AcDbEntity
8
0
100
AcDbCircle
10
-175.02943725152306
20
192.00000000000051
30
0
40
6.0000000000001386
100
AcDbArc
50
225.0000000000004
51
269.99999999999972
0
LINE
5
142
100
AcDbEntity
8
0
100
AcDbLine
10
-175.02943725152309
20
186.00000000000037
30
0
11
-102.50000000000017
21
186.00000000000082
31
0
0
LINE
5
143
100
AcDbEntity
8
0
100
AcDbLine
10
-102.50000000000017
20
186.00000000000082
30
0
11
-102.50000000000017
21
194.00000000000006
31
0
0
ARC
5
144
100
AcDbEntity
8
0
100
AcDbCircle
10
-96.500000000000185
20
194.00000000000006
30
0
40
6.0000000000000142
100
AcDbArc
50
90
51
180
0
LINE
5
145
100
AcDbEntity
8
0
100
AcDbLine
10
-96.500000000000185
20
200.00000000000006
30
0
11
96.499999999999787
21
199.99999999999977
31
0
0
ARC
5
146
100
AcDbEntity
8
0
100
AcDbCircle
10
96.499999999999801
20
193.99999999999977
30
0
40
5.9999999999999964
100
AcDbArc
50
0
51
90.000000000000142
0
LINE
5
147
100
AcDbEntity
8
0
100
AcDbLine
10
102.4999999999998
20
193.99999999999977
30
0
11
102.49999999999983
21
186
31
0
0
LINE
5
148
100
AcDbEntity
8
0
100
AcDbLine
10
102.49999999999983
20
186
30
0
11
175.02943725152321
21
186.00000000000026
31
0
0
ARC
5
149
100
AcDbEntity
8
0
100
AcDbCircle
10
175.02943725152318
20
192.00000000000031
30
0
40
6.0000000000000497
100
AcDbArc
50
270.00000000000023
51
314.99999999999977
0
LINE
5
150
100
AcDbEntity
8
0
100
AcDbLine
10
179.2720779386425
20
187.75735931288096
30
0
11
191.97537879754137
21
200.46066017177992
31
0
0
ARC
5
151
100
AcDbEntity
8
0
100
AcDbCircle
10
199.40000000000009
20
199.40000000000003
30
0
40
7.4999999999999458
100
AcDbArc
50
98.130102354156747
51
171.86989764584351
0
LINE
5
152
100
AcDbEntity
8
0
100
AcDbLine
10
198.33933982822018
20
206.82462120245873
30
0
11
205.7989898732236
21
214.28427124746213
31
0
0
ARC
5
153
100
AcDbEntity
8
0
100
AcDbCircle
10
210.0416305603429
20
210.04163056034281
30
0
40
6.0000000000000133
100
AcDbArc
50
-45.000000000000199
51
134.9999999999998
0
LINE
5
154
100
AcDbEntity
8
0
100
AcDbLine
10
214.28427124746219
20
205.79898987322349
30
0
11
206.82462120245884
21
198.3393398282202
31
0
0
ARC
5
155
100
AcDbEntity
8
0
100
AcDbCircle
10
199.40000000000009
20
199.40000000000003
30
0
40
7.5000000000000702
100
AcDbArc
50
278.13010235415572
51
351.86989764584393
0
LINE
5
156
100
AcDbEntity
8
0
100
AcDbLine
10
200.46066017177989
20
191.97537879754123
30
0
11
187.75735931288108
21
179.27207793864241
31
0
0
ARC
5
157
100
AcDbEntity
8
0
100
AcDbCircle
10
192.00000000000028
20
175.02943725152318
30
0
40
5.999999999999913
100
AcDbArc
50
134.9999999999998
51
180
0
LINE
5
158
100
AcDbEntity
8
0
100
AcDbLine
10
186.00000000000037
20
175.02943725152312
30
0
11
186.0000000000008
21
102.50000000000017
31
0
0
LINE
5
159
100
AcDbEntity
8
0
100
AcDbLine
10
186.0000000000008
20
102.50000000000017
30
0
11
194.00000000000006
21
102.50000000000017
31
0
0
ARC
5
160
100
AcDbEntity
8
0
100
AcDbCircle
10
194.00000000000006
20
96.500000000000185
30
0
40
6.0000000000000142
100
AcDbArc
50
0
51
90
0
LINE
5
161
100
AcDbEntity
8
0
100
AcDbLine
10
200.00000000000006
20
96.500000000000185
30
0
11
199.99999999999977
21
-96.499999999999787
31
0
0
ARC
5
162
100
AcDbEntity
8
0
100
AcDbCircle
10
193.99999999999977
20
-96.499999999999801
30
0
40
5.9999999999999964
100
AcDbArc
50
-90
51
0
0
LINE
5
163
100
AcDbEntity
8
0
100
AcDbLine
10
193.99999999999977
20
-102.4999999999998
30
0
11
186
21
-102.49999999999983
31
0
0
LWPOLYLINE
5
164
100
AcDbEntity
8
0
100
AcDbPolyline
90
4
70
1
43
0.0
10
225
20
225.00000000000003
10
225
20
-225.00000000000003
10
-225
20
-225.00000000000003
10
-225
20
225.00000000000003
0
LWPOLYLINE
5
165
100
AcDbEntity
8
0
100
AcDbPolyline
90
8
70
1
43
0.0
10
145.90000000000006
20
119.90000000000003
42
-0.41421356237309592
10
151.90000000000006
20
113.90000000000003
10
151.90000000000006
20
103.10000000000002
42
-0.41421356237309503
10
145.90000000000006
20
97.100000000000023
10
135.10000000000005
20
97.100000000000023
42
-0.41421356237309503
10
129.10000000000005
20
103.10000000000002
10
129.10000000000005
20
113.90000000000003
42
-0.41421356237309592
10
135.10000000000008
20
119.90000000000003
0
LWPOLYLINE
5
166
100
AcDbEntity
8
0
100
AcDbPolyline
90
32
70
1
43
0.0
10
173.99999999999989
20
168.00000000000028
10
174.00000000000006
20
102.50000000000017
10
166.00000000000006
20
102.50000000000016
42
0.4142135623731098
10
160.00000000000006
20
96.499999999999858
10
159.99999999999994
20
-96.499999999999829
42
0.41421356237309503
10
165.99999999999994
20
-102.49999999999983
10
173.99999999999972
20
-102.49999999999983
10
174.00000000000009
20
-167.99999999999986
42
-0.41421356237308982
10
168.00000000000034
20
-173.99999999999989
10
102.50000000000016
20
-174.00000000000216
10
102.50000000000016
20
-166.00000000000009
42
0.41421356237309503
10
96.500000000000171
20
-160.00000000000011
10
-96.499999999999844
20
-159.99999999999991
42
0.41421356237309503
10
-102.49999999999986
20
-165.99999999999991
10
-102.49999999999986
20
-173.99999999999972
10
-167.99999999999989
20
-174.00000000000011
42
-0.41421356237308293
10
-174
20
-168.00000000000028
10
-174.00000000000006
20
-102.50000000000003
10
-166.00000000000009
20
-102.50000000000016
42
0.41421356237311063
10
-160.00000000000011
20
-96.499999999999844
10
-159.99999999999991
20
96.499999999999844
42
0.41421356237309503
10
-165.99999999999991
20
102.49999999999984
10
-173.99999999999972
20
102.49999999999986
10
-174.00000000000006
20
167.99999999999989
42
-0.41421356237307771
10
-168.00000000000023
20
173.99999999999994
10
-102.50000000000017
20
174.00000000000219
10
-102.50000000000016
20
166.00000000000006
42
0.41421356237309592
10
-96.500000000000142
20
160.00000000000006
10
96.499999999999829
20
159.99999999999994
42
0.41421356237309503
10
102.49999999999983
20
165.99999999999994
10
102.49999999999983
20
173.99999999999972
10
167.99999999999986
20
174.00000000000003
42
-0.41421356237308815
0
LWPOLYLINE
5
167
100
AcDbEntity
8
0
100
AcDbPolyline
90
8
70
1
43
0.0
10
117.8000000000001
20
119.90000000000003
42
-0.4142135623730942
10
123.80000000000008
20
113.90000000000003
10
123.80000000000008
20
103.10000000000002
42
-0.41421356237309503
10
117.80000000000008
20
97.100000000000023
10
107.00000000000006
20
97.100000000000023
42
-0.41421356237309503
10
101.00000000000007
20
103.10000000000002
10
101.00000000000007
20
113.90000000000003
42
-0.4142135623730942
10
107.00000000000004
20
119.90000000000003
0
LWPOLYLINE
5
168
100
AcDbEntity
8
0
100
AcDbPolyline
90
8
70
1
43
0.0
10
151.90000000000006
20
134.10000000000002
42
-0.41421356237309592
10
145.90000000000006
20
128.10000000000002
10
135.10000000000008
20
128.10000000000005
42
-0.41421356237309592
10
129.10000000000005
20
134.10000000000002
10
129.10000000000005
20
144.90000000000003
42
-0.41421356237309503
10
135.10000000000005
20
150.90000000000003
10
145.90000000000006
20
150.90000000000001
42
-0.41421356237309503
10
151.90000000000006
20
144.90000000000003
0
LWPOLYLINE
5
169
100
AcDbEntity
8
0
100
AcDbPolyline
90
8
70
1
43
0.0
10
89.700000000000074
20
119.90000000000003
42
-0.4142135623730942
10
95.70000000000006
20
113.90000000000003
10
95.70000000000006
20
103.10000000000002
42
-0.41421356237309503
10
89.70000000000006
20
97.100000000000023
10
78.900000000000034
20
97.100000000000023
42
-0.41421356237309503
10
72.900000000000048
20
103.10000000000002
10
72.900000000000048
20
113.90000000000003
42
-0.4142135623730942
10
78.90000000000002
20
119.90000000000003
0
LWPOLYLINE
5
170
100
AcDbEntity
8
0
100
AcDbPolyline
90
8
70
1
43
0.0
10
123.80000000000008
20
134.10000000000002
42
-0.4142135623730942
10
117.8000000000001
20
128.10000000000002
10
107.00000000000004
20
128.10000000000005
42
-0.4142135623730942
10
101.00000000000007
20
134.10000000000002
10
101.00000000000007
20
144.90000000000003
42
-0.41421356237309503
10
107.00000000000006
20
150.90000000000003
10
117.80000000000008
20
150.90000000000001
42
-0.41421356237309503
10
123.80000000000008
20
144.90000000000003
0
LWPOLYLINE
5
171
100
AcDbEntity
8
0
100
AcDbPolyline
90
8
70
1
43
0.0
10
61.600000000000051
20
119.90000000000003
42
-0.4142135623730942
10
67.600000000000037
20
113.90000000000003
10
67.600000000000037
20
103.10000000000002
42
-0.41421356237309503
10
61.600000000000037
20
97.100000000000023
10
50.800000000000018
20
97.100000000000023
42
-0.41421356237309503
10
44.800000000000026
20
103.10000000000002
10
44.800000000000026
20
113.90000000000003
42
-0.4142135623730942
10
50.799999999999997
20
119.90000000000003
0
LWPOLYLINE
5
172
100
AcDbEntity
8
0
100
AcDbPolyline
90
8
70
1
43
0.0
10
95.70000000000006
20
134.10000000000002
42
-0.4142135623730942
10
89.700000000000074
20
128.10000000000002
10
78.90000000000002
20
128.10000000000005
42
-0.4142135623730942
10
72.900000000000048
20
134.10000000000002
10
72.900000000000048
20
144.90000000000003
42
-0.41421356237309503
10
78.900000000000034
20
150.90000000000003
10
89.70000000000006
20
150.90000000000001
42
-0.41421356237309503
10
95.70000000000006
20
144.90000000000003
0
LWPOLYLINE
5
173
100
AcDbEntity
8
0
100
AcDbPolyline
90
8
70
1
43
0.0
10
33.500000000000028
20
119.90000000000003
42
-0.4142135623730957
10
39.500000000000043
20
113.90000000000003
10
39.500000000000043
20
103.10000000000002
42
-0.41421356237309503
10
33.50000000000005
20
97.100000000000023
10
22.700000000000031
20
97.100000000000023
42
-0.41421356237309481
10
16.700000000000035
20
103.10000000000002
10
16.700000000000038
20
113.90000000000003
42
-0.4142135623730957
10
22.700000000000049
20
119.90000000000003
0
LWPOLYLINE
5
174
100
AcDbEntity
8
0
100
AcDbPolyline
90
8
70
1
43
0.0
10
67.600000000000037
20
134.10000000000002
42
-0.4142135623730942
10
61.600000000000051
20
128.10000000000002
10
50.799999999999997
20
128.10000000000005
42
-0.4142135623730942
10
44.800000000000026
20
134.10000000000002
10
44.800000000000026
20
144.90000000000003
42
-0.41421356237309503
10
50.800000000000018
20
150.90000000000003
10
61.600000000000037
20
150.90000000000001
42
-0.41421356237309503
10
67.600000000000037
20
144.90000000000003
0
LWPOLYLINE
5
175
100
AcDbEntity
8
0
100
AcDbPolyline
90
8
70
1
43
0.0
10
5.4000000000000412
20
119.90000000000003
42
-0.41421356237309498
10
11.400000000000041
20
113.90000000000003
10
11.400000000000038
20
103.10000000000002
42
-0.41421356237309492
10
5.4000000000000439
20
97.100000000000023
10
-5.3999999999999728
20
97.100000000000023
42
-0.41421356237309481
10
-11.39999999999997
20
103.10000000000002
10
-11.399999999999967
20
113.90000000000003
42
-0.41421356237309492
10
-5.3999999999999728
20
119.90000000000003
0
LWPOLYLINE
5
176
100
AcDbEntity
8
0
100
AcDbPolyline
90
8
70
1
43
0.0
10
39.500000000000043
20
134.10000000000002
42
-0.41421356237309592
10
33.500000000000028
20
128.10000000000002
10
22.700000000000049
20
128.10000000000005
42
-0.4142135623730957
10
16.700000000000035
20
134.10000000000002
10
16.700000000000038
20
144.90000000000003
42
-0.41421356237309481
10
22.700000000000031
20
150.90000000000003
10
33.50000000000005
20
150.90000000000001
42
-0.41421356237309481
10
39.500000000000043
20
144.90000000000003
0
LWPOLYLINE
5
177
100
AcDbEntity
8
0
100
AcDbPolyline
90
8
70
1
43
0.0
10
-22.69999999999996
20
119.90000000000003
42
-0.41421356237309481
10
-16.699999999999964
20
113.90000000000003
10
-16.699999999999967
20
103.10000000000002
42
-0.4142135623730957
10
-22.699999999999978
20
97.100000000000023
10
-33.499999999999957
20
97.100000000000023
42
-0.4142135623730957
10
-39.499999999999972
20
103.10000000000002
10
-39.499999999999972
20
113.90000000000003
42
-0.41421356237309503
10
-33.499999999999979
20
119.90000000000003
0
LWPOLYLINE
5
178
100
AcDbEntity
8
0
100
AcDbPolyline
90
8
70
1
43
0.0
10
11.400000000000038
20
134.10000000000002
42
-0.41421356237309481
10
5.4000000000000448
20
128.10000000000002
10
-5.3999999999999728
20
128.10000000000005
42
-0.41421356237309481
10
-11.39999999999997
20
134.10000000000002
10
-11.399999999999967
20
144.90000000000003
42
-0.41421356237309576
10
-5.3999999999999551
20
150.90000000000003
10
5.400000000000027
20
150.90000000000001
42
-0.4142135623730957
10
11.400000000000041
20
144.90000000000003
0
LWPOLYLINE
5
179
100
AcDbEntity
8
0
100
AcDbPolyline
90
8
70
1
43
0.0
10
-50.799999999999969
20
119.90000000000003
42
-0.41421356237309503
10
-44.799999999999969
20
113.90000000000003
10
-44.799999999999969
20
103.10000000000002
42
-0.41421356237309503
10
-50.799999999999969
20
97.100000000000023
10
-61.59999999999998
20
97.100000000000023
42
-0.41421356237309503
10
-67.59999999999998
20
103.10000000000002
10
-67.59999999999998
20
113.90000000000003
42
-0.41421356237309503
10
-61.59999999999998
20
119.90000000000003
0
LWPOLYLINE
5
180
100
AcDbEntity
8
0
100
AcDbPolyline
90
8
70
1
43
0.0
10
-16.699999999999967
20
134.10000000000002
42
-0.41421356237309481
10
-22.69999999999996
20
128.10000000000002
10
-33.499999999999979
20
128.10000000000005
42
-0.41421356237309481
10
-39.499999999999972
20
134.10000000000002
10
-39.499999999999972
20
144.90000000000003
42
-0.41421356237309503
10
-33.499999999999979
20
150.90000000000003
10
-22.69999999999996
20
150.90000000000001
42
-0.41421356237309481
10
-16.699999999999964
20
144.90000000000003
0
LWPOLYLINE
5
181
100
AcDbEntity
8
0
100
AcDbPolyline
90
8
70
1
43
0.0
10
-78.899999999999977
20
119.90000000000003
42
-0.41421356237309503
10
-72.899999999999977
20
113.90000000000003
10
-72.899999999999977
20
103.10000000000002
42
-0.41421356237309592
10
-78.899999999999991
20
97.100000000000023
10
-89.699999999999974
20
97.100000000000023
42
-0.41421356237309592
10
-95.699999999999989
20
103.10000000000002
10
-95.699999999999989
20
113.90000000000003
42
-0.41421356237309503
10
-89.699999999999989
20
119.90000000000003
0
LWPOLYLINE
5
182
100
AcDbEntity
8
0
100
AcDbPolyline
90
8
70
1
43
0.0
10
-44.799999999999969
20
134.10000000000002
42
-0.41421356237309503
10
-50.799999999999969
20
128.10000000000002
10
-61.59999999999998
20
128.10000000000005
42
-0.41421356237309503
10
-67.59999999999998
20
134.10000000000002
10
-67.59999999999998
20
144.90000000000003
42
-0.4142135623730942
10
-61.600000000000001
20
150.90000000000003
10
-50.799999999999947
20
150.90000000000001
42
-0.4142135623730942
10
-44.799999999999969
20
144.90000000000003
0
LWPOLYLINE
5
183
100
AcDbEntity
8
0
100
AcDbPolyline
90
8
70
1
43
0.0
10
-106.99999999999997
20
119.90000000000003
42
-0.41421356237309503
10
-100.99999999999997
20
113.90000000000003
10
-101
20
103.10000000000002
42
-0.41421356237309592
10
-107.00000000000001
20
97.100000000000023
10
-117.8
20
97.100000000000023
42
-0.41421356237309503
10
-123.79999999999998
20
103.10000000000002
10
-123.79999999999997
20
113.90000000000003
42
-0.41421356237309503
10
-117.79999999999998
20
119.90000000000003
0
LWPOLYLINE
5
184
100
AcDbEntity
8
0
100
AcDbPolyline
90
8
70
1
43
0.0
10
-72.899999999999977
20
134.10000000000002
42
-0.41421356237309503
10
-78.899999999999977
20
128.10000000000002
10
-89.699999999999989
20
128.10000000000005
42
-0.41421356237309503
10
-95.699999999999989
20
134.10000000000002
10
-95.699999999999989
20
144.90000000000003
42
-0.41421356237309503
10
-89.699999999999989
20
150.90000000000003
10
-78.899999999999977
20
150.90000000000001
42
-0.41421356237309503
10
-72.899999999999977
20
144.90000000000003
0
LWPOLYLINE
5
185
100
AcDbEntity
8
0
100
AcDbPolyline
90
8
70
1
43
0.0
10
-135.09999999999997
20
119.90000000000003
42
-0.41421356237309503
10
-129.09999999999999
20
113.90000000000003
10
-129.09999999999999
20
103.10000000000002
42
-0.4142135623730942
10
-135.09999999999997
20
97.100000000000023
10
-145.90000000000001
20
97.100000000000023
42
-0.4142135623730942
10
-151.90000000000001
20
103.10000000000002
10
-151.90000000000001
20
113.90000000000003
42
-0.41421356237309503
10
-145.90000000000001
20
119.90000000000003
0
LWPOLYLINE
5
186
100
AcDbEntity
8
0
100
AcDbPolyline
90
8
70
1
43
0.0
10
-101
20
134.10000000000002
42
-0.41421356237309503
10
-107
20
128.10000000000002
10
-117.8
20
128.10000000000005
42
-0.41421356237309503
10
-123.79999999999998
20
134.10000000000002
10
-123.79999999999997
20
144.90000000000003
42
-0.41421356237309503
10
-117.79999999999998
20
150.90000000000003
10
-107
20
150.90000000000001
42
-0.41421356237309592
10
-100.99999999999997
20
144.90000000000003
0
LWPOLYLINE
5
187
100
AcDbEntity
8
0
100
AcDbPolyline
90
8
70
1
43
0.0
10
-145.90000000000001
20
66.100000000000023
42
-0.41421356237309503
10
-151.90000000000001
20
72.100000000000023
10
-151.90000000000001
20
82.900000000000048
42
-0.4142135623730942
10
-145.90000000000001
20
88.900000000000034
10
-135.09999999999997
20
88.90000000000002
42
-0.4142135623730942
10
-129.09999999999999
20
82.900000000000034
10
-129.09999999999999
20
72.100000000000023
42
-0.41421356237309503
10
-135.09999999999997
20
66.100000000000023
0
LWPOLYLINE
5
188
100
AcDbEntity
8
0
100
AcDbPolyline
90
8
70
1
43
0.0
10
-129.09999999999999
20
134.10000000000002
42
-0.41421356237309503
10
-135.09999999999997
20
128.10000000000002
10
-145.90000000000001
20
128.10000000000005
42
-0.41421356237309503
10
-151.90000000000001
20
134.10000000000002
10
-151.90000000000001
20
144.90000000000003
42
-0.41421356237309503
10
-145.90000000000001
20
150.90000000000003
10
-135.09999999999997
20
150.90000000000001
42
-0.41421356237309503
10
-129.09999999999999
20
144.90000000000003
0
LWPOLYLINE
5
189
100
AcDbEntity
8
0
100
AcDbPolyline
90
8
70
1
43
0.0
10
-117.80000000000001
20
66.100000000000023
42
-0.4142135623730942
10
-123.79999999999998
20
72.100000000000023
10
-123.79999999999997
20
82.900000000000048
42
-0.4142135623730942
10
-117.8
20
88.900000000000034
10
-106.99999999999997
20
88.90000000000002
42
-0.41421356237309503
10
-100.99999999999997
20
82.900000000000034
10
-101
20
72.100000000000023
42
-0.41421356237309503
10
-107
20
66.100000000000023
0
LWPOLYLINE
5
190
100
AcDbEntity
8
0
100
AcDbPolyline
90
8
70
1
43
0.0
10
-151.90000000000001
20
51.900000000000048
42
-0.41421356237309503
10
-145.90000000000001
20
57.900000000000048
10
-135.09999999999997
20
57.900000000000048
42
-0.41421356237309503
10
-129.09999999999999
20
51.900000000000048
10
-129.09999999999999
20
41.10000000000003
42
-0.41421356237309503
10
-135.09999999999997
20
35.10000000000003
10
-145.90000000000001
20
35.100000000000037
42
-0.41421356237309503
10
-151.90000000000001
20
41.10000000000003
0
LWPOLYLINE
5
191
100
AcDbEntity
8
0
100
AcDbPolyline
90
8
70
1
43
0.0
10
-89.699999999999989
20
66.100000000000023
42
-0.41421356237309503
10
-95.699999999999989
20
72.100000000000023
10
-95.699999999999989
20
82.900000000000048
42
-0.41421356237309592
10
-89.699999999999974
20
88.900000000000034
10
-78.899999999999991
20
88.90000000000002
42
-0.41421356237309592
10
-72.899999999999977
20
82.900000000000034
10
-72.899999999999977
20
72.100000000000023
42
-0.41421356237309503
10
-78.899999999999977
20
66.100000000000023
0
LWPOLYLINE
5
192
100
AcDbEntity
8
0
100
AcDbPolyline
90
8
70
1
43
0.0
10
-123.79999999999997
20
51.900000000000048
42
-0.41421356237309503
10
-117.79999999999998
20
57.900000000000048
10
-106.99999999999996
20
57.900000000000048
42
-0.4142135623730942
10
-100.99999999999997
20
51.900000000000048
10
-101
20
41.10000000000003
42
-0.41421356237309503
10
-107
20
35.10000000000003
10
-117.80000000000001
20
35.100000000000037
42
-0.4142135623730942
10
-123.79999999999998
20
41.10000000000003
0
LWPOLYLINE
5
193
100
AcDbEntity
8
0
100
AcDbPolyline
90
8
70
1
43
0.0
10
-61.599999999999966
20
66.100000000000023
42
-0.41421356237309592
10
-67.59999999999998
20
72.100000000000023
10
-67.59999999999998
20
82.900000000000048
42
-0.41421356237309503
10
-61.59999999999998
20
88.900000000000034
10
-50.799999999999969
20
88.90000000000002
42
-0.41421356237309503
10
-44.799999999999969
20
82.900000000000034
10
-44.799999999999969
20
72.100000000000023
42
-0.41421356237309592
10
-50.799999999999983
20
66.100000000000023
0
LWPOLYLINE
5
194
100
AcDbEntity
8
0
100
AcDbPolyline
90
8
70
1
43
0.0
10
-95.699999999999989
20
51.900000000000048
42
-0.41421356237309503
10
-89.699999999999989
20
57.900000000000048
10
-78.899999999999977
20
57.900000000000048
42
-0.41421356237309503
10
-72.899999999999977
20
51.900000000000048
10
-72.899999999999977
20
41.10000000000003
42
-0.41421356237309503
10
-78.899999999999977
20
35.10000000000003
10
-89.699999999999989
20
35.100000000000037
42
-0.41421356237309503
10
-95.699999999999989
20
41.10000000000003
0
LWPOLYLINE
5
195
100
AcDbEntity
8
0
100
AcDbPolyline
90
8
70
1
43
0.0
10
-33.499999999999979
20
66.100000000000023
42
-0.41421356237309481
10
-39.499999999999972
20
72.100000000000023
10
-39.499999999999972
20
82.900000000000048
42
-0.4142135623730942
10
-33.5
20
88.900000000000034
10
-22.699999999999978
20
88.90000000000002
42
-0.4142135623730957
10
-16.699999999999964
20
82.900000000000034
10
-16.699999999999967
20
72.100000000000023
42
-0.41421356237309481
10
-22.69999999999996
20
66.100000000000023
0
LWPOLYLINE
5
196
100
AcDbEntity
8
0
100
AcDbPolyline
90
8
70
1
43
0.0
10
-67.59999999999998
20
51.900000000000048
42
-0.41421356237309592
10
-61.599999999999966
20
57.900000000000048
10
-50.799999999999983
20
57.900000000000048
42
-0.41421356237309592
10
-44.799999999999969
20
51.900000000000048
10
-44.799999999999969
20
41.10000000000003
42
-0.41421356237309592
10
-50.799999999999983
20
35.10000000000003
10
-61.599999999999966
20
35.100000000000037
42
-0.41421356237309592
10
-67.59999999999998
20
41.10000000000003
0
LWPOLYLINE
5
197
100
AcDbEntity
8
0
100
AcDbPolyline
90
8
70
1
43
0.0
10
-5.3999999999999728
20
66.100000000000023
42
-0.41421356237309481
10
-11.39999999999997
20
72.100000000000023
10
-11.399999999999967
20
82.900000000000048
42
-0.41421356237309481
10
-5.3999999999999737
20
88.900000000000034
10
5.4000000000000439
20
88.90000000000002
42
-0.41421356237309481
10
11.400000000000041
20
82.900000000000034
10
11.400000000000038
20
72.100000000000023
42
-0.41421356237309492
10
5.4000000000000439
20
66.100000000000023
0
LWPOLYLINE
5
198
100
AcDbEntity
8
0
100
AcDbPolyline
90
8
70
1
43
0.0
10
-39.499999999999972
20
51.900000000000048
42
-0.41421356237309503
10
-33.499999999999979
20
57.900000000000048
10
-22.69999999999996
20
57.900000000000048
42
-0.41421356237309481
10
-16.699999999999964
20
51.900000000000048
10
-16.699999999999964
20
41.10000000000003
42
-0.41421356237309481
10
-22.69999999999996
20
35.10000000000003
10
-33.499999999999979
20
35.10000000000003
42
-0.41421356237309481
10
-39.499999999999972
20
41.10000000000003
0
LWPOLYLINE
5
199
100
AcDbEntity
8
0
100
AcDbPolyline
90
8
70
1
43
0.0
10
22.700000000000031
20
66.100000000000023
42
-0.41421356237309481
10
16.700000000000035
20
72.100000000000023
10
16.700000000000038
20
82.900000000000048
42
-0.41421356237309481
10
22.700000000000031
20
88.900000000000034
10
33.50000000000005
20
88.90000000000002
42
-0.41421356237309481
10
39.500000000000043
20
82.900000000000034
10
39.500000000000043
20
72.100000000000023
42
-0.41421356237309503
10
33.50000000000005
20
66.100000000000023
0
LWPOLYLINE
5
200
100
AcDbEntity
8
0
100
AcDbPolyline
90
8
70
1
43
0.0
10
-11.399999999999967
20
51.900000000000048
42
-0.41421356237309492
10
-5.3999999999999728
20
57.900000000000048
10
5.4000000000000439
20
57.900000000000048
42
-0.41421356237309481
10
11.400000000000041
20
51.900000000000048
10
11.400000000000041
20
41.10000000000003
42
-0.41421356237309492
10
5.4000000000000439
20
35.10000000000003
10
-5.3999999999999728
20
35.10000000000003
42
-0.41421356237309481
10
-11.39999999999997
20
41.10000000000003
0
LWPOLYLINE
5
201
100
AcDbEntity
8
0
100
AcDbPolyline
90
8
70
1
43
0.0
10
50.800000000000018
20
66.100000000000023
42
-0.41421356237309503
10
44.800000000000026
20
72.100000000000023
10
44.800000000000026
20
82.900000000000048
42
-0.41421356237309503
10
50.800000000000018
20
88.900000000000034
10
61.600000000000037
20
88.90000000000002
42
-0.41421356237309503
10
67.600000000000037
20
82.900000000000034
10
67.600000000000037
20
72.100000000000023
42
-0.41421356237309503
10
61.600000000000037
20
66.100000000000023
0
LWPOLYLINE
5
202
100
AcDbEntity
8
0
100
AcDbPolyline
90
8
70
1
43
0.0
10
16.700000000000038
20
51.900000000000048
42
-0.41421356237309481
10
22.700000000000031
20
57.900000000000048
10
33.50000000000005
20
57.900000000000048
42
-0.41421356237309481
10
39.500000000000043
20
51.900000000000048
10
39.50000000000005
20
41.10000000000003
42
-0.41421356237309503
10
33.50000000000005
20
35.10000000000003
10
22.700000000000031
20
35.10000000000003
42
-0.41421356237309481
10
16.700000000000035
20
41.10000000000003
0
LWPOLYLINE
5
203
100
AcDbEntity
8
0
100
AcDbPolyline
90
8
70
1
43
0.0
10
78.900000000000034
20
66.100000000000023
42
-0.41421356237309503
10
72.900000000000048
20
72.100000000000023
10
72.900000000000048
20
82.900000000000048
42
-0.41421356237309503
10
78.900000000000034
20
88.900000000000034
10
89.70000000000006
20
88.90000000000002
42
-0.41421356237309503
10
95.70000000000006
20
82.900000000000034
10
95.70000000000006
20
72.100000000000023
42
-0.41421356237309503
10
89.70000000000006
20
66.100000000000023
0
LWPOLYLINE
5
204
100
AcDbEntity
8
0
100
AcDbPolyline
90
8
70
1
43
0.0
10
44.800000000000026
20
51.900000000000048
42
-0.41421356237309503
10
50.800000000000018
20
57.900000000000048
10
61.600000000000037
20
57.900000000000048
42
-0.41421356237309503
10
67.600000000000037
20
51.900000000000048
10
67.600000000000037
20
41.10000000000003
42
-0.41421356237309503
10
61.600000000000037
20
35.10000000000003
10
50.800000000000018
20
35.100000000000037
42
-0.41421356237309503
10
44.800000000000026
20
41.10000000000003
0
LWPOLYLINE
5
205
100
AcDbEntity
8
0
100
AcDbPolyline
90
8
70
1
43
0.0
10
107.00000000000006
20
66.100000000000023
42
-0.41421356237309503
10
101.00000000000007
20
72.100000000000023
10
101.00000000000007
20
82.900000000000048
42
-0.41421356237309503
10
107.00000000000006
20
88.900000000000034
10
117.80000000000008
20
88.90000000000002
42
-0.41421356237309503
10
123.80000000000008
20
82.900000000000034
10
123.80000000000008
20
72.100000000000023
42
-0.41421356237309503
10
117.80000000000008
20
66.100000000000023
0
LWPOLYLINE
5
206
100
AcDbEntity
8
0
100
AcDbPolyline
90
8
70
1
43
0.0
10
72.900000000000048
20
51.900000000000048
42
-0.41421356237309503
10
78.900000000000034
20
57.900000000000048
10
89.70000000000006
20
57.900000000000048
42
-0.41421356237309503
10
95.70000000000006
20
51.900000000000048
10
95.70000000000006
20
41.10000000000003
42
-0.41421356237309503
10
89.70000000000006
20
35.10000000000003
10
78.900000000000034
20
35.100000000000037
42
-0.41421356237309503
10
72.900000000000048
20
41.10000000000003
0
LWPOLYLINE
5
207
100
AcDbEntity
8
0
100
AcDbPolyline
90
8
70
1
43
0.0
10
135.10000000000005
20
66.100000000000023
42
-0.41421356237309503
10
129.10000000000005
20
72.100000000000023
10
129.10000000000005
20
82.900000000000048
42
-0.41421356237309503
10
135.10000000000005
20
88.900000000000034
10
145.90000000000006
20
88.90000000000002
42
-0.41421356237309503
10
151.90000000000006
20
82.900000000000034
10
151.90000000000006
20
72.100000000000023
42
-0.41421356237309503
10
145.90000000000006
20
66.100000000000023
0
LWPOLYLINE
5
208
100
AcDbEntity
8
0
100
AcDbPolyline
90
8
70
1
43
0.0
10
101.00000000000007
20
51.900000000000048
42
-0.41421356237309503
10
107.00000000000006
20
57.900000000000048
10
117.80000000000008
20
57.900000000000048
42
-0.41421356237309503
10
123.80000000000008
20
51.900000000000048
10
123.80000000000008
20
41.10000000000003
42
-0.41421356237309503
10
117.80000000000008
20
35.10000000000003
10
107.00000000000006
20
35.100000000000037
42
-0.41421356237309503
10
101.00000000000007
20
41.10000000000003
0
LWPOLYLINE
5
209
100
AcDbEntity
8
0
100
AcDbPolyline
90
8
70
1
43
0.0
10
129.10000000000005
20
-134.09999999999994
42
-0.41421356237309503
10
135.10000000000005
20
-128.09999999999997
10
145.90000000000006
20
-128.09999999999997
42
-0.41421356237309503
10
151.90000000000006
20
-134.09999999999997
10
151.90000000000006
20
-144.89999999999998
42
-0.41421356237309503
10
145.90000000000006
20
-150.89999999999998
10
135.10000000000005
20
-150.89999999999995
42
-0.41421356237309503
10
129.10000000000005
20
-144.89999999999995
0
LWPOLYLINE
5
210
100
AcDbEntity
8
0
100
AcDbPolyline
90
8
70
1
43
0.0
10
101.00000000000007
20
-134.09999999999994
42
-0.41421356237309503
10
107.00000000000006
20
-128.09999999999997
10
117.80000000000008
20
-128.09999999999997
42
-0.41421356237309503
10
123.80000000000008
20
-134.09999999999997
10
123.80000000000008
20
-144.89999999999998
42
-0.41421356237309503
10
117.80000000000008
20
-150.89999999999998
10
107.00000000000006
20
-150.89999999999995
42
-0.41421356237309503
10
101.00000000000007
20
-144.89999999999995
0
LWPOLYLINE
5
211
100
AcDbEntity
8
0
100
AcDbPolyline
90
8
70
1
43
0.0
10
135.10000000000005
20
-119.89999999999993
42
-0.41421356237309503
10
129.10000000000005
20
-113.89999999999993
10
129.10000000000005
20
-103.09999999999994
42
-0.41421356237309592
10
135.10000000000008
20
-97.099999999999937
10
145.90000000000006
20
-97.099999999999952
42
-0.41421356237309592
10
151.90000000000006
20
-103.09999999999995
10
151.90000000000006
20
-113.89999999999995
42
-0.41421356237309503
10
145.90000000000006
20
-119.89999999999995
0
LWPOLYLINE
5
212
100
AcDbEntity
8
0
100
AcDbPolyline
90
8
70
1
43
0.0
10
72.900000000000048
20
-134.09999999999994
42
-0.41421356237309503
10
78.900000000000034
20
-128.09999999999997
10
89.70000000000006
20
-128.09999999999997
42
-0.41421356237309503
10
95.70000000000006
20
-134.09999999999997
10
95.70000000000006
20
-144.89999999999998
42
-0.41421356237309503
10
89.70000000000006
20
-150.89999999999998
10
78.900000000000034
20
-150.89999999999995
42
-0.41421356237309503
10
72.900000000000048
20
-144.89999999999995
0
LWPOLYLINE
5
213
100
AcDbEntity
8
0
100
AcDbPolyline
90
8
70
1
43
0.0
10
107.00000000000006
20
-119.89999999999993
42
-0.41421356237309503
10
101.00000000000007
20
-113.89999999999993
10
101.00000000000007
20
-103.09999999999994
42
-0.4142135623730942
10
107.00000000000004
20
-97.099999999999937
10
117.8000000000001
20
-97.099999999999952
42
-0.4142135623730942
10
123.80000000000008
20
-103.09999999999995
10
123.80000000000008
20
-113.89999999999995
42
-0.41421356237309503
10
117.80000000000008
20
-119.89999999999995
0
LWPOLYLINE
5
214
100
AcDbEntity
8
0
100
AcDbPolyline
90
8
70
1
43
0.0
10
44.800000000000026
20
-134.09999999999994
42
-0.41421356237309503
10
50.800000000000018
20
-128.09999999999997
10
61.600000000000037
20
-128.09999999999997
42
-0.41421356237309503
10
67.600000000000037
20
-134.09999999999997
10
67.600000000000037
20
-144.89999999999998
42
-0.41421356237309503
10
61.600000000000037
20
-150.89999999999998
10
50.800000000000018
20
-150.89999999999995
42
-0.41421356237309503
10
44.800000000000026
20
-144.89999999999995
0
LWPOLYLINE
5
215
100
AcDbEntity
8
0
100
AcDbPolyline
90
8
70
1
43
0.0
10
78.900000000000034
20
-119.89999999999993
42
-0.41421356237309503
10
72.900000000000048
20
-113.89999999999993
10
72.900000000000048
20
-103.09999999999994
42
-0.4142135623730942
10
78.90000000000002
20
-97.099999999999937
10
89.700000000000074
20
-97.099999999999952
42
-0.4142135623730942
10
95.70000000000006
20
-103.09999999999995
10
95.70000000000006
20
-113.89999999999995
42
-0.41421356237309503
10
89.70000000000006
20
-119.89999999999995
0
LWPOLYLINE
5
216
100
AcDbEntity
8
0
100
AcDbPolyline
90
8
70
1
43
0.0
10
16.700000000000038
20
-134.09999999999994
42
-0.41421356237309481
10
22.700000000000031
20
-128.09999999999997
10
33.50000000000005
20
-128.09999999999997
42
-0.41421356237309481
10
39.500000000000043
20
-134.09999999999997
10
39.500000000000043
20
-144.89999999999998
42
-0.41421356237309503
10
33.50000000000005
20
-150.89999999999998
10
22.700000000000031
20
-150.89999999999995
42
-0.41421356237309481
10
16.700000000000035
20
-144.89999999999995
0
LWPOLYLINE
5
217
100
AcDbEntity
8
0
100
AcDbPolyline
90
8
70
1
43
0.0
10
50.800000000000018
20
-119.89999999999993
42
-0.41421356237309503
10
44.800000000000026
20
-113.89999999999993
10
44.800000000000026
20
-103.09999999999994
42
-0.4142135623730942
10
50.799999999999997
20
-97.099999999999937
10
61.600000000000051
20
-97.099999999999952
42
-0.4142135623730942
10
67.600000000000037
20
-103.09999999999995
10
67.600000000000037
20
-113.89999999999995
42
-0.41421356237309503
10
61.600000000000037
20
-119.89999999999995
0
LWPOLYLINE
5
218
100
AcDbEntity
8
0
100
AcDbPolyline
90
8
70
1
43
0.0
10
-11.399999999999967
20
-134.09999999999994
42
-0.41421356237309481
10
-5.3999999999999737
20
-128.09999999999997
10
5.4000000000000439
20
-128.09999999999997
42
-0.41421356237309481
10
11.400000000000041
20
-134.09999999999997
10
11.400000000000038
20
-144.89999999999998
42
-0.41421356237309576
10
5.4000000000000261
20
-150.89999999999998
10
-5.3999999999999559
20
-150.89999999999995
42
-0.4142135623730957
10
-11.39999999999997
20
-144.89999999999995
0
LWPOLYLINE
5
219
100
AcDbEntity
8
0
100
AcDbPolyline
90
8
70
1
43
0.0
10
22.700000000000031
20
-119.89999999999993
42
-0.41421356237309481
10
16.700000000000035
20
-113.89999999999993
10
16.700000000000038
20
-103.09999999999994
42
-0.4142135623730957
10
22.700000000000049
20
-97.099999999999937
10
33.500000000000028
20
-97.099999999999952
42
-0.4142135623730957
10
39.500000000000043
20
-103.09999999999995
10
39.500000000000043
20
-113.89999999999995
42
-0.41421356237309503
10
33.50000000000005
20
-119.89999999999995
0
LWPOLYLINE
5
220
100
AcDbEntity
8
0
100
AcDbPolyline
90
8
70
1
43
0.0
10
-39.499999999999972
20
-134.09999999999994
42
-0.41421356237309503
10
-33.499999999999979
20
-128.09999999999997
10
-22.69999999999996
20
-128.09999999999997
42
-0.41421356237309481
10
-16.699999999999964
20
-134.09999999999997
10
-16.699999999999967
20
-144.89999999999998
42
-0.41421356237309481
10
-22.69999999999996
20
-150.89999999999998
10
-33.499999999999979
20
-150.89999999999995
42
-0.41421356237309481
10
-39.499999999999972
20
-144.89999999999995
0
LWPOLYLINE
5
221
100
AcDbEntity
8
0
100
AcDbPolyline
90
8
70
1
43
0.0
10
-5.3999999999999702
20
-119.89999999999993
42
-0.41421356237309498
10
-11.39999999999997
20
-113.89999999999993
10
-11.399999999999967
20
-103.09999999999994
42
-0.41421356237309481
10
-5.3999999999999737
20
-97.099999999999937
10
5.4000000000000439
20
-97.099999999999952
42
-0.41421356237309481
10
11.400000000000041
20
-103.09999999999995
10
11.400000000000038
20
-113.89999999999995
42
-0.41421356237309481
10
5.4000000000000448
20
-119.89999999999995
0
LWPOLYLINE
5
222
100
AcDbEntity
8
0
100
AcDbPolyline
90
8
70
1
43
0.0
10
-67.59999999999998
20
-134.09999999999994
42
-0.41421356237309592
10
-61.599999999999966
20
-128.09999999999997
10
-50.799999999999983
20
-128.09999999999997
42
-0.41421356237309592
10
-44.799999999999969
20
-134.09999999999997
10
-44.799999999999969
20
-144.89999999999998
42
-0.41421356237309592
10
-50.799999999999983
20
-150.89999999999998
10
-61.599999999999966
20
-150.89999999999995
42
-0.41421356237309592
10
-67.59999999999998
20
-144.89999999999995
0
LWPOLYLINE
5
223
100
AcDbEntity
8
0
100
AcDbPolyline
90
8
70
1
43
0.0
10
-33.499999999999979
20
-119.89999999999993
42
-0.41421356237309481
10
-39.499999999999972
20
-113.89999999999993
10
-39.499999999999972
20
-103.09999999999994
42
-0.41421356237309503
10
-33.499999999999979
20
-97.099999999999937
10
-22.69999999999996
20
-97.099999999999952
42
-0.41421356237309481
10
-16.699999999999964
20
-103.09999999999995
10
-16.699999999999967
20
-113.89999999999995
42
-0.41421356237309481
10
-22.69999999999996
20
-119.89999999999995
0
LWPOLYLINE
5
224
100
AcDbEntity
8
0
100
AcDbPolyline
90
8
70
1
43
0.0
10
-95.699999999999989
20
-134.09999999999994
42
-0.41421356237309503
10
-89.699999999999989
20
-128.09999999999997
10
-78.899999999999977
20
-128.09999999999997
42
-0.41421356237309503
10
-72.899999999999977
20
-134.09999999999997
10
-72.899999999999977
20
-144.89999999999998
42
-0.41421356237309503
10
-78.899999999999977
20
-150.89999999999998
10
-89.699999999999989
20
-150.89999999999995
42
-0.41421356237309503
10
-95.699999999999989
20
-144.89999999999995
0
LWPOLYLINE
5
225
100
AcDbEntity
8
0
100
AcDbPolyline
90
8
70
1
43
0.0
10
-61.599999999999966
20
-119.89999999999993
42
-0.41421356237309592
10
-67.59999999999998
20
-113.89999999999993
10
-67.59999999999998
20
-103.09999999999994
42
-0.41421356237309503
10
-61.59999999999998
20
-97.099999999999937
10
-50.799999999999969
20
-97.099999999999952
42
-0.41421356237309503
10
-44.799999999999969
20
-103.09999999999995
10
-44.799999999999969
20
-113.89999999999995
42
-0.41421356237309592
10
-50.799999999999983
20
-119.89999999999995
0
LWPOLYLINE
5
226
100
AcDbEntity
8
0
100
AcDbPolyline
90
8
70
1
43
0.0
10
-123.79999999999997
20
-134.09999999999994
42
-0.41421356237309503
10
-117.79999999999998
20
-128.09999999999997
10
-106.99999999999996
20
-128.09999999999997
42
-0.4142135623730942
10
-100.99999999999997
20
-134.09999999999997
10
-101
20
-144.89999999999998
42
-0.41421356237309503
10
-107
20
-150.89999999999998
10
-117.80000000000001
20
-150.89999999999995
42
-0.4142135623730942
10
-123.79999999999998
20
-144.89999999999995
0
LWPOLYLINE
5
227
100
AcDbEntity
8
0
100
AcDbPolyline
90
8
70
1
43
0.0
10
-89.699999999999989
20
-119.89999999999993
42
-0.41421356237309503
10
-95.699999999999989
20
-113.89999999999993
10
-95.699999999999989
20
-103.09999999999994
42
-0.41421356237309503
10
-89.699999999999989
20
-97.099999999999937
10
-78.899999999999977
20
-97.099999999999952
42
-0.41421356237309503
10
-72.899999999999977
20
-103.09999999999995
10
-72.899999999999977
20
-113.89999999999995
42
-0.41421356237309503
10
-78.899999999999977
20
-119.89999999999995
0
LWPOLYLINE
5
228
100
AcDbEntity
8
0
100
AcDbPolyline
90
8
70
1
43
0.0
10
-151.90000000000001
20
-134.09999999999994
42
-0.41421356237309503
10
-145.90000000000001
20
-128.09999999999997
10
-135.09999999999997
20
-128.09999999999997
42
-0.41421356237309503
10
-129.09999999999999
20
-134.09999999999997
10
-129.09999999999999
20
-144.89999999999998
42
-0.41421356237309503
10
-135.09999999999997
20
-150.89999999999998
10
-145.90000000000001
20
-150.89999999999995
42
-0.41421356237309503
10
-151.90000000000001
20
-144.89999999999995
0
LWPOLYLINE
5
229
100
AcDbEntity
8
0
100
AcDbPolyline
90
8
70
1
43
0.0
10
-117.80000000000001
20
-119.89999999999993
42
-0.4142135623730942
10
-123.79999999999998
20
-113.89999999999993
10
-123.79999999999997
20
-103.09999999999994
42
-0.41421356237309503
10
-117.79999999999998
20
-97.099999999999937
10
-106.99999999999997
20
-97.099999999999952
42
-0.41421356237309503
10
-100.99999999999997
20
-103.09999999999995
10
-101
20
-113.89999999999995
42
-0.41421356237309503
10
-107
20
-119.89999999999995
0
LWPOLYLINE
5
230
100
AcDbEntity
8
0
100
AcDbPolyline
90
8
70
1
43
0.0
10
129.10000000000005
20
-72.099999999999923
42
-0.41421356237309503
10
135.10000000000005
20
-66.099999999999923
10
145.90000000000006
20
-66.099999999999923
42
-0.41421356237309503
10
151.90000000000006
20
-72.099999999999923
10
151.90000000000006
20
-82.899999999999935
42
-0.41421356237309592
10
145.90000000000006
20
-88.899999999999935
10
135.10000000000008
20
-88.89999999999992
42
-0.41421356237309592
10
129.10000000000005
20
-82.89999999999992
0
LWPOLYLINE
5
231
100
AcDbEntity
8
0
100
AcDbPolyline
90
8
70
1
43
0.0
10
-145.90000000000001
20
-119.89999999999993
42
-0.41421356237309503
10
-151.90000000000001
20
-113.89999999999993
10
-151.90000000000001
20
-103.09999999999994
42
-0.41421356237309503
10
-145.90000000000001
20
-97.099999999999937
10
-135.09999999999997
20
-97.099999999999952
42
-0.41421356237309503
10
-129.09999999999999
20
-103.09999999999995
10
-129.09999999999999
20
-113.89999999999995
42
-0.41421356237309503
10
-135.09999999999997
20
-119.89999999999995
0
LWPOLYLINE
5
232
100
AcDbEntity
8
0
100
AcDbPolyline
90
8
70
1
43
0.0
10
135.10000000000005
20
-57.899999999999956
42
-0.41421356237309503
10
129.10000000000005
20
-51.899999999999963
10
129.10000000000005
20
-41.099999999999937
42
-0.41421356237309503
10
135.10000000000005
20
-35.099999999999937
10
145.90000000000006
20
-35.099999999999945
42
-0.41421356237309503
10
151.90000000000006
20
-41.099999999999937
10
151.90000000000006
20
-51.899999999999963
42
-0.41421356237309503
10
145.90000000000006
20
-57.899999999999956
0
LWPOLYLINE
5
233
100
AcDbEntity
8
0
100
AcDbPolyline
90
8
70
1
43
0.0
10
101.00000000000007
20
-72.099999999999923
42
-0.41421356237309503
10
107.00000000000006
20
-66.099999999999923
10
117.80000000000008
20
-66.099999999999923
42
-0.41421356237309503
10
123.80000000000008
20
-72.099999999999923
10
123.80000000000008
20
-82.899999999999935
42
-0.4142135623730942
10
117.8000000000001
20
-88.899999999999935
10
107.00000000000004
20
-88.89999999999992
42
-0.4142135623730942
10
101.00000000000007
20
-82.89999999999992
0
LWPOLYLINE
5
234
100
AcDbEntity
8
0
100
AcDbPolyline
90
8
70
1
43
0.0
10
107.00000000000006
20
-57.899999999999956
42
-0.41421356237309503
10
101.00000000000007
20
-51.899999999999963
10
101.00000000000007
20
-41.099999999999937
42
-0.41421356237309503
10
107.00000000000006
20
-35.099999999999937
10
117.80000000000008
20
-35.099999999999945
42
-0.41421356237309503
10
123.80000000000008
20
-41.099999999999937
10
123.80000000000008
20
-51.899999999999963
42
-0.41421356237309503
10
117.80000000000008
20
-57.899999999999956
0
LWPOLYLINE
5
235
100
AcDbEntity
8
0
100
AcDbPolyline
90
8
70
1
43
0.0
10
72.900000000000048
20
-72.099999999999923
42
-0.41421356237309503
10
78.900000000000034
20
-66.099999999999923
10
89.70000000000006
20
-66.099999999999923
42
-0.41421356237309503
10
95.70000000000006
20
-72.099999999999923
10
95.70000000000006
20
-82.899999999999935
42
-0.4142135623730942
10
89.700000000000074
20
-88.899999999999935
10
78.90000000000002
20
-88.89999999999992
42
-0.4142135623730942
10
72.900000000000048
20
-82.89999999999992
0
LWPOLYLINE
5
236
100
AcDbEntity
8
0
100
AcDbPolyline
90
8
70
1
43
0.0
10
78.900000000000034
20
-57.899999999999956
42
-0.41421356237309503
10
72.900000000000048
20
-51.899999999999963
10
72.900000000000048
20
-41.099999999999937
42
-0.41421356237309503
10
78.900000000000034
20
-35.099999999999937
10
89.70000000000006
20
-35.099999999999945
42
-0.41421356237309503
10
95.70000000000006
20
-41.099999999999937
10
95.70000000000006
20
-51.899999999999963
42
-0.41421356237309503
10
89.70000000000006
20
-57.899999999999956
0
LWPOLYLINE
5
237
100
AcDbEntity
8
0
100
AcDbPolyline
90
8
70
1
43
0.0
10
44.800000000000026
20
-72.099999999999923
42
-0.41421356237309503
10
50.800000000000018
20
-66.099999999999923
10
61.600000000000037
20
-66.099999999999923
42
-0.41421356237309503
10
67.600000000000037
20
-72.099999999999923
10
67.600000000000037
20
-82.899999999999935
42
-0.4142135623730942
10
61.600000000000051
20
-88.899999999999935
10
50.799999999999997
20
-88.89999999999992
42
-0.4142135623730942
10
44.800000000000026
20
-82.89999999999992
0
LWPOLYLINE
5
238
100
AcDbEntity
8
0
100
AcDbPolyline
90
8
70
1
43
0.0
10
50.800000000000018
20
-57.899999999999956
42
-0.41421356237309503
10
44.800000000000026
20
-51.899999999999963
10
44.800000000000026
20
-41.099999999999937
42
-0.41421356237309503
10
50.800000000000018
20
-35.099999999999937
10
61.600000000000037
20
-35.099999999999945
42
-0.41421356237309503
10
67.600000000000037
20
-41.099999999999937
10
67.600000000000037
20
-51.899999999999963
42
-0.41421356237309503
10
61.600000000000037
20
-57.899999999999956
0
LWPOLYLINE
5
239
100
AcDbEntity
8
0
100
AcDbPolyline
90
8
70
1
43
0.0
10
16.700000000000038
20
-72.099999999999923
42
-0.41421356237309481
10
22.700000000000031
20
-66.099999999999923
10
33.50000000000005
20
-66.099999999999923
42
-0.41421356237309481
10
39.500000000000043
20
-72.099999999999923
10
39.500000000000043
20
-82.899999999999935
42
-0.41421356237309592
10
33.500000000000028
20
-88.899999999999935
10
22.700000000000049
20
-88.89999999999992
42
-0.4142135623730957
10
16.700000000000035
20
-82.89999999999992
0
LWPOLYLINE
5
240
100
AcDbEntity
8
0
100
AcDbPolyline
90
8
70
1
43
0.0
10
22.700000000000031
20
-57.899999999999956
42
-0.41421356237309481
10
16.700000000000035
20
-51.899999999999963
10
16.700000000000035
20
-41.099999999999937
42
-0.41421356237309481
10
22.700000000000031
20
-35.099999999999937
10
33.50000000000005
20
-35.099999999999937
42
-0.41421356237309481
10
39.500000000000043
20
-41.099999999999937
10
39.500000000000043
20
-51.899999999999963
42
-0.41421356237309503
10
33.50000000000005
20
-57.899999999999956
0
LWPOLYLINE
5
241
100
AcDbEntity
8
0
100
AcDbPolyline
90
8
70
1
43
0.0
10
-11.399999999999967
20
-72.099999999999923
42
-0.41421356237309492
10
-5.3999999999999728
20
-66.099999999999923
10
5.4000000000000439
20
-66.099999999999923
42
-0.41421356237309481
10
11.400000000000041
20
-72.099999999999923
10
11.400000000000038
20
-82.899999999999935
42
-0.41421356237309481
10
5.4000000000000448
20
-88.899999999999935
10
-5.3999999999999728
20
-88.89999999999992
42
-0.41421356237309481
10
-11.39999999999997
20
-82.89999999999992
0
LWPOLYLINE
5
242
100
AcDbEntity
8
0
100
AcDbPolyline
90
8
70
1
43
0.0
10
-5.3999999999999728
20
-57.899999999999956
42
-0.41421356237309481
10
-11.39999999999997
20
-51.899999999999963
10
-11.39999999999997
20
-41.099999999999937
42
-0.41421356237309492
10
-5.3999999999999728
20
-35.099999999999937
10
5.4000000000000439
20
-35.099999999999937
42
-0.41421356237309481
10
11.400000000000041
20
-41.099999999999937
10
11.400000000000038
20
-51.899999999999963
42
-0.41421356237309492
10
5.4000000000000439
20
-57.899999999999956
0
LWPOLYLINE
5
243
100
AcDbEntity
8
0
100
AcDbPolyline
90
8
70
1
43
0.0
10
-39.499999999999972
20
-72.099999999999923
42
-0.41421356237309592
10
-33.499999999999957
20
-66.099999999999923
10
-22.699999999999978
20
-66.099999999999923
42
-0.4142135623730957
10
-16.699999999999964
20
-72.099999999999923
10
-16.699999999999967
20
-82.899999999999935
42
-0.41421356237309481
10
-22.69999999999996
20
-88.899999999999935
10
-33.499999999999979
20
-88.89999999999992
42
-0.41421356237309481
10
-39.499999999999972
20
-82.89999999999992
0
LWPOLYLINE
5
244
100
AcDbEntity
8
0
100
AcDbPolyline
90
8
70
1
43
0.0
10
-33.499999999999957
20
-57.899999999999956
42
-0.4142135623730957
10
-39.499999999999972
20
-51.899999999999963
10
-39.499999999999979
20
-41.099999999999937
42
-0.41421356237309503
10
-33.499999999999979
20
-35.099999999999937
10
-22.69999999999996
20
-35.099999999999937
42
-0.41421356237309481
10
-16.699999999999964
20
-41.099999999999937
10
-16.699999999999967
20
-51.899999999999963
42
-0.4142135623730957
10
-22.699999999999978
20
-57.899999999999956
0
LWPOLYLINE
5
245
100
AcDbEntity
8
0
100
AcDbPolyline
90
8
70
1
43
0.0
10
-67.59999999999998
20
-72.099999999999923
42
-0.41421356237309503
10
-61.59999999999998
20
-66.099999999999923
10
-50.799999999999969
20
-66.099999999999923
42
-0.41421356237309503
10
-44.799999999999969
20
-72.099999999999923
10
-44.799999999999969
20
-82.899999999999935
42
-0.41421356237309503
10
-50.799999999999969
20
-88.899999999999935
10
-61.59999999999998
20
-88.89999999999992
42
-0.41421356237309503
10
-67.59999999999998
20
-82.89999999999992
0
LWPOLYLINE
5
246
100
AcDbEntity
8
0
100
AcDbPolyline
90
8
70
1
43
0.0
10
-61.59999999999998
20
-57.899999999999956
42
-0.41421356237309503
10
-67.59999999999998
20
-51.899999999999963
10
-67.59999999999998
20
-41.099999999999937
42
-0.41421356237309592
10
-61.599999999999966
20
-35.099999999999937
10
-50.799999999999983
20
-35.099999999999945
42
-0.41421356237309592
10
-44.799999999999969
20
-41.099999999999937
10
-44.799999999999969
20
-51.899999999999963
42
-0.41421356237309503
10
-50.799999999999969
20
-57.899999999999956
0
LWPOLYLINE
5
247
100
AcDbEntity
8
0
100
AcDbPolyline
90
8
70
1
43
0.0
10
-95.699999999999989
20
-72.099999999999923
42
-0.4142135623730942
10
-89.700000000000003
20
-66.099999999999923
10
-78.899999999999949
20
-66.099999999999923
42
-0.4142135623730942
10
-72.899999999999977
20
-72.099999999999923
10
-72.899999999999977
20
-82.899999999999935
42
-0.41421356237309503
10
-78.899999999999977
20
-88.899999999999935
10
-89.699999999999989
20
-88.89999999999992
42
-0.41421356237309503
10
-95.699999999999989
20
-82.89999999999992
0
LWPOLYLINE
5
248
100
AcDbEntity
8
0
100
AcDbPolyline
90
8
70
1
43
0.0
10
-89.700000000000003
20
-57.899999999999956
42
-0.4142135623730942
10
-95.699999999999989
20
-51.899999999999963
10
-95.699999999999989
20
-41.099999999999937
42
-0.41421356237309503
10
-89.699999999999989
20
-35.099999999999937
10
-78.899999999999977
20
-35.099999999999945
42
-0.41421356237309503
10
-72.899999999999977
20
-41.099999999999937
10
-72.899999999999977
20
-51.899999999999963
42
-0.4142135623730942
10
-78.899999999999949
20
-57.899999999999956
0
LWPOLYLINE
5
249
100
AcDbEntity
8
0
100
AcDbPolyline
90
8
70
1
43
0.0
10
-123.79999999999997
20
-72.099999999999923
42
-0.41421356237309592
10
-117.79999999999995
20
-66.099999999999923
10
-106.99999999999997
20
-66.099999999999923
42
-0.41421356237309503
10
-100.99999999999997
20
-72.099999999999923
10
-101
20
-82.899999999999935
42
-0.41421356237309503
10
-107
20
-88.899999999999935
10
-117.8
20
-88.89999999999992
42
-0.41421356237309503
10
-123.79999999999998
20
-82.89999999999992
0
LWPOLYLINE
5
250
100
AcDbEntity
8
0
100
AcDbPolyline
90
8
70
1
43
0.0
10
-117.8
20
-57.899999999999956
42
-0.41421356237309503
10
-123.79999999999998
20
-51.899999999999963
10
-123.79999999999997
20
-41.099999999999937
42
-0.41421356237309503
10
-117.79999999999998
20
-35.099999999999937
10
-106.99999999999996
20
-35.099999999999945
42
-0.4142135623730942
10
-100.99999999999997
20
-41.099999999999937
10
-101
20
-51.899999999999963
42
-0.4142135623730942
10
-106.99999999999997
20
-57.899999999999956
0
LWPOLYLINE
5
251
100
AcDbEntity
8
0
100
AcDbPolyline
90
8
70
1
43
0.0
10
-151.90000000000001
20
-72.099999999999923
42
-0.41421356237309592
10
-145.89999999999998
20
-66.099999999999923
10
-135.09999999999999
20
-66.099999999999923
42
-0.41421356237309592
10
-129.09999999999999
20
-72.099999999999923
10
-129.09999999999999
20
-82.899999999999935
42
-0.41421356237309503
10
-135.09999999999997
20
-88.899999999999935
10
-145.90000000000001
20
-88.89999999999992
42
-0.41421356237309503
10
-151.90000000000001
20
-82.89999999999992
0
LWPOLYLINE
5
252
100
AcDbEntity
8
0
100
AcDbPolyline
90
8
70
1
43
0.0
10
-145.89999999999998
20
-57.899999999999956
42
-0.41421356237309592
10
-151.90000000000001
20
-51.899999999999963
10
-151.90000000000001
20
-41.099999999999937
42
-0.41421356237309503
10
-145.90000000000001
20
-35.099999999999937
10
-135.09999999999997
20
-35.099999999999945
42
-0.41421356237309503
10
-129.09999999999999
20
-41.099999999999937
10
-129.09999999999999
20
-51.899999999999963
42
-0.41421356237309592
10
-135.09999999999999
20
-57.899999999999956
0
LWPOLYLINE
5
253
100
AcDbEntity
8
0
100
AcDbPolyline
90
8
70
1
43
0.0
10
129.10000000000005
20
-10.099999999999948
42
-0.41421356237309503
10
135.10000000000005
20
-4.0999999999999481
10
145.90000000000006
20
-4.0999999999999526
42
-0.41421356237309503
10
151.90000000000006
20
-10.099999999999948
10
151.90000000000006
20
-20.899999999999959
42
-0.41421356237309503
10
145.90000000000006
20
-26.899999999999959
10
135.10000000000005
20
-26.899999999999959
42
-0.41421356237309503
10
129.10000000000005
20
-20.899999999999963
0
LWPOLYLINE
5
254
100
AcDbEntity
8
0
100
AcDbPolyline
90
8
70
1
43
0.0
10
135.10000000000005
20
4.1000000000000414
42
-0.41421356237309503
10
129.10000000000005
20
10.100000000000037
10
129.10000000000005
20
20.900000000000048
42
-0.41421356237309503
10
135.10000000000005
20
26.900000000000048
10
145.90000000000006
20
26.900000000000048
42
-0.41421356237309503
10
151.90000000000006
20
20.900000000000052
10
151.90000000000006
20
10.100000000000037
42
-0.41421356237309503
10
145.90000000000006
20
4.1000000000000369
0
LWPOLYLINE
5
255
100
AcDbEntity
8
0
100
AcDbPolyline
90
8
70
1
43
0.0
10
101.00000000000007
20
-10.099999999999948
42
-0.41421356237309503
10
107.00000000000006
20
-4.0999999999999481
10
117.80000000000008
20
-4.0999999999999526
42
-0.41421356237309503
10
123.80000000000008
20
-10.099999999999948
10
123.80000000000008
20
-20.899999999999959
42
-0.41421356237309503
10
117.80000000000008
20
-26.899999999999959
10
107.00000000000006
20
-26.899999999999959
42
-0.41421356237309503
10
101.00000000000007
20
-20.899999999999963
0
LWPOLYLINE
5
256
100
AcDbEntity
8
0
100
AcDbPolyline
90
8
70
1
43
0.0
10
107.00000000000006
20
4.1000000000000414
42
-0.41421356237309503
10
101.00000000000007
20
10.100000000000037
10
101.00000000000007
20
20.900000000000048
42
-0.41421356237309503
10
107.00000000000006
20
26.900000000000048
10
117.80000000000008
20
26.900000000000048
42
-0.41421356237309503
10
123.80000000000008
20
20.900000000000052
10
123.80000000000008
20
10.100000000000037
42
-0.41421356237309503
10
117.80000000000008
20
4.1000000000000369
0
LWPOLYLINE
5
257
100
AcDbEntity
8
0
100
AcDbPolyline
90
8
70
1
43
0.0
10
72.900000000000048
20
-10.099999999999948
42
-0.41421356237309503
10
78.900000000000034
20
-4.0999999999999481
10
89.70000000000006
20
-4.0999999999999526
42
-0.41421356237309503
10
95.70000000000006
20
-10.099999999999948
10
95.70000000000006
20
-20.899999999999959
42
-0.41421356237309503
10
89.70000000000006
20
-26.899999999999959
10
78.900000000000034
20
-26.899999999999959
42
-0.41421356237309503
10
72.900000000000048
20
-20.899999999999963
0
LWPOLYLINE
5
258
100
AcDbEntity
8
0
100
AcDbPolyline
90
8
70
1
43
0.0
10
78.900000000000034
20
4.1000000000000414
42
-0.41421356237309503
10
72.900000000000048
20
10.100000000000037
10
72.900000000000048
20
20.900000000000048
42
-0.41421356237309503
10
78.900000000000034
20
26.900000000000048
10
89.70000000000006
20
26.900000000000048
42
-0.41421356237309503
10
95.70000000000006
20
20.900000000000052
10
95.70000000000006
20
10.100000000000037
42
-0.41421356237309503
10
89.70000000000006
20
4.1000000000000369
0
LWPOLYLINE
5
259
100
AcDbEntity
8
0
100
AcDbPolyline
90
8
70
1
43
0.0
10
44.800000000000026
20
-10.099999999999948
42
-0.41421356237309503
10
50.800000000000018
20
-4.0999999999999481
10
61.600000000000037
20
-4.0999999999999526
42
-0.41421356237309503
10
67.600000000000037
20
-10.099999999999948
10
67.600000000000037
20
-20.899999999999959
42
-0.41421356237309503
10
61.600000000000037
20
-26.899999999999959
10
50.800000000000018
20
-26.899999999999959
42
-0.41421356237309503
10
44.800000000000026
20
-20.899999999999963
0
LWPOLYLINE
5
260
100
AcDbEntity
8
0
100
AcDbPolyline
90
8
70
1
43
0.0
10
50.800000000000018
20
4.1000000000000414
42
-0.41421356237309503
10
44.800000000000026
20
10.100000000000037
10
44.800000000000026
20
20.900000000000048
42
-0.41421356237309503
10
50.800000000000018
20
26.900000000000048
10
61.600000000000037
20
26.900000000000048
42
-0.41421356237309503
10
67.600000000000037
20
20.900000000000052
10
67.600000000000037
20
10.100000000000037
42
-0.41421356237309503
10
61.600000000000037
20
4.1000000000000369
0
LWPOLYLINE
5
261
100
AcDbEntity
8
0
100
AcDbPolyline
90
8
70
1
43
0.0
10
16.700000000000035
20
-10.099999999999948
42
-0.41421356237309481
10
22.700000000000031
20
-4.0999999999999481
10
33.50000000000005
20
-4.0999999999999481
42
-0.41421356237309481
10
39.500000000000043
20
-10.099999999999948
10
39.50000000000005
20
-20.899999999999959
42
-0.41421356237309503
10
33.50000000000005
20
-26.899999999999959
10
22.700000000000031
20
-26.899999999999963
42
-0.41421356237309481
10
16.700000000000035
20
-20.899999999999963
0
LWPOLYLINE
5
262
100
AcDbEntity
8
0
100
AcDbPolyline
90
8
70
1
43
0.0
10
22.700000000000031
20
4.1000000000000369
42
-0.41421356237309481
10
16.700000000000035
20
10.100000000000037
10
16.700000000000035
20
20.900000000000048
42
-0.41421356237309481
10
22.700000000000031
20
26.900000000000048
10
33.50000000000005
20
26.900000000000052
42
-0.41421356237309481
10
39.500000000000043
20
20.900000000000052
10
39.50000000000005
20
10.100000000000037
42
-0.41421356237309503
10
33.50000000000005
20
4.1000000000000369
0
LWPOLYLINE
5
263
100
AcDbEntity
8
0
100
AcDbPolyline
90
8
70
1
43
0.0
10
-11.39999999999997
20
-10.099999999999952
42
-0.41421356237309576
10
-5.3999999999999551
20
-4.0999999999999472
10
5.4000000000000439
20
-4.0999999999999481
42
-0.41421356237309481
10
11.400000000000041
20
-10.099999999999948
10
11.400000000000041
20
-20.899999999999959
42
-0.41421356237309492
10
5.4000000000000439
20
-26.899999999999959
10
-5.3999999999999728
20
-26.899999999999963
42
-0.41421356237309481
10
-11.39999999999997
20
-20.899999999999963
0
LWPOLYLINE
5
264
100
AcDbEntity
8
0
100
AcDbPolyline
90
8
70
1
43
0.0
10
-5.3999999999999559
20
4.1000000000000369
42
-0.4142135623730957
10
-11.39999999999997
20
10.100000000000037
10
-11.39999999999997
20
20.900000000000048
42
-0.41421356237309492
10
-5.3999999999999728
20
26.900000000000048
10
5.4000000000000439
20
26.900000000000052
42
-0.41421356237309481
10
11.400000000000041
20
20.900000000000052
10
11.400000000000041
20
10.100000000000041
42
-0.41421356237309492
10
5.4000000000000439
20
4.1000000000000369
0
LWPOLYLINE
5
265
100
AcDbEntity
8
0
100
AcDbPolyline
90
8
70
1
43
0.0
10
-39.499999999999979
20
-10.099999999999948
42
-0.41421356237309503
10
-33.499999999999979
20
-4.0999999999999481
10
-22.69999999999996
20
-4.0999999999999481
42
-0.41421356237309481
10
-16.699999999999964
20
-10.099999999999948
10
-16.699999999999964
20
-20.899999999999959
42
-0.41421356237309481
10
-22.69999999999996
20
-26.899999999999959
10
-33.499999999999979
20
-26.899999999999963
42
-0.41421356237309481
10
-39.499999999999972
20
-20.899999999999963
0
LWPOLYLINE
5
266
100
AcDbEntity
8
0
100
AcDbPolyline
90
8
70
1
43
0.0
10
-33.499999999999979
20
4.1000000000000369
42
-0.41421356237309481
10
-39.499999999999972
20
10.100000000000037
10
-39.499999999999979
20
20.900000000000048
42
-0.41421356237309503
10
-33.499999999999979
20
26.900000000000048
10
-22.69999999999996
20
26.900000000000052
42
-0.41421356237309481
10
-16.699999999999964
20
20.900000000000052
10
-16.699999999999964
20
10.100000000000037
42
-0.41421356237309481
10
-22.69999999999996
20
4.1000000000000369
0
LWPOLYLINE
5
267
100
AcDbEntity
8
0
100
AcDbPolyline
90
8
70
1
43
0.0
10
-67.59999999999998
20
-10.099999999999952
42
-0.41421356237309592
10
-61.599999999999966
20
-4.0999999999999481
10
-50.799999999999983
20
-4.0999999999999526
42
-0.41421356237309592
10
-44.799999999999969
20
-10.099999999999948
10
-44.799999999999969
20
-20.899999999999959
42
-0.41421356237309592
10
-50.799999999999983
20
-26.899999999999959
10
-61.599999999999966
20
-26.899999999999959
42
-0.41421356237309592
10
-67.59999999999998
20
-20.899999999999963
0
LWPOLYLINE
5
268
100
AcDbEntity
8
0
100
AcDbPolyline
90
8
70
1
43
0.0
10
-61.599999999999966
20
4.1000000000000414
42
-0.41421356237309592
10
-67.59999999999998
20
10.100000000000037
10
-67.59999999999998
20
20.900000000000048
42
-0.41421356237309592
10
-61.599999999999966
20
26.900000000000048
10
-50.799999999999983
20
26.900000000000048
42
-0.41421356237309592
10
-44.799999999999969
20
20.900000000000052
10
-44.799999999999969
20
10.100000000000041
42
-0.41421356237309592
10
-50.799999999999983
20
4.1000000000000369
0
LWPOLYLINE
5
269
100
AcDbEntity
8
0
100
AcDbPolyline
90
8
70
1
43
0.0
10
-95.699999999999989
20
-10.099999999999948
42
-0.41421356237309503
10
-89.699999999999989
20
-4.0999999999999481
10
-78.899999999999977
20
-4.0999999999999526
42
-0.41421356237309503
10
-72.899999999999977
20
-10.099999999999948
10
-72.899999999999977
20
-20.899999999999959
42
-0.41421356237309503
10
-78.899999999999977
20
-26.899999999999959
10
-89.699999999999989
20
-26.899999999999959
42
-0.41421356237309503
10
-95.699999999999989
20
-20.899999999999963
0
LWPOLYLINE
5
270
100
AcDbEntity
8
0
100
AcDbPolyline
90
8
70
1
43
0.0
10
-89.699999999999989
20
4.1000000000000414
42
-0.41421356237309503
10
-95.699999999999989
20
10.100000000000037
10
-95.699999999999989
20
20.900000000000048
42
-0.41421356237309503
10
-89.699999999999989
20
26.900000000000048
10
-78.899999999999977
20
26.900000000000048
42
-0.41421356237309503
10
-72.899999999999977
20
20.900000000000052
10
-72.899999999999977
20
10.100000000000037
42
-0.41421356237309503
10
-78.899999999999977
20
4.1000000000000369
0
LWPOLYLINE
5
271
100
AcDbEntity
8
0
100
AcDbPolyline
90
8
70
1
43
0.0
10
-123.79999999999997
20
-10.099999999999948
42
-0.41421356237309503
10
-117.79999999999998
20
-4.0999999999999481
10
-106.99999999999996
20
-4.0999999999999526
42
-0.4142135623730942
10
-100.99999999999997
20
-10.099999999999948
10
-101
20
-20.899999999999959
42
-0.41421356237309503
10
-107
20
-26.899999999999959
10
-117.80000000000001
20
-26.899999999999959
42
-0.4142135623730942
10
-123.79999999999998
20
-20.899999999999963
0
LWPOLYLINE
5
272
100
AcDbEntity
8
0
100
AcDbPolyline
90
8
70
1
43
0.0
10
-117.80000000000001
20
4.1000000000000414
42
-0.4142135623730942
10
-123.79999999999998
20
10.100000000000037
10
-123.79999999999997
20
20.900000000000048
42
-0.41421356237309503
10
-117.79999999999998
20
26.900000000000048
10
-106.99999999999996
20
26.900000000000048
42
-0.4142135623730942
10
-100.99999999999997
20
20.900000000000052
10
-101
20
10.100000000000037
42
-0.41421356237309503
10
-107
20
4.1000000000000369
0
LWPOLYLINE
5
273
100
AcDbEntity
8
0
100
AcDbPolyline
90
8
70
1
43
0.0
10
-151.90000000000001
20
-10.099999999999948
42
-0.41421356237309503
10
-145.90000000000001
20
-4.0999999999999481
10
-135.09999999999997
20
-4.0999999999999526
42
-0.41421356237309503
10
-129.09999999999999
20
-10.099999999999948
10
-129.09999999999999
20
-20.899999999999959
42
-0.41421356237309503
10
-135.09999999999997
20
-26.899999999999959
10
-145.90000000000001
20
-26.899999999999959
42
-0.41421356237309503
10
-151.90000000000001
20
-20.899999999999963
0
LWPOLYLINE
5
274
100
AcDbEntity
8
0
100
AcDbPolyline
90
8
70
1
43
0.0
10
-145.90000000000001
20
4.1000000000000414
42
-0.41421356237309503
10
-151.90000000000001
20
10.100000000000037
10
-151.90000000000001
20
20.900000000000048
42
-0.41421356237309503
10
-145.90000000000001
20
26.900000000000048
10
-135.09999999999997
20
26.900000000000048
42
-0.41421356237309503
10
-129.09999999999999
20
20.900000000000052
10
-129.09999999999999
20
10.100000000000037
42
-0.41421356237309503
10
-135.09999999999997
20
4.1000000000000369
0
LWPOLYLINE
5
275
100
AcDbEntity
8
0
100
AcDbPolyline
90
8
70
1
43
0.0
10
129.10000000000005
20
51.900000000000048
42
-0.41421356237309503
10
135.10000000000005
20
57.900000000000048
10
145.90000000000006
20
57.900000000000048
42
-0.41421356237309503
10
151.90000000000006
20
51.900000000000048
10
151.90000000000006
20
41.10000000000003
42
-0.41421356237309503
10
145.90000000000006
20
35.10000000000003
10
135.10000000000005
20
35.100000000000037
42
-0.41421356237309503
10
129.10000000000005
20
41.10000000000003
0
LWPOLYLINE
5
276
100
AcDbEntity
8
0
100
AcDbPolyline
90
8
70
1
43
0.0
10
165.99999999999994
20
-102.49999999999983
42
-0.41421356237309592
10
159.99999999999994
20
-96.499999999999801
10
160.00000000000003
20
96.500000000000171
42
-0.41421356237309503
10
166.00000000000006
20
102.50000000000017
10
194
20
102.5000000000002
42
-0.41421356237309764
10
200.00000000000006
20
96.500000000000171
10
199.99999999999977
20
-96.499999999999801
42
-0.41421356237309503
10
193.99999999999977
20
-102.49999999999983
0
LWPOLYLINE
5
277
100
AcDbEntity
8
0
100
AcDbPolyline
90
12
70
1
43
0.0
10
186
20
-102.49999999999983
10
186.00000000000026
20
-175.02943725152323
42
0.19891236737965753
10
187.75735931288102
20
-179.2720779386425
10
200.46066017177992
20
-191.97537879754137
42
0.500000000000003
10
191.97537879754123
20
-200.46066017177986
10
179.27207793864244
20
-187.75735931288108
42
0.19891236737965953
10
175.02943725152312
20
-186.00000000000037
10
102.50000000000016
20
-186.0000000000008
10
102.50000000000016
20
-174.00000000000216
10
168.00000000000034
20
-173.99999999999991
42
0.41421356237308637
10
174.00000000000011
20
-167.99999999999986
10
173.99999999999972
20
-102.49999999999983
0
ARC
5
278
100
AcDbEntity
8
0
100
AcDbCircle
10
210.04163056034287
20
-210.0416305603429
30
0
40
5.9999999999999885
100
AcDbArc
50
-134.9999999999998
51
45.000000000000384
0
LINE
5
279
100
AcDbEntity
8
0
100
AcDbLine
10
214.2842712474621
20
-205.7989898732236
30
0
11
206.82462120245873
21
-198.33933982822018
31
0
0
ARC
5
280
100
AcDbEntity
8
0
100
AcDbCircle
10
199.39999999999998
20
-199.40000000000009
30
0
40
7.4999999999999956
100
AcDbArc
50
-98.130102354155625
51
8.1301023541566799
0
LINE
5
281
100
AcDbEntity
8
0
100
AcDbLine
10
198.3393398282202
20
-206.82462120245884
30
0
11
205.7989898732236
21
-214.28427124746219
31
0
0
LWPOLYLINE
5
282
100
AcDbEntity
8
0
100
AcDbPolyline
90
12
70
1
43
0.0
10
-186.0000000000004
20
-175.02943725152309
42
-0.1989123673796595
10
-187.75735931288111
20
-179.27207793864241
10
-200.46066017178009
20
-191.97537879754137
42
-0.50000000000000611
10
-191.97537879754128
20
-200.46066017177981
10
-179.27207793864244
20
-187.75735931288094
42
-0.19891236737965651
10
-175.02943725152318
20
-186.0000000000002
10
-102.49999999999986
20
-185.99999999999997
10
-102.49999999999984
20
-173.99999999999972
10
-167.99999999999989
20
-174.00000000000009
42
-0.41421356237308637
10
-173.99999999999994
20
-168.00000000000028
10
-174.00000000000006
20
-102.50000000000016
10
-186.00000000000082
20
-102.50000000000016
0
ARC
5
283
100
AcDbEntity
8
0
100
AcDbCircle
10
-210.04163056034292
20
-210.04163056034281
30
0
40
5.9999999999999885
100
AcDbArc
50
135
51
315.00000000000034
0
LINE
5
284
100
AcDbEntity
8
0
100
AcDbLine
10
-205.79898987322363
20
-214.28427124746204
30
0
11
-198.33933982822032
21
-206.82462120245879
31
0
0
ARC
5
285
100
AcDbEntity
8
0
100
AcDbCircle
10
-199.40000000000003
20
-199.40000000000009
30
0
40
7.4999999999999902
100
AcDbArc
50
171.86989764584263
51
278.13010235415521
0
LINE
5
286
100
AcDbEntity
8
0
100
AcDbLine
10
-206.82462120245876
20
-198.33933982822009
30
0
11
-214.28427124746221
21
-205.79898987322352
31
0
0
LWPOLYLINE
5
287
100
AcDbEntity
8
0
100
AcDbPolyline
90
8
70
1
43
0.0
10
-160.00000000000006
20
-96.500000000000171
42
-0.41421356237309503
10
-166.00000000000009
20
-102.50000000000016
10
-194.00000000000006
20
-102.50000000000017
42
-0.41421356237309681
10
-200.00000000000006
20
-96.500000000000128
10
-199.99999999999977
20
96.499999999999844
42
-0.41421356237309503
10
-193.99999999999977
20
102.49999999999984
10
-165.99999999999991
20
102.49999999999984
42
-0.41421356237309681
10
-159.99999999999991
20
96.499999999999801
0
LWPOLYLINE
5
288
100
AcDbEntity
8
0
100
AcDbPolyline
90
12
70
1
43
0.0
10
-191.97537879754128
20
200.46066017177998
10
-179.27207793864241
20
187.75735931288111
42
0.19891236737965953
10
-175.02943725152309
20
186.00000000000037
10
-102.50000000000017
20
186.00000000000082
10
-102.50000000000017
20
174.00000000000219
10
-168.00000000000026
20
173.99999999999994
42
0.41421356237308637
10
-174.00000000000006
20
167.99999999999989
10
-173.99999999999972
20
102.49999999999986
10
-185.99999999999997
20
102.49999999999984
10
-186.0000000000002
20
175.02943725152318
42
0.19891236737965648
10
-187.75735931288094
20
179.27207793864241
10
-200.46066017177981
20
191.97537879754128
42
0.50000000000000444
0
ARC
5
289
100
AcDbEntity
8
0
100
AcDbCircle
10
-210.04163056034281
20
210.04163056034292
30
0
40
5.9999999999999885
100
AcDbArc
50
45
51
225.00000000000077
0
LINE
5
290
100
AcDbEntity
8
0
100
AcDbLine
10
-214.28427124746202
20
205.7989898732236
30
0
11
-206.82462120245876
21
198.33933982822026
31
0
0
ARC
5
291
100
AcDbEntity
8
0
100
AcDbCircle
10
-199.40000000000001
20
199.40000000000003
30
0
40
7.4999999999999858
100
AcDbArc
50
81.869897645843068
51
188.13010235415561
0
LINE
5
292
100
AcDbEntity
8
0
100
AcDbLine
10
-198.33933982822006
20
206.82462120245876
30
0
11
-205.79898987322352
21
214.28427124746221
31
0
0
LWPOLYLINE
5
293
100
AcDbEntity
8
0
100
AcDbPolyline
90
8
70
1
43
0.0
10
102.49999999999983
20
165.99999999999994
42
-0.41421356237309592
10
96.499999999999801
20
159.99999999999994
10
-96.500000000000171
20
160.00000000000003
42
-0.41421356237309503
10
-102.50000000000017
20
166.00000000000006
10
-102.5000000000002
20
194
42
-0.41421356237309764
10
-96.500000000000171
20
200.00000000000006
10
96.499999999999801
20
199.99999999999977
42
-0.41421356237309503
10
102.49999999999983
20
193.99999999999977
0
LWPOLYLINE
5
294
100
AcDbEntity
8
0
100
AcDbPolyline
90
12
70
1
43
0.0
10
186.0000000000008
20
102.50000000000017
10
174.00000000000006
20
102.50000000000017
10
173.99999999999991
20
168.00000000000028
42
0.41421356237308637
10
167.99999999999986
20
174.00000000000009
10
102.49999999999983
20
173.99999999999972
10
102.49999999999983
20
186
10
175.02943725152321
20
186.00000000000026
42
0.19891236737965648
10
179.27207793864244
20
187.75735931288099
10
191.97537879754137
20
200.46066017177992
42
0.50000000000000466
10
200.46066017177989
20
191.97537879754125
10
187.75735931288108
20
179.27207793864244
42
0.19891236737965953
10
186.00000000000037
20
175.02943725152312
0
LWPOLYLINE
5
295
100
AcDbEntity
8
0
100
AcDbPolyline
90
4
70
1
43
0.0
10
205.79898987322363
20
214.2842712474621
42
-0.99999999999999989
10
214.28427124746219
20
205.79898987322349
10
206.82462120245884
20
198.3393398282202
42
0.50000000000000133
10
198.33933982822018
20
206.82462120245873
0
LWPOLYLINE
5
296
100
AcDbEntity
8
0
100
AcDbPolyline
90
8
70
1
43
0.0
10
102.50000000000017
20
-194.00000000000006
42
-0.41421356237309503
10
96.500000000000171
20
-200.00000000000006
10
-96.499999999999844
20
-199.99999999999977
42
-0.41421356237309503
10
-102.49999999999986
20
-193.99999999999977
10
-102.49999999999984
20
-165.99999999999991
42
-0.41421356237309681
10
-96.499999999999801
20
-159.99999999999991
10
96.500000000000171
20
-160.00000000000006
42
-0.41421356237309503
10
102.50000000000016
20
-166.00000000000009
0
ENDSEC
0
SECTION
2
OBJECTS
0
DICTIONARY
5
C
100
AcDbDictionary
3
ACAD_GROUP
350
D
3
ACAD_MLINESTYLE
350
17
0
DICTIONARY
5
D
100
AcDbDictionary
0
DICTIONARY
5
1A
330
C
100
AcDbDictionary
0
DICTIONARY
5
17
100
AcDbDictionary
0
ENDSEC
0
EOF
