999
dxFix Standard Header V 1.0
  0
SECTION
  2
HEADER
  9
$ACADVER
  1
AC1009
  0
ENDSEC
  0
SECTION
  2
TABLES
  0
TABLE
  2
LTYPE
 70
19
  0
LTYPE
  2
CONTINUOUS
 70
0
  3
Solid line
 72
65
 73
0
 40
0.0
  0
ENDTAB
  0
TABLE
  2
LAYER
 70
1
  0
LAYER
  2
0
 70
0
 62
7
  6
CONTINUOUS
  0
LAYER
 2
CYAN
70
0
62
4
 6
CONTINUOUS
0
LAYER
 2
BROWN
70
0
62
36
 6
CONTINUOUS
0
LAYER
 2
WHITE
70
0
62
7
 6
CONTINUOUS
0
LAYER
 2
GREEN
70
0
62
3
 6
CONTINUOUS
0
LAYER
 2
LEADINS
70
0
62
1
 6
CONTINUOUS
0
LAYER
 2
Unused
70
0
62
9
 6
CONTINUOUS
0
ENDTAB
  0
TABLE
  2
STYLE
 70
1
  0
STYLE
  2
Standard
 70
0
 40
0.0
 41
0.75
 50
0.0
 71
0
 42
2.5
  3
txt
  4

  0
ENDTAB
  0
ENDSEC
  0
SECTION
  2
ENTITIES
0
LINE
8
CYAN
10
0.0
20
450.0
30
0.0
11
450.0
21
450.0
31
0.0
0
LINE
8
CYAN
10
450.0
20
450.0
30
0.0
11
450.0
21
0.0
31
0.0
0
LINE
8
CYAN
10
450.0
20
0.0
30
0.0
11
0.0
21
0.0
31
0.0
0
LINE
8
CYAN
10
0.0
20
0.0
30
0.0
11
0.0
21
450.0
31
0.0
0
LINE
8
CYAN
10
311.8139993428
20
183.9960911972
30
0.0
11
311.8139993428
21
186.0839970158
31
0.0
0
ARC
8
CYAN
10
311.8752188035
20
186.14521647650002
30
0.0
40
0.0865773916
50
45.0
51
225.0
0
LINE
8
CYAN
10
311.9364382642
20
186.2064359372
30
0.0
11
313.9019051613
21
186.2064359372
31
0.0
0
ARC
8
CYAN
10
313.963124622
20
186.14521647650002
30
0.0
40
0.0865773916
50
-44.99999997660002
51
135.00000002339996
0
LINE
8
CYAN
10
314.0243440828
20
186.0839970158
30
0.0
11
314.0243440828
21
184.1185301187
31
0.0
0
ARC
8
CYAN
10
313.963124622
20
184.057310658
30
0.0
40
0.0865773917
50
-135.0
51
45.0
0
LINE
8
CYAN
10
313.9019051613
20
183.9960911972
30
0.0
11
311.8139993428
21
183.9960911972
31
0.0
0
LINE
8
CYAN
10
193.5052675828
20
98.5461558572
30
0.0
11
193.5052675828
21
112.857179024
31
0.0
0
ARC
8
CYAN
10
193.4171344787
20
112.94952206060002
30
0.0
40
0.1276506187
50
313.6637146234
51
493.66371462340004
0
LINE
8
CYAN
10
193.3290013746
20
113.04186509720002
30
0.0
11
187.2100458628
21
113.04186509720002
31
0.0
0
LINE
8
CYAN
10
187.2100458628
20
113.04186509720002
30
0.0
11
187.2100458628
21
114.93391331720001
31
0.0
0
LINE
8
CYAN
10
187.2100458628
20
114.93391331720001
30
0.0
11
202.3334289628
21
114.93391331720001
31
0.0
0
LINE
8
CYAN
10
202.3334289628
20
114.93391331720001
30
0.0
11
202.3334289628
21
113.04186509720002
31
0.0
0
LINE
8
CYAN
10
202.3334289628
20
113.04186509720002
30
0.0
11
196.210190955
21
113.04186509720002
31
0.0
0
ARC
8
CYAN
10
196.1219961689
20
112.94952206060002
30
0.0
40
0.1276932132
50
46.3162639739
51
226.3162639739
0
LINE
8
CYAN
10
196.0338013828
20
112.857179024
30
0.0
11
196.0338013828
21
98.5461558572
31
0.0
0
LINE
8
CYAN
10
196.0338013828
20
98.5461558572
30
0.0
11
193.5052675828
21
98.5461558572
31
0.0
0
LINE
8
CYAN
10
309.8848774228
20
131.8587558572
30
0.0
11
309.8848774228
21
133.6459967414
31
0.0
0
ARC
8
CYAN
10
309.9604532005
20
133.6984004093
30
0.0
40
0.0919665297
50
34.73714401569999
51
214.7371440157
0
LINE
8
CYAN
10
310.0360289783
20
133.75080407720003
30
0.0
11
314.1413052272
21
133.75080407720003
31
0.0
0
ARC
8
CYAN
10
314.216881005
20
133.84266749580001
30
0.0
40
0.1189562351
50
230.55596424829997
51
410.5559642483
0
LINE
8
CYAN
10
314.2924567828
20
133.9345309143
30
0.0
11
314.2924567828
21
146.1707382602
31
0.0
0
ARC
8
CYAN
10
314.216881005
20
146.2626016787
30
0.0
40
0.118956235
50
309.444035767
51
489.4440357670001
0
LINE
8
CYAN
10
314.1413052272
20
146.3544650972
30
0.0
11
310.0360289783
21
146.3544650972
31
0.0
0
ARC
8
CYAN
10
309.9604532005
20
146.4068687651
30
0.0
40
0.0919665297
50
145.2628559843
51
325.2628559843001
0
LINE
8
CYAN
10
309.8848774228
20
146.45927243300002
30
0.0
11
309.8848774228
21
148.24651331720003
31
0.0
0
LINE
8
CYAN
10
309.8848774228
20
148.24651331720003
30
0.0
11
321.2285699428
21
148.24651331720003
31
0.0
0
LINE
8
CYAN
10
321.2285699428
20
148.24651331720003
30
0.0
11
321.2285699428
21
146.45927243300002
31
0.0
0
ARC
8
CYAN
10
321.152994165
20
146.4068687651
30
0.0
40
0.0919665298
50
-145.2628560021
51
34.7371439979
0
LINE
8
CYAN
10
321.0774183872
20
146.3544650972
30
0.0
11
316.9721421383
21
146.3544650972
31
0.0
0
ARC
8
CYAN
10
316.8965663606
20
146.2626016787
30
0.0
40
0.118956235
50
50.55596425160002
51
230.55596425160002
0
LINE
8
CYAN
10
316.8209905828
20
146.1707382602
30
0.0
11
316.8209905828
21
133.9345309143
31
0.0
0
ARC
8
CYAN
10
316.8965663606
20
133.84266749580001
30
0.0
40
0.118956235
50
129.4440357331
51
309.44403573310007
0
LINE
8
CYAN
10
316.9721421383
20
133.75080407720003
30
0.0
11
321.0774183872
21
133.75080407720003
31
0.0
0
ARC
8
CYAN
10
321.152994165
20
133.6984004093
30
0.0
40
0.0919665298
50
-34.73714399789997
51
145.2628560021
0
LINE
8
CYAN
10
321.2285699428
20
133.6459967414
30
0.0
11
321.2285699428
21
131.8587558572
31
0.0
0
LINE
8
CYAN
10
321.2285699428
20
131.8587558572
30
0.0
11
309.8848774228
21
131.8587558572
31
0.0
0
LINE
8
CYAN
10
199.4932611628
20
381.4478234372
30
0.0
11
199.4932611628
21
379.2635914772
31
0.0
0
ARC
8
CYAN
10
194.4876686498
20
367.8105334291
30
0.0
40
12.4991397728
50
66.3921260607
51
94.4423188932
0
ARC
8
CYAN
10
193.7526229376
20
377.238809048
30
0.0
40
3.0422562329
50
94.3939866347
51
136.98264457629998
0
ARC
8
CYAN
10
193.4152972691
20
378.092095697
30
0.0
40
2.2482406792
50
147.0692144152
51
251.40260118140003
0
ARC
8
CYAN
10
68.2761946002
20
37.79051232360001
30
0.0
40
360.3336071344
50
68.8342458759
51
69.8000751364
0
ARC
8
CYAN
10
196.55869187230002
20
369.92016196910004
30
0.0
40
4.3008536126
50
-54.7666608967
51
64.93311581509998
0
ARC
8
CYAN
10
194.3460652198
20
373.8137545806
30
0.0
40
8.7686513605
50
-91.17780676940001
51
-57.636026261200016
0
ARC
8
CYAN
10
195.54089109880002
20
390.36739605959997
30
0.0
40
25.3577503145
50
-105.6842248574
51
-93.10848524879998
0
LINE
8
CYAN
10
188.6857940428
20
365.95381079720005
30
0.0
11
188.6857940428
21
368.44742009720005
31
0.0
0
ARC
8
CYAN
10
195.3082812398
20
381.85245284940004
30
0.0
40
14.9516634446
50
-116.2907497074
51
-94.09732570490002
0
ARC
8
CYAN
10
194.54528840580002
20
371.924458747
30
0.0
40
4.9947949522
50
-93.5045035432
51
-52.03775421539999
0
ARC
8
CYAN
10
196.1724651869
20
369.5888675
30
0.0
40
2.1579217028
50
-47.9499467953
51
69.72528173269998
0
ARC
8
CYAN
10
-86.45290726300001
20
-318.99813515750003
30
0.0
40
746.4879090597
50
67.690566978
51
68.1391511287
0
ARC
8
CYAN
10
193.2486208111
20
378.1360479102
30
0.0
40
4.6638892789
50
-154.3633350705
51
-111.95862498629998
0
ARC
8
CYAN
10
193.3440173172
20
377.6261162272
30
0.0
40
4.5568913594
50
131.9321179501
51
199.32453273330006
0
ARC
8
CYAN
10
194.1906377986
20
375.4197832619
30
0.0
40
6.816538992
50
87.2023608382
51
124.8150526952
0
ARC
8
CYAN
10
193.9610124623
20
362.43094487580004
30
0.0
40
19.8052378401
50
73.7796233962
51
88.37297925849998
0
LINE
8
CYAN
10
69.94765212280001
20
302.24217377720004
30
0.0
11
67.4234167228
21
302.24217377720004
31
0.0
0
LINE
8
CYAN
10
67.4234167228
20
302.24217377720004
30
0.0
11
67.43199409850001
21
314.4077517067
31
0.0
0
ARC
8
CYAN
10
67.5013342494
20
314.4976849482
30
0.0
40
0.1135607523
50
52.44792188420002
51
232.36712879240002
0
ARC
8
CYAN
10
69.90402336260001
20
252.34637602330002
30
0.0
40
62.2850663991
50
86.14503776299999
51
92.1470574132
0
ARC
8
CYAN
10
73.30215786920002
20
306.3170691188
30
0.0
40
8.2114769618
50
54.8703944087
51
84.4837395399
0
ARC
8
CYAN
10
73.3875188858
20
307.6624196495
30
0.0
40
7.0970965505
50
5.7201389745999975
51
49.17479427539999
0
ARC
8
CYAN
10
69.38822252350002
20
306.73634597110004
30
0.0
40
11.1810118487
50
-26.2749551787
51
8.400422939
0
ARC
8
CYAN
10
73.4216942082
20
305.1751237379
30
0.0
40
6.8839666625
50
-87.7445368465
51
-29.486160483799992
0
ARC
8
CYAN
10
67.50530506910002
20
496.51163858900003
30
0.0
40
198.3116936756
50
-90.02114418619999
51
-88.2120863146
0
LINE
8
CYAN
10
67.4321209828
20
298.19995841720004
30
0.0
11
67.4321209828
21
299.9881128681
31
0.0
0
ARC
8
CYAN
10
67.4969189235
20
300.04054332270005
30
0.0
40
0.0833530184
50
38.94830538530001
51
218.97762601450003
0
ARC
8
CYAN
10
69.3957131494
20
334.8045015189
30
0.0
40
34.759975614
50
-93.0243842488
51
-82.7831788101
0
ARC
8
CYAN
10
73.16793275880002
20
304.82523358720005
30
0.0
40
4.5443866634
50
-82.4831702132
51
-11.271204486599995
0
ARC
8
CYAN
10
66.5055008834
20
306.3515500271
30
0.0
40
11.3783095189
50
-12.2515897499
51
17.26986721
0
ARC
8
CYAN
10
73.316487572
20
308.2173559207
30
0.0
40
4.3271530649
50
20.453396199500002
51
78.621403133
0
ARC
8
CYAN
10
70.72533904710002
20
288.7379958565
30
0.0
40
23.9702906753
50
81.7372045381
51
91.85921813949999
0
LINE
8
CYAN
10
69.94765212280001
20
312.69566765720003
30
0.0
11
69.94765212280001
21
302.24217377720004
31
0.0
0
LINE
8
CYAN
10
339.92209662280004
20
298.19995841720004
30
0.0
11
339.92209662280004
21
314.37892370810005
31
0.0
0
ARC
8
CYAN
10
340.0153412593
20
314.4833197926
30
0.0
40
0.1399753718
50
48.2293657794
51
228.22936577939998
0
LINE
8
CYAN
10
340.1085858958
20
314.5877158772
30
0.0
11
350.9955272428
21
314.5877158772
31
0.0
0
LINE
8
CYAN
10
350.9955272428
20
314.5877158772
30
0.0
11
350.9955272428
21
312.800474993
31
0.0
0
ARC
8
CYAN
10
350.9113349446
20
312.7480713251
30
0.0
40
0.0991689845
50
-148.10069761849996
51
31.89930238150004
0
LINE
8
CYAN
10
350.8271426465
20
312.69566765720003
30
0.0
11
342.60601235900003
21
312.69566765720003
31
0.0
0
ARC
8
CYAN
10
342.52182006090004
20
312.62614898920003
30
0.0
40
0.1091841942
50
39.54692745429999
51
219.5469274543
0
LINE
8
CYAN
10
342.4376277628
20
312.5566303213
30
0.0
11
342.4376277628
21
307.8690858532
31
0.0
0
ARC
8
CYAN
10
342.5221081159
20
307.7995671852
30
0.0
40
0.1094064681
50
140.5491224439
51
320.5491224439
0
LINE
8
CYAN
10
342.6065884691
20
307.73004851720003
30
0.0
11
349.5230767365
21
307.73004851720003
31
0.0
0
ARC
8
CYAN
10
349.6075570897
20
307.6776448493
30
0.0
40
0.0994136534
50
-31.81157442639999
51
148.1884255736
0
LINE
8
CYAN
10
349.69203744280003
20
307.62524118140004
30
0.0
11
349.69203744280003
21
305.94280763300003
31
0.0
0
ARC
8
CYAN
10
349.6075570897
20
305.8904039651
30
0.0
40
0.0994136534
50
-148.1884255736
51
31.81157442639999
0
LINE
8
CYAN
10
349.5230767365
20
305.8380002972
30
0.0
11
342.6065884691
21
305.8380002972
31
0.0
0
ARC
8
CYAN
10
342.5221081159
20
305.75755638600003
30
0.0
40
0.116653988
50
43.5979932777
51
223.5979932777
0
LINE
8
CYAN
10
342.4376277628
20
305.6771124748
30
0.0
11
342.4376277628
21
300.25289445970003
31
0.0
0
ARC
8
CYAN
10
342.52761027680003
20
300.1724505485
30
0.0
40
0.1206982837
50
138.20344739009997
51
318.2034473901
0
LINE
8
CYAN
10
342.6175927909
20
300.09200663720003
30
0.0
11
351.5840856628
21
300.09200663720003
31
0.0
0
LINE
8
CYAN
10
351.5840856628
20
300.09200663720003
30
0.0
11
351.5840856628
21
298.19995841720004
31
0.0
0
LINE
8
CYAN
10
351.5840856628
20
298.19995841720004
30
0.0
11
339.92209662280004
21
298.19995841720004
31
0.0
0
LINE
8
CYAN
10
341.7671848228
20
113.04186509720002
30
0.0
11
341.7671848228
21
109.56478615210001
31
0.0
0
ARC
8
CYAN
10
341.7131771478
20
109.50304824470001
30
0.0
40
0.0820268138
50
-131.17909453120004
51
48.82090546879998
0
LINE
8
CYAN
10
341.6591694728
20
109.44131033720001
30
0.0
11
339.3613883927
21
109.44131033720001
31
0.0
0
ARC
8
CYAN
10
339.3073807177
20
109.51827558440002
30
0.0
40
0.0940238174
50
125.20364324120001
51
305.05791813940004
0
LINE
8
CYAN
10
339.2531774656
20
109.59510322070001
30
0.0
11
339.24658372
21
114.78012043380001
31
0.0
0
ARC
8
CYAN
10
339.3250281521
20
114.85711675700001
30
0.0
40
0.1099179817
50
44.32051447020001
51
224.466239572
0
ARC
8
CYAN
10
341.6181708222
20
55.09060324060002
30
0.0
40
59.8842699126
50
85.1945942136
51
92.11926425080001
0
ARC
8
CYAN
10
346.3679554995
20
110.93491977740001
30
0.0
40
3.8387427794
50
-11.5675336983
51
86.01414074459998
0
ARC
8
CYAN
10
345.15272566
20
110.96620993300002
30
0.0
40
5.0400684868
50
-62.23642275129998
51
-9.14511277859999
0
LINE
8
CYAN
10
347.50051163530003
20
106.50636785440001
30
0.0
11
346.6053564028
21
106.00538429720001
31
0.0
0
LINE
8
CYAN
10
346.6053564028
20
106.00538429720001
30
0.0
11
352.2597941428
21
98.5461558572
31
0.0
0
LINE
8
CYAN
10
352.2597941428
20
98.5461558572
30
0.0
11
349.3391677666
21
98.5461558572
31
0.0
0
ARC
8
CYAN
10
349.2736026847
20
98.70163391450001
30
0.0
40
0.1687370921
50
-172.74164729349997
51
-67.13485183069999
0
LINE
8
CYAN
10
349.1062177603
20
98.68031506540001
30
0.0
11
344.1350136853
21
105.23044110910001
31
0.0
0
ARC
8
CYAN
10
343.745145903
20
104.82913299650001
30
0.0
40
0.5595043244
50
45.828433939899995
51
106.85556378740002
0
LINE
8
CYAN
10
343.58291200580004
20
105.36460031720001
30
0.0
11
341.8877333254
21
105.36460031720001
31
0.0
0
ARC
8
CYAN
10
341.82482630410004
20
105.28519694440001
30
0.0
40
0.1013024626
50
51.61210801639999
51
231.6121080164
0
LINE
8
CYAN
10
341.7619192828
20
105.20579357170001
30
0.0
11
341.7619192828
21
98.70496260270001
31
0.0
0
ARC
8
CYAN
10
341.70787466850004
20
98.6255592299
30
0.0
40
0.0960505905
50
-124.24052418810003
51
55.75947581189997
0
LINE
8
CYAN
10
341.6538300541
20
98.5461558572
30
0.0
11
339.3544773714
21
98.5461558572
31
0.0
0
ARC
8
CYAN
10
339.3004327571
20
98.63216228910001
30
0.0
40
0.1015771956
50
122.14438135439997
51
302.1443813544
0
LINE
8
CYAN
10
339.2463881428
20
98.71816872100001
30
0.0
11
339.2463881428
21
107.11644383350001
31
0.0
0
ARC
8
CYAN
10
339.3119031196
20
107.20245026540002
30
0.0
40
0.1081171518
50
52.14461152140001
51
232.7018406883
0
ARC
8
CYAN
10
341.16225276570003
20
142.2382777793
30
0.0
40
34.9959637104
50
-92.9220532552
51
-84.39168994270001
0
ARC
8
CYAN
10
344.1651768879
20
110.72060105050001
30
0.0
40
3.3369442237
50
-82.818950921
51
-2.4377624843000016
0
ARC
8
CYAN
10
345.4747311778
20
110.82190300100001
30
0.0
40
2.0389305634
50
-6.8514677947
51
85.12526887300001
0
ARC
8
CYAN
10
341.9671221118
20
77.09741755250002
30
0.0
40
35.9450036057
50
84.12244348699998
51
90.3186985881
0
LINE
8
CYAN
10
339.92209662280004
20
231.79655585720002
30
0.0
11
339.92209662280004
21
247.9755211481
31
0.0
0
ARC
8
CYAN
10
340.02029725880004
20
248.0799172327
30
0.0
40
0.1433244828
50
46.75157064370001
51
226.7515706437
0
LINE
8
CYAN
10
340.1184978947
20
248.1843133172
30
0.0
11
351.5840856628
21
248.1843133172
31
0.0
0
LINE
8
CYAN
10
351.5840856628
20
248.1843133172
30
0.0
11
351.5840856628
21
246.29226509720002
31
0.0
0
LINE
8
CYAN
10
351.5840856628
20
246.29226509720002
30
0.0
11
342.6175927909
21
246.29226509720002
31
0.0
0
ARC
8
CYAN
10
342.52761027680003
20
246.2132865106
30
0.0
40
0.1197266469
50
41.27376088130001
51
221.27376088130003
0
LINE
8
CYAN
10
342.4376277628
20
246.1343079239
30
0.0
11
342.4376277628
21
240.8088946506
31
0.0
0
ARC
8
CYAN
10
342.528504085
20
240.72991606390002
30
0.0
40
0.1203998468
50
139.00682206990004
51
319.00682206989995
0
LINE
8
CYAN
10
342.6193804073
20
240.65093747720002
30
0.0
11
350.2412655028
21
240.65093747720002
31
0.0
0
LINE
8
CYAN
10
350.2412655028
20
240.65093747720002
30
0.0
11
350.2412655028
21
238.75878179720002
31
0.0
0
LINE
8
CYAN
10
350.2412655028
20
238.75878179720002
30
0.0
11
342.6193804073
21
238.75878179720002
31
0.0
0
ARC
8
CYAN
10
342.528504085
20
238.6777040346
30
0.0
40
0.1217871485
50
41.738608265900005
51
221.73860826589998
0
LINE
8
CYAN
10
342.4376277628
20
238.596626272
30
0.0
11
342.4376277628
21
231.9587113825
31
0.0
0
ARC
8
CYAN
10
342.3835831485
20
231.8776336198
30
0.0
40
0.0974393346
50
-123.68653145479996
51
56.31346854520003
0
LINE
8
CYAN
10
342.32953853410004
20
231.79655585720002
30
0.0
11
339.92209662280004
21
231.79655585720002
31
0.0
0
LINE
8
CYAN
10
218.9798426428
20
265.1091558572
30
0.0
11
218.9798426428
21
281.4969133172
31
0.0
0
LINE
8
CYAN
10
218.9798426428
20
281.4969133172
30
0.0
11
221.3872845541
21
281.4969133172
31
0.0
0
ARC
8
CYAN
10
221.44132916840002
20
281.4134991675
30
0.0
40
0.0993918543
50
-57.06051403310001
51
122.93948596689998
0
LINE
8
CYAN
10
221.49537378280002
20
281.3300850178
30
0.0
11
221.49537378280002
21
274.5008878567
31
0.0
0
ARC
8
CYAN
10
221.57614745220002
20
274.417473707
30
0.0
40
0.1161133328
50
134.0786445668
51
314.07864456680005
0
LINE
8
CYAN
10
221.65692112160002
20
274.3340595572
30
0.0
11
228.2699396039
21
274.3340595572
31
0.0
0
ARC
8
CYAN
10
228.3507132734
20
274.417473707
30
0.0
40
0.1161133328
50
225.9213554155
51
405.9213554155
0
LINE
8
CYAN
10
228.4314869428
20
274.5008878567
30
0.0
11
228.4314869428
21
281.3300850178
31
0.0
0
ARC
8
CYAN
10
228.48581091120002
20
281.4134991675
30
0.0
40
0.09954403
50
56.925570634699994
51
236.9255706347
0
LINE
8
CYAN
10
228.54013487950002
20
281.4969133172
30
0.0
11
230.9600207428
21
281.4969133172
31
0.0
0
LINE
8
CYAN
10
230.9600207428
20
281.4969133172
30
0.0
11
230.9600207428
21
265.1091558572
31
0.0
0
LINE
8
CYAN
10
230.9600207428
20
265.1091558572
30
0.0
11
228.54013487950002
21
265.1091558572
31
0.0
0
ARC
8
CYAN
10
228.48581091120002
20
265.1945497415
30
0.0
40
0.1012087398
50
122.46278906219997
51
302.4627890622
0
LINE
8
CYAN
10
228.4314869428
20
265.2799436257
30
0.0
11
228.4314869428
21
272.2712235687
31
0.0
0
ARC
8
CYAN
10
228.3507132734
20
272.356617453
30
0.0
40
0.1175436138
50
313.4073267206999
51
493.4073267207
0
LINE
8
CYAN
10
228.2699396039
20
272.44201133720003
30
0.0
11
221.65692112160002
21
272.44201133720003
31
0.0
0
ARC
8
CYAN
10
221.57614745220002
20
272.356617453
30
0.0
40
0.1175436138
50
46.592673297
51
226.59267329700003
0
LINE
8
CYAN
10
221.49537378280002
20
272.2712235687
30
0.0
11
221.49537378280002
21
265.2799436257
31
0.0
0
ARC
8
CYAN
10
221.44132916840002
20
265.1945497415
30
0.0
40
0.1010590709
50
-122.32915678449999
51
57.67084321550001
0
LINE
8
CYAN
10
221.3872845541
20
265.1091558572
30
0.0
11
218.9798426428
21
265.1091558572
31
0.0
0
LINE
8
CYAN
10
100.19721228280001
20
312.69566765720003
30
0.0
11
100.19721228280001
21
309.21858871210003
31
0.0
0
ARC
8
CYAN
10
100.1432046078
20
309.1568508047
30
0.0
40
0.0820268138
50
-131.17909453120004
51
48.82090546879998
0
LINE
8
CYAN
10
100.08919693280001
20
309.0951128972
30
0.0
11
97.7914158527
21
309.0951128972
31
0.0
0
ARC
8
CYAN
10
97.73740817770002
20
309.1720781444
30
0.0
40
0.0940238174
50
125.20364324120001
51
305.05791813940004
0
LINE
8
CYAN
10
97.6832049256
20
309.2489057807
30
0.0
11
97.67661118000001
21
314.4339229938
31
0.0
0
ARC
8
CYAN
10
97.7550556121
20
314.510919317
30
0.0
40
0.1099179817
50
44.32051447020001
51
224.466239572
0
ARC
8
CYAN
10
100.0481982822
20
254.74440580060002
30
0.0
40
59.8842699126
50
85.1945942136
51
92.11926425080001
0
ARC
8
CYAN
10
104.7979829595
20
310.5887223374
30
0.0
40
3.8387427794
50
-11.5675336983
51
86.01414074459998
0
ARC
8
CYAN
10
103.58275312
20
310.620012493
30
0.0
40
5.0400684868
50
-62.23642275129998
51
-9.14511277859999
0
LINE
8
CYAN
10
105.9305390953
20
306.1601704144
30
0.0
11
105.0353838628
21
305.6591868572
31
0.0
0
LINE
8
CYAN
10
105.0353838628
20
305.6591868572
30
0.0
11
110.68982160280001
21
298.19995841720004
31
0.0
0
LINE
8
CYAN
10
110.68982160280001
20
298.19995841720004
30
0.0
11
107.7691952266
21
298.19995841720004
31
0.0
0
ARC
8
CYAN
10
107.70363014470001
20
298.35543647450004
30
0.0
40
0.1687370921
50
-172.74164729349997
51
-67.13485183069999
0
LINE
8
CYAN
10
107.5362452203
20
298.33411762540004
30
0.0
11
102.56504114530001
21
304.8842436691
31
0.0
0
ARC
8
CYAN
10
102.17517336300001
20
304.4829355565
30
0.0
40
0.5595043244
50
45.828433939899995
51
106.85556378740002
0
LINE
8
CYAN
10
102.0129394658
20
305.0184028772
30
0.0
11
100.31776078540001
21
305.0184028772
31
0.0
0
ARC
8
CYAN
10
100.2548537641
20
304.93899950440004
30
0.0
40
0.1013024626
50
51.61210801639999
51
231.6121080164
0
LINE
8
CYAN
10
100.19194674280001
20
304.8595961317
30
0.0
11
100.19194674280001
21
298.3587651627
31
0.0
0
ARC
8
CYAN
10
100.1379021285
20
298.2793617899
30
0.0
40
0.0960505905
50
-124.24052418810003
51
55.75947581189997
0
LINE
8
CYAN
10
100.0838575141
20
298.19995841720004
30
0.0
11
97.7845048314
21
298.19995841720004
31
0.0
0
ARC
8
CYAN
10
97.73046021710002
20
298.2859648491
30
0.0
40
0.1015771956
50
122.14438135439997
51
302.1443813544
0
LINE
8
CYAN
10
97.6764156028
20
298.371971281
30
0.0
11
97.6764156028
21
306.77024639350003
31
0.0
0
ARC
8
CYAN
10
97.7419305796
20
306.8562528254
30
0.0
40
0.1081171518
50
52.14461152140001
51
232.7018406883
0
ARC
8
CYAN
10
99.59228022570001
20
341.89208033930004
30
0.0
40
34.9959637104
50
-92.9220532552
51
-84.39168994270001
0
ARC
8
CYAN
10
102.59520434790001
20
310.3744036105
30
0.0
40
3.3369442237
50
-82.818950921
51
-2.4377624843000016
0
ARC
8
CYAN
10
103.90475863780001
20
310.47570556100004
30
0.0
40
2.0389305634
50
-6.8514677947
51
85.12526887300001
0
ARC
8
CYAN
10
100.39714957180001
20
276.7512201125
30
0.0
40
35.9450036057
50
84.12244348699998
51
90.3186985881
0
LINE
8
CYAN
10
309.6298748428
20
181.95585563720002
30
0.0
11
312.1454059828
21
181.95585563720002
31
0.0
0
ARC
8
CYAN
10
597.9024076217
20
177.3500006388
30
0.0
40
285.7941180044
50
179.07658184489998
51
181.26882985439997
0
ARC
8
CYAN
10
317.1022234533
20
170.9869192085
30
0.0
40
4.9239798636
50
179.59722492520004
51
220.17046086880003
0
ARC
8
CYAN
10
315.6927422524
20
171.087772746
30
0.0
40
4.0344225921
50
-125.6793889351
51
-54.32061106489999
0
ARC
8
CYAN
10
314.40391611710004
20
171.0117102991
30
0.0
40
4.8487415294
50
-41.31407690820001
51
0.5843517298999971
0
ARC
8
CYAN
10
-1393.0573825159001
20
181.8585817128
30
0.0
40
1712.3438306417
50
-0.36128884879999995
51
0.003254828400000035
0
LINE
8
CYAN
10
319.2864453628
20
181.95585563720002
30
0.0
11
321.4836799828
21
181.95585563720002
31
0.0
0
ARC
8
CYAN
10
137.610546172
20
177.94087971340002
30
0.0
40
183.9169632445
50
-2.3956774445
51
1.2508876112
0
ARC
8
CYAN
10
315.9558622916
20
170.58426032670002
30
0.0
40
5.4210256658
50
-93.1366144311
51
-3.5022757224000074
0
ARC
8
CYAN
10
315.2644339702
20
171.0995537875
30
0.0
40
5.9413300628
50
-134.4544109004
51
-86.1898379786
0
ARC
8
CYAN
10
316.991781557
20
171.20597888470002
30
0.0
40
7.3192895013
50
-176.1566423049
51
-143.5611955794
0
ARC
8
CYAN
10
1360.4370370983
20
181.8583247514
30
0.0
40
1050.8071667817
50
179.9946820803
51
180.6075862464
0
LINE
8
CYAN
10
218.3519538628
20
231.79655585720002
30
0.0
11
218.3519538628
21
232.9439203755
31
0.0
0
ARC
8
CYAN
10
219.575728316
20
233.26385855860002
30
0.0
40
1.2649048791
50
124.9177320649
51
194.65123365579998
0
LINE
8
CYAN
10
218.8516971818
20
234.30104864240002
30
0.0
11
228.6363057028
21
246.29226509720002
31
0.0
0
LINE
8
CYAN
10
228.6363057028
20
246.29226509720002
30
0.0
11
218.9797351828
21
246.29226509720002
31
0.0
0
LINE
8
CYAN
10
218.9797351828
20
246.29226509720002
30
0.0
11
218.9797351828
21
248.1843133172
31
0.0
0
LINE
8
CYAN
10
218.9797351828
20
248.1843133172
30
0.0
11
231.4830285628
21
248.1843133172
31
0.0
0
LINE
8
CYAN
10
231.4830285628
20
248.1843133172
30
0.0
11
231.4830285628
21
247.03694879900002
31
0.0
0
ARC
8
CYAN
10
230.2583219645
20
246.71701061610003
30
0.0
40
1.2658067359
50
-55.023832433299994
51
14.640561620000005
0
LINE
8
CYAN
10
230.9839275202
20
245.6798205321
30
0.0
11
221.2118943028
21
233.6886040772
31
0.0
0
LINE
8
CYAN
10
221.2118943028
20
233.6886040772
30
0.0
11
231.4087282145
21
233.6886040772
31
0.0
0
ARC
8
CYAN
10
231.4960622086
20
233.63620040930002
30
0.0
40
0.1018497469
50
-30.96533460910002
51
149.0346653909
0
LINE
8
CYAN
10
231.5833962028
20
233.58379674140002
30
0.0
11
231.5833962028
21
231.79655585720002
31
0.0
0
LINE
8
CYAN
10
231.5833962028
20
231.79655585720002
30
0.0
11
218.3519538628
21
231.79655585720002
31
0.0
0
LINE
8
CYAN
10
128.3892358228
20
265.1091558572
30
0.0
11
128.3892358228
21
281.54924633720003
31
0.0
0
LINE
8
CYAN
10
128.3892358228
20
281.54924633720003
30
0.0
11
130.63366606020003
21
281.54924633720003
31
0.0
0
ARC
8
CYAN
10
130.69947497150002
20
281.386267272
30
0.0
40
0.1757640137
50
-3.5128046621000033
51
111.9882410798
0
ARC
8
CYAN
10
580.8095778023
20
558.0306660239
30
0.0
40
528.1848998705
50
-148.4135343244
51
-146.9054706923
0
LINE
8
CYAN
10
138.31166238280002
20
269.63010551720004
30
0.0
11
138.31166238280002
21
281.54924633720003
31
0.0
0
LINE
8
CYAN
10
138.31166238280002
20
281.54924633720003
30
0.0
11
140.3694139228
21
281.54924633720003
31
0.0
0
LINE
8
CYAN
10
140.3694139228
20
281.54924633720003
30
0.0
11
140.3694139228
21
265.1091558572
31
0.0
0
LINE
8
CYAN
10
140.3694139228
20
265.1091558572
30
0.0
11
138.1745192991
21
265.1091558572
31
0.0
0
ARC
8
CYAN
10
138.11016282100002
20
265.2720739868
30
0.0
40
0.1751686993
50
176.01778360749998
51
291.5551811003
0
ARC
8
CYAN
10
-371.61625869
20
-49.38003148489997
30
0.0
40
598.8793812578
50
31.6966416026
51
33.0372872303
0
LINE
8
CYAN
10
130.4338772428
20
277.1198525972
30
0.0
11
130.4338772428
21
265.1091558572
31
0.0
0
LINE
8
CYAN
10
130.4338772428
20
265.1091558572
30
0.0
11
128.3892358228
21
265.1091558572
31
0.0
0
LINE
8
CYAN
10
158.9037923428
20
298.19995841720004
30
0.0
11
158.9037923428
21
299.9871993014
31
0.0
0
ARC
8
CYAN
10
158.9793681205
20
300.0396029693
30
0.0
40
0.0919665297
50
34.73714401569999
51
214.7371440157
0
LINE
8
CYAN
10
159.0549438983
20
300.09200663720003
30
0.0
11
163.1602201472
21
300.09200663720003
31
0.0
0
ARC
8
CYAN
10
163.235795925
20
300.1838700558
30
0.0
40
0.1189562351
50
230.55596424829997
51
410.5559642483
0
LINE
8
CYAN
10
163.3113717028
20
300.2757334743
30
0.0
11
163.3113717028
21
312.51194082020004
31
0.0
0
ARC
8
CYAN
10
163.235795925
20
312.60380423870004
30
0.0
40
0.118956235
50
309.444035767
51
489.4440357670001
0
LINE
8
CYAN
10
163.1602201472
20
312.69566765720003
30
0.0
11
159.0549438983
21
312.69566765720003
31
0.0
0
ARC
8
CYAN
10
158.9793681205
20
312.7480713251
30
0.0
40
0.0919665297
50
145.2628559843
51
325.2628559843001
0
LINE
8
CYAN
10
158.9037923428
20
312.800474993
30
0.0
11
158.9037923428
21
314.5877158772
31
0.0
0
LINE
8
CYAN
10
158.9037923428
20
314.5877158772
30
0.0
11
170.2474848628
21
314.5877158772
31
0.0
0
LINE
8
CYAN
10
170.2474848628
20
314.5877158772
30
0.0
11
170.2474848628
21
312.800474993
31
0.0
0
ARC
8
CYAN
10
170.171909085
20
312.7480713251
30
0.0
40
0.0919665298
50
-145.2628560021
51
34.7371439979
0
LINE
8
CYAN
10
170.0963333072
20
312.69566765720003
30
0.0
11
165.99105705830002
21
312.69566765720003
31
0.0
0
ARC
8
CYAN
10
165.9154812806
20
312.60380423870004
30
0.0
40
0.118956235
50
50.55596425160002
51
230.55596425160002
0
LINE
8
CYAN
10
165.8399055028
20
312.51194082020004
30
0.0
11
165.8399055028
21
300.2757334743
31
0.0
0
ARC
8
CYAN
10
165.9154812806
20
300.1838700558
30
0.0
40
0.118956235
50
129.4440357331
51
309.44403573310007
0
LINE
8
CYAN
10
165.99105705830002
20
300.09200663720003
30
0.0
11
170.0963333072
21
300.09200663720003
31
0.0
0
ARC
8
CYAN
10
170.171909085
20
300.0396029693
30
0.0
40
0.0919665298
50
-34.73714399789997
51
145.2628560021
0
LINE
8
CYAN
10
170.2474848628
20
299.9871993014
30
0.0
11
170.2474848628
21
298.19995841720004
31
0.0
0
LINE
8
CYAN
10
170.2474848628
20
298.19995841720004
30
0.0
11
158.9037923428
21
298.19995841720004
31
0.0
0
LINE
8
CYAN
10
24.804062500000015
20
28.492527777800007
30
0.0
11
25.599999999999994
21
28.600000000000023
31
0.0
0
ARC
8
CYAN
10
25.596978544600006
20
25.621290757600008
30
0.0
40
2.9787107748
50
-254.5620653334
51
89.94188201360002
0
ARC
8
CYAN
10
196.1292966656
20
273.2388240501
30
0.0
40
8.0909814936
50
177.33714140699996
51
248.808264258
0
ARC
8
CYAN
10
196.3197015513
20
274.0139781088
30
0.0
40
8.2822786146
50
87.84478103030001
51
182.76307306
0
ARC
8
CYAN
10
196.2893236402
20
265.20599351830003
30
0.0
40
17.0878241742
50
73.02393118460002
51
88.8537014773
0
LINE
8
CYAN
10
201.2784941428
20
281.54924633720003
30
0.0
11
201.2784941428
21
279.2342355572
31
0.0
0
ARC
8
CYAN
10
196.5568894951
20
269.9912604764
30
0.0
40
10.3791203285
50
62.94061450649999
51
95.44941715530001
0
ARC
8
CYAN
10
196.7421519097
20
274.51788120320003
30
0.0
40
5.9224969789
50
101.4030666669
51
166.219383337
0
ARC
8
CYAN
10
198.16024175220002
20
273.8777699098
30
0.0
40
7.457650004
50
164.03778302840004
51
213.12515146160004
0
ARC
8
CYAN
10
197.29977489680002
20
273.95648310260003
30
0.0
40
6.8012064285
50
-142.3535265766
51
-81.8363237702
0
ARC
8
CYAN
10
196.2408621874
20
281.2900788632
30
0.0
40
14.2108555949
50
-81.8089025651
51
-68.2950397719
0
LINE
8
CYAN
10
201.4964230228
20
268.0867649972
30
0.0
11
201.4964230228
21
266.0160107972
31
0.0
0
ARC
8
CYAN
10
196.90131442260002
20
277.45666635320003
30
0.0
40
12.3289749209
50
-107.4485172761
51
-68.1172710121
0
LINE
8
CYAN
10
249.1741683628
20
165.1713558572
30
0.0
11
249.1741683628
21
181.5591133172
31
0.0
0
LINE
8
CYAN
10
249.1741683628
20
181.5591133172
30
0.0
11
251.5816102741
21
181.5591133172
31
0.0
0
ARC
8
CYAN
10
251.6356548884
20
181.4756991675
30
0.0
40
0.0993918543
50
-57.06051403310001
51
122.93948596689998
0
LINE
8
CYAN
10
251.6896995028
20
181.39228501780002
30
0.0
11
251.6896995028
21
174.5630878567
31
0.0
0
ARC
8
CYAN
10
251.7704731722
20
174.4796737069
30
0.0
40
0.1161133328
50
134.0786445668
51
314.07864456680005
0
LINE
8
CYAN
10
251.85124684160002
20
174.3962595572
30
0.0
11
258.4642653239
21
174.3962595572
31
0.0
0
ARC
8
CYAN
10
258.5450389934
20
174.4796737069
30
0.0
40
0.1161133328
50
225.9213554155
51
405.9213554155
0
LINE
8
CYAN
10
258.6258126628
20
174.5630878567
30
0.0
11
258.6258126628
21
181.39228501780002
31
0.0
0
ARC
8
CYAN
10
258.6801366311
20
181.4756991675
30
0.0
40
0.09954403
50
56.925570634699994
51
236.9255706347
0
LINE
8
CYAN
10
258.7344605995
20
181.5591133172
30
0.0
11
261.1543464628
21
181.5591133172
31
0.0
0
LINE
8
CYAN
10
261.1543464628
20
181.5591133172
30
0.0
11
261.1543464628
21
165.1713558572
31
0.0
0
LINE
8
CYAN
10
261.1543464628
20
165.1713558572
30
0.0
11
258.7344605995
21
165.1713558572
31
0.0
0
ARC
8
CYAN
10
258.6801366311
20
165.25674974140003
30
0.0
40
0.1012087398
50
122.46278906219997
51
302.4627890622
0
LINE
8
CYAN
10
258.6258126628
20
165.3421436257
30
0.0
11
258.6258126628
21
172.33342356870003
31
0.0
0
ARC
8
CYAN
10
258.5450389934
20
172.41881745290002
30
0.0
40
0.1175436138
50
313.4073267206999
51
493.4073267207
0
LINE
8
CYAN
10
258.4642653239
20
172.50421133720002
30
0.0
11
251.85124684160002
21
172.50421133720002
31
0.0
0
ARC
8
CYAN
10
251.7704731722
20
172.41881745290002
30
0.0
40
0.1175436138
50
46.592673297
51
226.59267329700003
0
LINE
8
CYAN
10
251.6896995028
20
172.33342356870003
30
0.0
11
251.6896995028
21
165.3421436257
31
0.0
0
ARC
8
CYAN
10
251.6356548884
20
165.25674974140003
30
0.0
40
0.1010590709
50
-122.32915678449999
51
57.67084321550001
0
LINE
8
CYAN
10
251.5816102741
20
165.1713558572
30
0.0
11
249.1741683628
21
165.1713558572
31
0.0
0
LINE
8
CYAN
10
98.5112723428
20
131.8587558572
30
0.0
11
98.5112723428
21
148.24651331720003
31
0.0
0
LINE
8
CYAN
10
98.5112723428
20
148.24651331720003
30
0.0
11
101.0268034828
21
148.24651331720003
31
0.0
0
LINE
8
CYAN
10
101.0268034828
20
148.24651331720003
30
0.0
11
101.0268034828
21
133.93549015050002
31
0.0
0
ARC
8
CYAN
10
101.11365460740001
20
133.84314711390002
30
0.0
40
0.126768901
50
133.2445582363
51
313.2445582363
0
LINE
8
CYAN
10
101.20050573210001
20
133.75080407720003
30
0.0
11
109.68126261340001
21
133.75080407720003
31
0.0
0
ARC
8
CYAN
10
109.76811373810001
20
133.6984004093
30
0.0
40
0.1014360009
50
-31.105668449099937
51
148.89433155090006
0
LINE
8
CYAN
10
109.8549648628
20
133.6459967414
30
0.0
11
109.8549648628
21
131.8587558572
31
0.0
0
LINE
8
CYAN
10
109.8549648628
20
131.8587558572
30
0.0
11
98.5112723428
21
131.8587558572
31
0.0
0
LINE
8
CYAN
10
219.1200779428
20
331.7343558572
30
0.0
11
216.6831000628
21
348.12211331720005
31
0.0
0
LINE
8
CYAN
10
216.6831000628
20
348.12211331720005
30
0.0
11
218.8280016628
21
348.12211331720005
31
0.0
0
ARC
8
CYAN
10
699.3448650996
20
412.86185150840004
30
0.0
40
484.8584223753
50
-172.3267807376
51
-170.70001928100004
0
LINE
8
CYAN
10
220.85953296280002
20
334.5070387772
30
0.0
11
223.1826763175
21
344.4896139812
31
0.0
0
ARC
8
CYAN
10
223.28960724270001
20
344.5548584357
30
0.0
40
0.1252639677
50
57.59103409859999
51
211.38966925169996
0
LINE
8
CYAN
10
223.35674358260002
20
344.6606117972
30
0.0
11
225.5121734429
21
344.6606117972
31
0.0
0
ARC
8
CYAN
10
225.5793097828
20
344.5562535387
30
0.0
40
0.1240884131
50
-31.085933219400005
51
122.75421438629999
0
ARC
8
CYAN
10
457.5329239692
20
393.8899480811
30
0.0
40
237.0513252207
50
-167.97231763999997
51
-165.53060439480004
0
LINE
8
CYAN
10
228.0005723428
20
334.6596319772
30
0.0
11
230.1062510428
21
348.12211331720005
31
0.0
0
LINE
8
CYAN
10
230.1062510428
20
348.12211331720005
30
0.0
11
232.0201136428
21
348.12211331720005
31
0.0
0
LINE
8
CYAN
10
232.0201136428
20
348.12211331720005
30
0.0
11
229.3258765228
21
331.7343558572
31
0.0
0
LINE
8
CYAN
10
229.3258765228
20
331.7343558572
30
0.0
11
226.709869863
21
331.7343558572
31
0.0
0
ARC
8
CYAN
10
226.6511431829
20
331.84797664900003
30
0.0
40
0.1279003803
50
143.76189527620005
51
297.33288762300003
0
ARC
8
CYAN
10
-61.91000057599999
20
268.3704855211
30
0.0
40
295.376039244
50
12.424912300700003
51
14.304708322300002
0
LINE
8
CYAN
10
224.30803182280002
20
341.3515960172
30
0.0
11
222.0771275221
21
331.92358396220004
31
0.0
0
ARC
8
CYAN
10
221.96978302760002
20
331.8490727346
30
0.0
40
0.1306704386
50
-118.60874011290001
51
34.7657446184
0
LINE
8
CYAN
10
221.90721465250002
20
331.7343558572
30
0.0
11
219.1200779428
21
331.7343558572
31
0.0
0
LINE
8
CYAN
10
380.6707137028
20
114.94702343720002
30
0.0
11
380.6707137028
21
112.76279147720001
31
0.0
0
ARC
8
CYAN
10
375.6651211898
20
101.3097334291
30
0.0
40
12.4991397728
50
66.3921260607
51
94.4423188932
0
ARC
8
CYAN
10
374.9300754776
20
110.73800904800001
30
0.0
40
3.0422562329
50
94.3939866347
51
136.98264457629998
0
ARC
8
CYAN
10
374.59274980910004
20
111.591295697
30
0.0
40
2.2482406792
50
147.0692144152
51
251.40260118140003
0
ARC
8
CYAN
10
249.45364714020002
20
-228.71028767640001
30
0.0
40
360.3336071344
50
68.8342458759
51
69.8000751364
0
ARC
8
CYAN
10
377.7361444123
20
103.41936196910001
30
0.0
40
4.3008536126
50
-54.7666608967
51
64.93311581509998
0
ARC
8
CYAN
10
375.52351775980003
20
107.3129545806
30
0.0
40
8.7686513605
50
-91.17780676940001
51
-57.636026261200016
0
ARC
8
CYAN
10
376.7183436388
20
123.86659605960001
30
0.0
40
25.3577503145
50
-105.6842248574
51
-93.10848524879998
0
LINE
8
CYAN
10
369.8632465828
20
99.45301079720001
30
0.0
11
369.8632465828
21
101.94662009720001
31
0.0
0
ARC
8
CYAN
10
376.4857337798
20
115.35165284940001
30
0.0
40
14.9516634446
50
-116.2907497074
51
-94.09732570490002
0
ARC
8
CYAN
10
375.7227409458
20
105.423658747
30
0.0
40
4.9947949522
50
-93.5045035432
51
-52.03775421539999
0
ARC
8
CYAN
10
377.3499177269
20
103.08806750000001
30
0.0
40
2.1579217028
50
-47.9499467953
51
69.72528173269998
0
ARC
8
CYAN
10
94.724545277
20
-585.4989351575
30
0.0
40
746.4879090597
50
67.690566978
51
68.1391511287
0
ARC
8
CYAN
10
374.4260733511
20
111.63524791020001
30
0.0
40
4.6638892789
50
-154.3633350705
51
-111.95862498629998
0
ARC
8
CYAN
10
374.52146985720003
20
111.12531622720002
30
0.0
40
4.5568913594
50
131.9321179501
51
199.32453273330006
0
ARC
8
CYAN
10
375.36809033860004
20
108.91898326190001
30
0.0
40
6.816538992
50
87.2023608382
51
124.8150526952
0
ARC
8
CYAN
10
375.1384650023
20
95.93014487580001
30
0.0
40
19.8052378401
50
73.7796233962
51
88.37297925849998
0
LINE
8
CYAN
10
339.7630558228
20
65.0563543172
30
0.0
11
339.7630558228
21
81.44411177720002
31
0.0
0
LINE
8
CYAN
10
339.7630558228
20
81.44411177720002
30
0.0
11
342.1704977341
21
81.44411177720002
31
0.0
0
ARC
8
CYAN
10
342.2245423484
20
81.3606976275
30
0.0
40
0.0993918543
50
-57.06051403310001
51
122.93948596689998
0
LINE
8
CYAN
10
342.2785869628
20
81.27728347780001
30
0.0
11
342.2785869628
21
74.4480863167
31
0.0
0
ARC
8
CYAN
10
342.35936063220004
20
74.36467216700001
30
0.0
40
0.1161133328
50
134.0786445668
51
314.07864456680005
0
LINE
8
CYAN
10
342.4401343016
20
74.2812580172
30
0.0
11
349.05315278390003
21
74.2812580172
31
0.0
0
ARC
8
CYAN
10
349.1339264533
20
74.36467216700001
30
0.0
40
0.1161133328
50
225.9213554155
51
405.9213554155
0
LINE
8
CYAN
10
349.2147001228
20
74.4480863167
30
0.0
11
349.2147001228
21
81.27728347780001
31
0.0
0
ARC
8
CYAN
10
349.2690240912
20
81.3606976275
30
0.0
40
0.09954403
50
56.925570634699994
51
236.9255706347
0
LINE
8
CYAN
10
349.3233480595
20
81.44411177720002
30
0.0
11
351.7432339228
21
81.44411177720002
31
0.0
0
LINE
8
CYAN
10
351.7432339228
20
81.44411177720002
30
0.0
11
351.7432339228
21
65.0563543172
31
0.0
0
LINE
8
CYAN
10
351.7432339228
20
65.0563543172
30
0.0
11
349.3233480595
21
65.0563543172
31
0.0
0
ARC
8
CYAN
10
349.2690240912
20
65.14174820150001
30
0.0
40
0.1012087398
50
122.46278906219997
51
302.4627890622
0
LINE
8
CYAN
10
349.2147001228
20
65.22714208570002
30
0.0
11
349.2147001228
21
72.21842202870002
31
0.0
0
ARC
8
CYAN
10
349.1339264533
20
72.30381591300002
30
0.0
40
0.1175436138
50
313.4073267206999
51
493.4073267207
0
LINE
8
CYAN
10
349.05315278390003
20
72.38920979720001
30
0.0
11
342.4401343016
21
72.38920979720001
31
0.0
0
ARC
8
CYAN
10
342.35936063220004
20
72.30381591300002
30
0.0
40
0.1175436138
50
46.592673297
51
226.59267329700003
0
LINE
8
CYAN
10
342.2785869628
20
72.21842202870002
30
0.0
11
342.2785869628
21
65.22714208570002
31
0.0
0
ARC
8
CYAN
10
342.2245423484
20
65.14174820150001
30
0.0
40
0.1010590709
50
-122.32915678449999
51
57.67084321550001
0
LINE
8
CYAN
10
342.1704977341
20
65.0563543172
30
0.0
11
339.7630558228
21
65.0563543172
31
0.0
0
ARC
8
CYAN
10
285.376426171
20
270.9151746399
30
0.0
40
3.9314131225
50
-140.1730197181
51
-21.091094392100015
0
ARC
8
CYAN
10
277.372710632
20
273.77614951
30
0.0
40
12.4302706748
50
-20.1192315212
51
14.318178039400005
0
LINE
8
CYAN
10
289.4168637628
20
276.85023545720003
30
0.0
11
291.20059230280003
21
278.9924505572
31
0.0
0
ARC
8
CYAN
10
282.5963492777
20
274.169613379
30
0.0
40
9.8637090632
50
-2.692386860599999
51
29.2714358511
0
ARC
8
CYAN
10
282.6494820328
20
273.2863335781
30
0.0
40
9.8086817978
50
-36.5751078922
51
2.453786739399999
0
ARC
8
CYAN
10
285.337358017
20
271.9758997667
30
0.0
40
6.8911802367
50
-130.1475691033
51
-41.1467243865
0
LINE
8
CYAN
10
280.8942111628
20
266.7083755772
30
0.0
11
282.3571716028
21
268.3972169372
31
0.0
0
LINE
8
CYAN
10
98.3521240828
20
331.7343558572
30
0.0
11
98.3521240828
21
347.9133211481
31
0.0
0
ARC
8
CYAN
10
98.4453687193
20
348.0177172327
30
0.0
40
0.1399753718
50
48.2293657794
51
228.22936577939998
0
LINE
8
CYAN
10
98.53861335580001
20
348.12211331720005
30
0.0
11
109.42555470280001
21
348.12211331720005
31
0.0
0
LINE
8
CYAN
10
109.42555470280001
20
348.12211331720005
30
0.0
11
109.42555470280001
21
346.334872433
31
0.0
0
ARC
8
CYAN
10
109.3413624047
20
346.2824687651
30
0.0
40
0.0991689845
50
-148.10069761849996
51
31.89930238150004
0
LINE
8
CYAN
10
109.25717010650001
20
346.2300650972
30
0.0
11
101.03603981900001
21
346.2300650972
31
0.0
0
ARC
8
CYAN
10
100.9518475209
20
346.1605464293
30
0.0
40
0.1091841942
50
39.54692745429999
51
219.5469274543
0
LINE
8
CYAN
10
100.86765522280001
20
346.0910277613
30
0.0
11
100.86765522280001
21
341.4034832932
31
0.0
0
ARC
8
CYAN
10
100.952135576
20
341.3339646252
30
0.0
40
0.1094064681
50
140.5491224438
51
320.5491224438
0
LINE
8
CYAN
10
101.03661592910001
20
341.2644459572
30
0.0
11
107.95310419650001
21
341.2644459572
31
0.0
0
ARC
8
CYAN
10
108.03758454960001
20
341.21204228930003
30
0.0
40
0.0994136534
50
-31.81157442639999
51
148.1884255736
0
LINE
8
CYAN
10
108.1220649028
20
341.1596386214
30
0.0
11
108.1220649028
21
339.477205073
31
0.0
0
ARC
8
CYAN
10
108.03758454960001
20
339.4248014051
30
0.0
40
0.0994136534
50
-148.1884255736
51
31.81157442639999
0
LINE
8
CYAN
10
107.95310419650001
20
339.3723977372
30
0.0
11
101.03661592910001
21
339.3723977372
31
0.0
0
ARC
8
CYAN
10
100.952135576
20
339.291953826
30
0.0
40
0.116653988
50
43.5979932777
51
223.5979932777
0
LINE
8
CYAN
10
100.86765522280001
20
339.2115099148
30
0.0
11
100.86765522280001
21
333.7872918997
31
0.0
0
ARC
8
CYAN
10
100.95763773690001
20
333.7068479884
30
0.0
40
0.1206982837
50
138.20344739009997
51
318.2034473901
0
LINE
8
CYAN
10
101.04762025090001
20
333.6264040772
30
0.0
11
110.01411312280001
21
333.6264040772
31
0.0
0
LINE
8
CYAN
10
110.01411312280001
20
333.6264040772
30
0.0
11
110.01411312280001
21
331.7343558572
31
0.0
0
LINE
8
CYAN
10
110.01411312280001
20
331.7343558572
30
0.0
11
98.3521240828
21
331.7343558572
31
0.0
0
LINE
8
CYAN
10
382.4625017428
20
348.17444633720004
30
0.0
11
382.4625017428
21
345.8594355572
31
0.0
0
ARC
8
CYAN
10
377.7409634506
20
336.6167583697
30
0.0
40
10.3788248582
50
62.94019261279998
51
95.44963562619999
0
ARC
8
CYAN
10
377.9261354611
20
341.14309161250003
30
0.0
40
5.922471143
50
101.4023367474
51
166.2194257219
0
ARC
8
CYAN
10
379.11538070940003
20
340.51773297520003
30
0.0
40
7.2337101419
50
163.6516810091
51
222.3001815532
0
ARC
8
CYAN
10
378.5713179758
20
340.8397446665
30
0.0
40
7.0738859341
50
-132.7989900276
51
-77.0889234789
0
LINE
8
CYAN
10
380.15189682280004
20
333.94470059720004
30
0.0
11
380.15189682280004
21
338.12526901210003
31
0.0
0
ARC
8
CYAN
10
380.08577072410003
20
338.1994978546
30
0.0
40
0.0994111764
50
311.6959602832
51
491.6959602832
0
LINE
8
CYAN
10
380.0196446254
20
338.2737266972
30
0.0
11
377.2062797001
21
338.2737266972
31
0.0
0
ARC
8
CYAN
10
377.1401536015
20
338.3261333414
30
0.0
40
0.0843748617
50
141.60226481840002
51
321.60226481840004
0
LINE
8
CYAN
10
377.07402750280005
20
338.3785399856
30
0.0
11
377.07402750280005
21
340.0610690888
31
0.0
0
ARC
8
CYAN
10
377.1523351092
20
340.11347573300003
30
0.0
40
0.094225992
50
33.79205213979999
51
213.79205213979998
0
LINE
8
CYAN
10
377.23064271559997
20
340.1658823772
30
0.0
11
382.51081274989997
21
340.1658823772
31
0.0
0
ARC
8
CYAN
10
382.58912035640003
20
340.0772385748
30
0.0
40
0.1182785058
50
-48.54274024449995
51
131.45725975550005
0
LINE
8
CYAN
10
382.66742796280005
20
339.9885947724
30
0.0
11
382.66742796280005
21
332.5539532772
31
0.0
0
ARC
8
CYAN
10
378.0165400514
20
345.6614570777
30
0.0
40
13.9081779628
50
-100.74692542670002
51
-70.46397332850002
0
ARC
8
CYAN
10
377.3388549882
20
339.8833799856
30
0.0
40
8.1155239617
50
177.48199275420006
51
256.3455906585
0
ARC
8
CYAN
10
377.5036683148
20
340.6393209813
30
0.0
40
8.2821373791
50
87.8444615527
51
182.7641097569
0
ARC
8
CYAN
10
377.47333124019997
20
331.8311935183
30
0.0
40
17.0878241742
50
73.02393118460002
51
88.8537014773
0
LINE
8
CYAN
10
249.4923574228
20
365.04695585720003
30
0.0
11
249.4923574228
21
381.4347133172
31
0.0
0
LINE
8
CYAN
10
249.4923574228
20
381.4347133172
30
0.0
11
252.00788856280002
21
381.4347133172
31
0.0
0
LINE
8
CYAN
10
252.00788856280002
20
381.4347133172
30
0.0
11
252.00788856280002
21
367.1236901505
31
0.0
0
ARC
8
CYAN
10
252.0947396875
20
367.0313471139
30
0.0
40
0.126768901
50
133.2445582363
51
313.2445582363
0
LINE
8
CYAN
10
252.1815908121
20
366.9390040772
30
0.0
11
260.6623476934
21
366.9390040772
31
0.0
0
ARC
8
CYAN
10
260.7491988181
20
366.8866004093
30
0.0
40
0.1014360009
50
-31.105668449099937
51
148.89433155090006
0
LINE
8
CYAN
10
260.8360499428
20
366.8341967414
30
0.0
11
260.8360499428
21
365.04695585720003
31
0.0
0
LINE
8
CYAN
10
260.8360499428
20
365.04695585720003
30
0.0
11
249.4923574228
21
365.04695585720003
31
0.0
0
LINE
8
CYAN
10
287.4005917828
20
250.0873224572
30
0.0
11
287.4005917828
21
252.1752282758
31
0.0
0
ARC
8
CYAN
10
287.4618112435
20
252.2364477365
30
0.0
40
0.0865773916
50
45.0
51
225.0
0
LINE
8
CYAN
10
287.5230307042
20
252.2976671972
30
0.0
11
289.4884976013
21
252.2976671972
31
0.0
0
ARC
8
CYAN
10
289.549717062
20
252.2364477365
30
0.0
40
0.0865773916
50
-44.99999997660002
51
135.00000002339996
0
LINE
8
CYAN
10
289.6109365228
20
252.1752282758
30
0.0
11
289.6109365228
21
250.20976137870002
31
0.0
0
ARC
8
CYAN
10
289.549717062
20
250.148541918
30
0.0
40
0.0865773917
50
-135.0
51
45.0
0
LINE
8
CYAN
10
289.4884976013
20
250.0873224572
30
0.0
11
287.4005917828
21
250.0873224572
31
0.0
0
LINE
8
CYAN
10
219.04045008280002
20
148.6432556372
30
0.0
11
221.5559812228
21
148.6432556372
31
0.0
0
ARC
8
CYAN
10
507.3129828617
20
144.03740063880002
30
0.0
40
285.7941180044
50
179.07658184489998
51
181.26882985439997
0
ARC
8
CYAN
10
226.5127986933
20
137.6743192085
30
0.0
40
4.9239798636
50
179.59722492520004
51
220.17046086880003
0
ARC
8
CYAN
10
225.1033174924
20
137.775172746
30
0.0
40
4.0344225921
50
-125.6793889351
51
-54.32061106489999
0
ARC
8
CYAN
10
223.8144913571
20
137.69911029910003
30
0.0
40
4.8487415294
50
-41.31407690820001
51
0.5843517298999971
0
ARC
8
CYAN
10
-1483.6468072759
20
148.54598171280003
30
0.0
40
1712.3438306417
50
-0.36128884879999995
51
0.003254828400000035
0
LINE
8
CYAN
10
228.6970206028
20
148.6432556372
30
0.0
11
230.8942552228
21
148.6432556372
31
0.0
0
ARC
8
CYAN
10
47.021121412000014
20
144.6282797134
30
0.0
40
183.9169632445
50
-2.3956774445
51
1.2508876112
0
ARC
8
CYAN
10
225.3664375316
20
137.27166032670002
30
0.0
40
5.4210256658
50
-93.1366144311
51
-3.5022757224000074
0
ARC
8
CYAN
10
224.67500921020002
20
137.7869537875
30
0.0
40
5.9413300628
50
-134.4544109004
51
-86.1898379786
0
ARC
8
CYAN
10
226.402356797
20
137.8933788847
30
0.0
40
7.3192895013
50
-176.1566423049
51
-143.5611955794
0
ARC
8
CYAN
10
1269.8476123383
20
148.54572475140003
30
0.0
40
1050.8071667817
50
179.9946820803
51
180.6075862464
0
LINE
8
CYAN
10
98.9515359628
20
198.48395585720002
30
0.0
11
96.51455808280002
21
214.8717133172
31
0.0
0
LINE
8
CYAN
10
96.51455808280002
20
214.8717133172
30
0.0
11
98.65945968280002
21
214.8717133172
31
0.0
0
ARC
8
CYAN
10
579.1763231196
20
279.6114515084
30
0.0
40
484.8584223753
50
-172.3267807376
51
-170.70001928100004
0
LINE
8
CYAN
10
100.6909909828
20
201.2566387772
30
0.0
11
103.01413433750001
21
211.2392139812
31
0.0
0
ARC
8
CYAN
10
103.12106526270001
20
211.3044584357
30
0.0
40
0.1252639677
50
57.59103409859999
51
211.38966925169996
0
LINE
8
CYAN
10
103.1882016026
20
211.41021179720002
30
0.0
11
105.3436314629
21
211.41021179720002
31
0.0
0
ARC
8
CYAN
10
105.41076780280001
20
211.3058535387
30
0.0
40
0.1240884131
50
-31.085933219400005
51
122.75421438629999
0
ARC
8
CYAN
10
337.3643819892
20
260.63954808110003
30
0.0
40
237.0513252207
50
-167.97231763999997
51
-165.53060439480004
0
LINE
8
CYAN
10
107.83203036280001
20
201.40923197720002
30
0.0
11
109.93770906280001
21
214.8717133172
31
0.0
0
LINE
8
CYAN
10
109.93770906280001
20
214.8717133172
30
0.0
11
111.85157166280001
21
214.8717133172
31
0.0
0
LINE
8
CYAN
10
111.85157166280001
20
214.8717133172
30
0.0
11
109.15733454280002
21
198.48395585720002
31
0.0
0
LINE
8
CYAN
10
109.15733454280002
20
198.48395585720002
30
0.0
11
106.54132788300001
21
198.48395585720002
31
0.0
0
ARC
8
CYAN
10
106.48260120290001
20
198.59757664900002
30
0.0
40
0.1279003803
50
143.76189527620005
51
297.33288762300003
0
ARC
8
CYAN
10
-182.07854255599997
20
135.1200855211
30
0.0
40
295.376039244
50
12.424912300700003
51
14.304708322300002
0
LINE
8
CYAN
10
104.1394898428
20
208.1011960172
30
0.0
11
101.90858554210001
21
198.6731839622
31
0.0
0
ARC
8
CYAN
10
101.8012410476
20
198.5986727346
30
0.0
40
0.1306704386
50
-118.60874011290001
51
34.7657446184
0
LINE
8
CYAN
10
101.7386726725
20
198.48395585720002
30
0.0
11
98.9515359628
21
198.48395585720002
31
0.0
0
LINE
8
CYAN
10
370.1182491628
20
165.1713558572
30
0.0
11
370.1182491628
21
181.35032114810002
31
0.0
0
ARC
8
CYAN
10
370.2164497987
20
181.4547172327
30
0.0
40
0.1433244828
50
46.75157064370001
51
226.7515706437
0
LINE
8
CYAN
10
370.3146504347
20
181.5591133172
30
0.0
11
381.7802382028
21
181.5591133172
31
0.0
0
LINE
8
CYAN
10
381.7802382028
20
181.5591133172
30
0.0
11
381.7802382028
21
179.6670650972
31
0.0
0
LINE
8
CYAN
10
381.7802382028
20
179.6670650972
30
0.0
11
372.8137453309
21
179.6670650972
31
0.0
0
ARC
8
CYAN
10
372.72376281690003
20
179.58808651060002
30
0.0
40
0.1197266469
50
41.27376088130001
51
221.27376088130003
0
LINE
8
CYAN
10
372.6337803028
20
179.50910792390002
30
0.0
11
372.6337803028
21
174.18369465060002
31
0.0
0
ARC
8
CYAN
10
372.7246566251
20
174.1047160639
30
0.0
40
0.1203998468
50
139.00682206990004
51
319.00682206989995
0
LINE
8
CYAN
10
372.81553294729997
20
174.0257374772
30
0.0
11
380.4374180428
21
174.0257374772
31
0.0
0
LINE
8
CYAN
10
380.4374180428
20
174.0257374772
30
0.0
11
380.4374180428
21
172.1335817972
31
0.0
0
LINE
8
CYAN
10
380.4374180428
20
172.1335817972
30
0.0
11
372.81553294729997
21
172.1335817972
31
0.0
0
ARC
8
CYAN
10
372.7246566251
20
172.05250403460002
30
0.0
40
0.1217871485
50
41.738608265900005
51
221.73860826589998
0
LINE
8
CYAN
10
372.6337803028
20
171.971426272
30
0.0
11
372.6337803028
21
165.3335113825
31
0.0
0
ARC
8
CYAN
10
372.5797356884
20
165.2524336198
30
0.0
40
0.0974393346
50
-123.68653145479996
51
56.31346854520003
0
LINE
8
CYAN
10
372.5256910741
20
165.1713558572
30
0.0
11
370.1182491628
21
165.1713558572
31
0.0
0
ARC
8
CYAN
10
253.4988356768
20
67508.17581429011
30
0.0
40
67170.451530598
50
-90.00004953780001
51
-89.9967586745
0
LINE
8
CYAN
10
257.29878912280003
20
337.7243911772
30
0.0
11
254.2993656028
21
345.5542491572
31
0.0
0
ARC
8
CYAN
10
-2125.4739740641003
20
1250.4677876126
30
0.0
40
2546.0144658405
50
-21.1491394391
51
-20.8194059391
0
ARC
8
CYAN
10
248.9380157706
20
331.8379350856
30
0.0
40
0.1197691435
50
-120.13738687690001
51
17.458855122299997
0
LINE
8
CYAN
10
248.8778826584
20
331.7343558572
30
0.0
11
246.8270270428
21
331.7343558572
31
0.0
0
LINE
8
CYAN
10
246.8270270428
20
331.7343558572
30
0.0
11
253.2197492461
21
347.9380711192
31
0.0
0
ARC
8
CYAN
10
253.34640024840002
20
347.99444847530003
30
0.0
40
0.1386321848
50
67.05638279380001
51
203.9957323635
0
LINE
8
CYAN
10
253.400442554
20
348.12211331720005
30
0.0
11
255.6996970115
21
348.12211331720005
31
0.0
0
ARC
8
CYAN
10
255.7537393171
20
347.9944825189
30
0.0
40
0.1386008351
50
-24.0169074051
51
112.94910327449999
0
LINE
8
CYAN
10
255.8803408395
20
347.9380711192
30
0.0
11
262.2687066628
21
331.7343558572
31
0.0
0
LINE
8
CYAN
10
262.2687066628
20
331.7343558572
30
0.0
11
259.7111145874
21
331.7343558572
31
0.0
0
ARC
8
CYAN
10
259.65369925510004
20
331.8362126139
30
0.0
40
0.1169244169
50
160.68308466130003
51
299.4093919495
0
LINE
8
CYAN
10
259.54335729310003
20
331.8748903943
30
0.0
11
258.1058700324
21
335.6918084202
31
0.0
0
ARC
8
CYAN
10
257.9879162505
20
335.7276195175
30
0.0
40
0.1232701479
50
-16.888436381499993
51
121.83787090670002
0
LINE
8
CYAN
10
257.9228890982
20
335.8323429572
30
0.0
11
252.8493987372
21
335.8323429572
31
0.0
0
ARC
8
CYAN
10
252.78557204
20
335.8680551822
30
0.0
40
0.0731382957
50
109.1544979656
51
330.7721748633
0
LINE
8
CYAN
10
252.76157415420002
20
335.9371443404
30
0.0
11
253.4407602028
21
337.7242837172
31
0.0
0
LINE
8
CYAN
10
158.5854958228
20
331.7343558572
30
0.0
11
158.5854958228
21
348.17444633720004
31
0.0
0
LINE
8
CYAN
10
158.5854958228
20
348.17444633720004
30
0.0
11
160.82992606020002
21
348.17444633720004
31
0.0
0
ARC
8
CYAN
10
160.89573497150002
20
348.011467272
30
0.0
40
0.1757640137
50
-3.5128046621000033
51
111.9882410798
0
ARC
8
CYAN
10
611.0058378023
20
624.6558660239
30
0.0
40
528.1848998705
50
-148.4135343244
51
-146.9054706923
0
LINE
8
CYAN
10
168.50792238280002
20
336.2553055172
30
0.0
11
168.50792238280002
21
348.17444633720004
31
0.0
0
LINE
8
CYAN
10
168.50792238280002
20
348.17444633720004
30
0.0
11
170.56567392280002
21
348.17444633720004
31
0.0
0
LINE
8
CYAN
10
170.56567392280002
20
348.17444633720004
30
0.0
11
170.56567392280002
21
331.7343558572
31
0.0
0
LINE
8
CYAN
10
170.56567392280002
20
331.7343558572
30
0.0
11
168.3707792991
21
331.7343558572
31
0.0
0
ARC
8
CYAN
10
168.306422821
20
331.89727398680003
30
0.0
40
0.1751686993
50
176.01778360749998
51
291.5551811003
0
ARC
8
CYAN
10
-341.41999868999994
20
17.245168515100005
30
0.0
40
598.8793812578
50
31.6966416026
51
33.0372872303
0
LINE
8
CYAN
10
160.6301372428
20
343.7450525972
30
0.0
11
160.6301372428
21
331.7343558572
31
0.0
0
LINE
8
CYAN
10
160.6301372428
20
331.7343558572
30
0.0
11
158.5854958228
21
331.7343558572
31
0.0
0
LINE
8
CYAN
10
68.15586408280001
20
365.04695585720003
30
0.0
11
68.15586408280001
21
381.22592114810004
31
0.0
0
ARC
8
CYAN
10
68.24910871930001
20
381.3303172327
30
0.0
40
0.1399753718
50
48.2293657794
51
228.22936577939998
0
LINE
8
CYAN
10
68.34235335580001
20
381.4347133172
30
0.0
11
79.22929470280002
21
381.4347133172
31
0.0
0
LINE
8
CYAN
10
79.22929470280002
20
381.4347133172
30
0.0
11
79.22929470280002
21
379.647472433
31
0.0
0
ARC
8
CYAN
10
79.1451024047
20
379.5950687651
30
0.0
40
0.0991689845
50
-148.10069761849996
51
31.89930238150004
0
LINE
8
CYAN
10
79.06091010650002
20
379.54266509720003
30
0.0
11
70.839779819
21
379.54266509720003
31
0.0
0
ARC
8
CYAN
10
70.75558752090001
20
379.4731464292
30
0.0
40
0.1091841942
50
39.54692745429999
51
219.5469274543
0
LINE
8
CYAN
10
70.67139522280002
20
379.4036277613
30
0.0
11
70.67139522280002
21
374.7160832932
31
0.0
0
ARC
8
CYAN
10
70.7558755759
20
374.64656462519997
30
0.0
40
0.1094064681
50
140.5491224438
51
320.5491224438
0
LINE
8
CYAN
10
70.84035592910001
20
374.57704595719997
30
0.0
11
77.7568441965
21
374.57704595719997
31
0.0
0
ARC
8
CYAN
10
77.8413245497
20
374.5246422893
30
0.0
40
0.0994136534
50
-31.81157442639999
51
148.1884255736
0
LINE
8
CYAN
10
77.9258049028
20
374.47223862140004
30
0.0
11
77.9258049028
21
372.789805073
31
0.0
0
ARC
8
CYAN
10
77.8413245497
20
372.7374014051
30
0.0
40
0.0994136534
50
-148.1884255736
51
31.81157442639999
0
LINE
8
CYAN
10
77.7568441965
20
372.6849977372
30
0.0
11
70.84035592910001
21
372.6849977372
31
0.0
0
ARC
8
CYAN
10
70.7558755759
20
372.60455382600003
30
0.0
40
0.116653988
50
43.5979932777
51
223.5979932777
0
LINE
8
CYAN
10
70.67139522280002
20
372.5241099148
30
0.0
11
70.67139522280002
21
367.09989189969997
31
0.0
0
ARC
8
CYAN
10
70.7613777368
20
367.0194479884
30
0.0
40
0.1206982837
50
138.20344739009997
51
318.2034473901
0
LINE
8
CYAN
10
70.8513602509
20
366.9390040772
30
0.0
11
79.81785312280002
21
366.9390040772
31
0.0
0
LINE
8
CYAN
10
79.81785312280002
20
366.9390040772
30
0.0
11
79.81785312280002
21
365.04695585720003
31
0.0
0
LINE
8
CYAN
10
79.81785312280002
20
365.04695585720003
30
0.0
11
68.15586408280001
21
365.04695585720003
31
0.0
0
LINE
8
CYAN
10
69.91272762280002
20
173.5243291172
30
0.0
11
76.33340206950001
21
181.0471106827
31
0.0
0
ARC
8
CYAN
10
77.37325162050001
20
180.4851461581
30
0.0
40
1.1819861318
50
114.6857169174
51
151.61194055189998
0
LINE
8
CYAN
10
76.8796062449
20
181.5591133172
30
0.0
11
79.3120389028
21
181.5591133172
31
0.0
0
LINE
8
CYAN
10
79.3120389028
20
181.5591133172
30
0.0
11
72.80989989580002
21
173.95969081020002
31
0.0
0
ARC
8
CYAN
10
72.8378593791
20
173.82303218910002
30
0.0
40
0.139489467
50
101.56278016609998
51
267.26014284599995
0
LINE
8
CYAN
10
72.8311916005
20
173.6837021775
30
0.0
11
80.57630580280002
21
165.1713558572
31
0.0
0
LINE
8
CYAN
10
80.57630580280002
20
165.1713558572
30
0.0
11
78.0345712134
21
165.1713558572
31
0.0
0
ARC
8
CYAN
10
77.8639455119
20
165.7921130743
30
0.0
40
0.6437799722
50
-131.7784914942
51
-74.63083119720001
0
LINE
8
CYAN
10
77.4350254471
20
165.31202950800002
30
0.0
11
69.91272762280002
21
173.5243291172
31
0.0
0
LINE
8
CYAN
10
158.5854958228
20
98.5461558572
30
0.0
11
158.5854958228
21
114.93391331720001
31
0.0
0
LINE
8
CYAN
10
158.5854958228
20
114.93391331720001
30
0.0
11
160.9929377341
21
114.93391331720001
31
0.0
0
ARC
8
CYAN
10
161.0469823484
20
114.8504991675
30
0.0
40
0.0993918543
50
-57.06051403310001
51
122.93948596689998
0
LINE
8
CYAN
10
161.1010269628
20
114.76708501780001
30
0.0
11
161.1010269628
21
107.93788785670002
31
0.0
0
ARC
8
CYAN
10
161.1818006322
20
107.85447370700001
30
0.0
40
0.1161133328
50
134.0786445668
51
314.07864456680005
0
LINE
8
CYAN
10
161.2625743016
20
107.7710595572
30
0.0
11
167.8755927839
21
107.7710595572
31
0.0
0
ARC
8
CYAN
10
167.9563664534
20
107.85447370700001
30
0.0
40
0.1161133328
50
225.9213554155
51
405.9213554155
0
LINE
8
CYAN
10
168.0371401228
20
107.93788785670002
30
0.0
11
168.0371401228
21
114.76708501780001
31
0.0
0
ARC
8
CYAN
10
168.0914640912
20
114.8504991675
30
0.0
40
0.09954403
50
56.925570634699994
51
236.9255706347
0
LINE
8
CYAN
10
168.1457880595
20
114.93391331720001
30
0.0
11
170.56567392280002
21
114.93391331720001
31
0.0
0
LINE
8
CYAN
10
170.56567392280002
20
114.93391331720001
30
0.0
11
170.56567392280002
21
98.5461558572
31
0.0
0
LINE
8
CYAN
10
170.56567392280002
20
98.5461558572
30
0.0
11
168.1457880595
21
98.5461558572
31
0.0
0
ARC
8
CYAN
10
168.0914640912
20
98.63154974150001
30
0.0
40
0.1012087398
50
122.46278906219997
51
302.4627890622
0
LINE
8
CYAN
10
168.0371401228
20
98.71694362570001
30
0.0
11
168.0371401228
21
105.7082235687
31
0.0
0
ARC
8
CYAN
10
167.9563664534
20
105.79361745290001
30
0.0
40
0.1175436138
50
313.4073267206999
51
493.4073267207
0
LINE
8
CYAN
10
167.8755927839
20
105.87901133720001
30
0.0
11
161.2625743016
21
105.87901133720001
31
0.0
0
ARC
8
CYAN
10
161.1818006322
20
105.79361745290001
30
0.0
40
0.1175436138
50
46.592673297
51
226.59267329700003
0
LINE
8
CYAN
10
161.1010269628
20
105.7082235687
30
0.0
11
161.1010269628
21
98.71694362570001
31
0.0
0
ARC
8
CYAN
10
161.0469823484
20
98.63154974150001
30
0.0
40
0.1010590709
50
-122.32915678449999
51
57.67084321550001
0
LINE
8
CYAN
10
160.9929377341
20
98.5461558572
30
0.0
11
158.5854958228
21
98.5461558572
31
0.0
0
ARC
8
CYAN
10
69.85868531720001
20
165.2535320988
30
0.0
40
0.0983539805
50
-123.3304818421
51
56.6695181579
0
LINE
8
CYAN
10
69.80464301150002
20
165.1713558572
30
0.0
11
67.39730394280002
21
165.1713558572
31
0.0
0
LINE
8
CYAN
10
67.39730394280002
20
165.1713558572
30
0.0
11
67.39730394280002
21
181.5591133172
31
0.0
0
LINE
8
CYAN
10
67.39730394280002
20
181.5591133172
30
0.0
11
69.91272762280002
21
181.5591133172
31
0.0
0
LINE
8
CYAN
10
69.91272762280002
20
181.5591133172
30
0.0
11
69.91272762280002
21
165.3357083404
31
0.0
0
LINE
8
CYAN
10
370.1182491628
20
365.04695585720003
30
0.0
11
370.1182491628
21
381.22592114810004
31
0.0
0
ARC
8
CYAN
10
370.2164497987
20
381.3303172327
30
0.0
40
0.1433244828
50
46.75157064370001
51
226.7515706437
0
LINE
8
CYAN
10
370.3146504347
20
381.4347133172
30
0.0
11
381.7802382028
21
381.4347133172
31
0.0
0
LINE
8
CYAN
10
381.7802382028
20
381.4347133172
30
0.0
11
381.7802382028
21
379.54266509720003
31
0.0
0
LINE
8
CYAN
10
381.7802382028
20
379.54266509720003
30
0.0
11
372.8137453309
21
379.54266509720003
31
0.0
0
ARC
8
CYAN
10
372.72376281690003
20
379.46368651060004
30
0.0
40
0.1197266469
50
41.2737608812
51
221.2737608812
0
LINE
8
CYAN
10
372.6337803028
20
379.3847079239
30
0.0
11
372.6337803028
21
374.0592946506
31
0.0
0
ARC
8
CYAN
10
372.7246566251
20
373.9803160639
30
0.0
40
0.1203998468
50
139.00682206990004
51
319.00682206989995
0
LINE
8
CYAN
10
372.81553294729997
20
373.9013374772
30
0.0
11
380.4374180428
21
373.9013374772
31
0.0
0
LINE
8
CYAN
10
380.4374180428
20
373.9013374772
30
0.0
11
380.4374180428
21
372.0091817972
31
0.0
0
LINE
8
CYAN
10
380.4374180428
20
372.0091817972
30
0.0
11
372.81553294729997
21
372.0091817972
31
0.0
0
ARC
8
CYAN
10
372.7246566251
20
371.9281040346
30
0.0
40
0.1217871485
50
41.738608265900005
51
221.73860826589998
0
LINE
8
CYAN
10
372.6337803028
20
371.847026272
30
0.0
11
372.6337803028
21
365.2091113825
31
0.0
0
ARC
8
CYAN
10
372.5797356884
20
365.1280336198
30
0.0
40
0.0974393346
50
-123.68653145479996
51
56.31346854520003
0
LINE
8
CYAN
10
372.5256910741
20
365.04695585720003
30
0.0
11
370.1182491628
21
365.04695585720003
31
0.0
0
ARC
8
CYAN
10
103.1340336968
20
67274.98761429
30
0.0
40
67170.4515305979
50
-90.00004953780001
51
-89.9967586745
0
LINE
8
CYAN
10
106.9339871428
20
104.53619117720001
30
0.0
11
103.93456362280001
21
112.36604915720001
31
0.0
0
ARC
8
CYAN
10
-2275.8387760441
20
1017.2795876125999
30
0.0
40
2546.0144658405
50
-21.1491394391
51
-20.8194059391
0
ARC
8
CYAN
10
98.57321379060002
20
98.64973508560001
30
0.0
40
0.1197691435
50
-120.13738687690001
51
17.458855122299997
0
LINE
8
CYAN
10
98.5130806784
20
98.5461558572
30
0.0
11
96.4622250628
21
98.5461558572
31
0.0
0
LINE
8
CYAN
10
96.4622250628
20
98.5461558572
30
0.0
11
102.85494726610001
21
114.74987111920001
31
0.0
0
ARC
8
CYAN
10
102.9815982684
20
114.80624847530001
30
0.0
40
0.1386321848
50
67.05638279380001
51
203.9957323635
0
LINE
8
CYAN
10
103.03564057400001
20
114.93391331720001
30
0.0
11
105.33489503150001
21
114.93391331720001
31
0.0
0
ARC
8
CYAN
10
105.3889373371
20
114.8062825189
30
0.0
40
0.1386008351
50
-24.0169074051
51
112.94910327449999
0
LINE
8
CYAN
10
105.51553885950001
20
114.74987111920001
30
0.0
11
111.9039046828
21
98.5461558572
31
0.0
0
LINE
8
CYAN
10
111.9039046828
20
98.5461558572
30
0.0
11
109.34631260740001
21
98.5461558572
31
0.0
0
ARC
8
CYAN
10
109.28889727510001
20
98.64801261390001
30
0.0
40
0.1169244169
50
160.68308466129997
51
299.40939194939995
0
LINE
8
CYAN
10
109.1785553131
20
98.68669039430002
30
0.0
11
107.74106805240001
21
102.50360842020001
31
0.0
0
ARC
8
CYAN
10
107.62311427050001
20
102.53941951750001
30
0.0
40
0.1232701479
50
-16.888436381499993
51
121.83787090670002
0
LINE
8
CYAN
10
107.5580871182
20
102.64414295720002
30
0.0
11
102.48459675720001
21
102.64414295720002
31
0.0
0
ARC
8
CYAN
10
102.42077006000001
20
102.67985518220001
30
0.0
40
0.0731382957
50
109.1544979656
51
330.7721748633
0
LINE
8
CYAN
10
102.39677217420001
20
102.74894434040002
30
0.0
11
103.07595822280001
21
104.53608371720001
31
0.0
0
LINE
8
CYAN
10
279.3704283628
20
331.7343558572
30
0.0
11
279.3704283628
21
348.17444633720004
31
0.0
0
LINE
8
CYAN
10
279.3704283628
20
348.17444633720004
30
0.0
11
281.6148586002
21
348.17444633720004
31
0.0
0
ARC
8
CYAN
10
281.6806675115
20
348.011467272
30
0.0
40
0.1757640137
50
-3.5128046621000033
51
111.9882410798
0
ARC
8
CYAN
10
731.7907703423
20
624.6558660239
30
0.0
40
528.1848998705
50
-148.4135343244
51
-146.9054706923
0
LINE
8
CYAN
10
289.2928549228
20
336.2553055172
30
0.0
11
289.2928549228
21
348.17444633720004
31
0.0
0
LINE
8
CYAN
10
289.2928549228
20
348.17444633720004
30
0.0
11
291.3506064628
21
348.17444633720004
31
0.0
0
LINE
8
CYAN
10
291.3506064628
20
348.17444633720004
30
0.0
11
291.3506064628
21
331.7343558572
31
0.0
0
LINE
8
CYAN
10
291.3506064628
20
331.7343558572
30
0.0
11
289.15571183910004
21
331.7343558572
31
0.0
0
ARC
8
CYAN
10
289.091355361
20
331.89727398680003
30
0.0
40
0.1751686993
50
176.01778360749998
51
291.5551811003
0
ARC
8
CYAN
10
-220.63506614999997
20
17.245168515100005
30
0.0
40
598.8793812578
50
31.6966416026
51
33.0372872303
0
LINE
8
CYAN
10
281.4150697828
20
343.7450525972
30
0.0
11
281.4150697828
21
331.7343558572
31
0.0
0
LINE
8
CYAN
10
281.4150697828
20
331.7343558572
30
0.0
11
279.3704283628
21
331.7343558572
31
0.0
0
LINE
8
CYAN
10
72.7203350428
20
265.1091558572
30
0.0
11
72.7203350428
21
279.420179024
31
0.0
0
ARC
8
CYAN
10
72.6322019387
20
279.5125220606
30
0.0
40
0.1276506187
50
313.6637146234
51
493.66371462340004
0
LINE
8
CYAN
10
72.54406883460001
20
279.6048650972
30
0.0
11
66.4251133228
21
279.6048650972
31
0.0
0
LINE
8
CYAN
10
66.4251133228
20
279.6048650972
30
0.0
11
66.4251133228
21
281.4969133172
31
0.0
0
LINE
8
CYAN
10
66.4251133228
20
281.4969133172
30
0.0
11
81.54849642280001
21
281.4969133172
31
0.0
0
LINE
8
CYAN
10
81.54849642280001
20
281.4969133172
30
0.0
11
81.54849642280001
21
279.6048650972
31
0.0
0
LINE
8
CYAN
10
81.54849642280001
20
279.6048650972
30
0.0
11
75.425258415
21
279.6048650972
31
0.0
0
ARC
8
CYAN
10
75.33706362890001
20
279.5125220606
30
0.0
40
0.1276932132
50
46.3162639739
51
226.3162639739
0
LINE
8
CYAN
10
75.24886884280002
20
279.420179024
30
0.0
11
75.24886884280002
21
265.1091558572
31
0.0
0
LINE
8
CYAN
10
75.24886884280002
20
265.1091558572
30
0.0
11
72.7203350428
21
265.1091558572
31
0.0
0
LINE
8
CYAN
10
339.92209662280004
20
131.8587558572
30
0.0
11
339.92209662280004
21
148.0377211481
31
0.0
0
ARC
8
CYAN
10
340.0153412593
20
148.14211723260001
30
0.0
40
0.1399753718
50
48.2293657794
51
228.22936577939998
0
LINE
8
CYAN
10
340.1085858958
20
148.24651331720003
30
0.0
11
350.9955272428
21
148.24651331720003
31
0.0
0
LINE
8
CYAN
10
350.9955272428
20
148.24651331720003
30
0.0
11
350.9955272428
21
146.45927243300002
31
0.0
0
ARC
8
CYAN
10
350.9113349446
20
146.4068687651
30
0.0
40
0.0991689845
50
-148.10069761849996
51
31.89930238150004
0
LINE
8
CYAN
10
350.8271426465
20
146.3544650972
30
0.0
11
342.60601235900003
21
146.3544650972
31
0.0
0
ARC
8
CYAN
10
342.52182006090004
20
146.2849464292
30
0.0
40
0.1091841942
50
39.54692745429999
51
219.5469274543
0
LINE
8
CYAN
10
342.4376277628
20
146.21542776130002
30
0.0
11
342.4376277628
21
141.5278832932
31
0.0
0
ARC
8
CYAN
10
342.5221081159
20
141.4583646252
30
0.0
40
0.1094064681
50
140.5491224438
51
320.5491224438
0
LINE
8
CYAN
10
342.6065884691
20
141.3888459572
30
0.0
11
349.5230767365
21
141.3888459572
31
0.0
0
ARC
8
CYAN
10
349.6075570897
20
141.3364422893
30
0.0
40
0.0994136534
50
-31.81157442639999
51
148.1884255736
0
LINE
8
CYAN
10
349.69203744280003
20
141.28403862140001
30
0.0
11
349.69203744280003
21
139.60160507300003
31
0.0
0
ARC
8
CYAN
10
349.6075570897
20
139.5492014051
30
0.0
40
0.0994136534
50
-148.1884255736
51
31.81157442639999
0
LINE
8
CYAN
10
349.5230767365
20
139.4967977372
30
0.0
11
342.6065884691
21
139.4967977372
31
0.0
0
ARC
8
CYAN
10
342.5221081159
20
139.416353826
30
0.0
40
0.116653988
50
43.5979932777
51
223.5979932777
0
LINE
8
CYAN
10
342.4376277628
20
139.33590991480003
30
0.0
11
342.4376277628
21
133.91169189970003
31
0.0
0
ARC
8
CYAN
10
342.52761027680003
20
133.83124798850002
30
0.0
40
0.1206982837
50
138.20344739009997
51
318.2034473901
0
LINE
8
CYAN
10
342.6175927909
20
133.75080407720003
30
0.0
11
351.5840856628
21
133.75080407720003
31
0.0
0
LINE
8
CYAN
10
351.5840856628
20
133.75080407720003
30
0.0
11
351.5840856628
21
131.8587558572
31
0.0
0
LINE
8
CYAN
10
351.5840856628
20
131.8587558572
30
0.0
11
339.92209662280004
21
131.8587558572
31
0.0
0
LINE
8
CYAN
10
193.43767524280003
20
298.19995841720004
30
0.0
11
187.0770103828
21
314.5877158772
31
0.0
0
LINE
8
CYAN
10
187.0770103828
20
314.5877158772
30
0.0
11
189.6179419605
21
314.5877158772
31
0.0
0
ARC
8
CYAN
10
189.67498328160002
20
314.4544591002
30
0.0
40
0.1449519953
50
-22.9986567217
51
113.17362131340002
0
LINE
8
CYAN
10
189.8084136246
20
314.3978249717
30
0.0
11
194.9723115028
21
301.56119975720003
31
0.0
0
LINE
8
CYAN
10
194.9723115028
20
301.56119975720003
30
0.0
11
200.2392437833
21
314.3978249717
31
0.0
0
ARC
8
CYAN
10
200.3766859065
20
314.4523613158
30
0.0
40
0.1478666631
50
66.26011105899998
51
201.6429293043
0
LINE
8
CYAN
10
200.43621483040002
20
314.5877158772
30
0.0
11
202.4664644428
21
314.5877158772
31
0.0
0
LINE
8
CYAN
10
202.4664644428
20
314.5877158772
30
0.0
11
196.03931621110002
21
298.3840006153
31
0.0
0
ARC
8
CYAN
10
195.9119902257
20
298.32800539050004
30
0.0
40
0.1390948301
50
-112.989975271
51
23.73885877069999
0
LINE
8
CYAN
10
195.85766394860002
20
298.19995841720004
30
0.0
11
193.43767524280003
21
298.19995841720004
31
0.0
0
ARC
8
CYAN
10
103.1340336968
20
67408.23801429001
30
0.0
40
67170.4515305979
50
-90.00004953780001
51
-89.9967586745
0
LINE
8
CYAN
10
106.9339871428
20
237.78659117720002
30
0.0
11
103.93456362280001
21
245.6164491572
31
0.0
0
ARC
8
CYAN
10
-2275.8387760441
20
1150.5299876126
30
0.0
40
2546.0144658405
50
-21.1491394391
51
-20.8194059391
0
ARC
8
CYAN
10
98.57321379060002
20
231.9001350856
30
0.0
40
0.1197691435
50
-120.13738687690001
51
17.458855122299997
0
LINE
8
CYAN
10
98.5130806784
20
231.79655585720002
30
0.0
11
96.4622250628
21
231.79655585720002
31
0.0
0
LINE
8
CYAN
10
96.4622250628
20
231.79655585720002
30
0.0
11
102.85494726610001
21
248.00027111920002
31
0.0
0
ARC
8
CYAN
10
102.9815982684
20
248.05664847530002
30
0.0
40
0.1386321848
50
67.05638279380001
51
203.9957323635
0
LINE
8
CYAN
10
103.03564057400001
20
248.1843133172
30
0.0
11
105.33489503150001
21
248.1843133172
31
0.0
0
ARC
8
CYAN
10
105.3889373371
20
248.0566825189
30
0.0
40
0.1386008351
50
-24.0169074051
51
112.94910327449999
0
LINE
8
CYAN
10
105.51553885950001
20
248.00027111920002
30
0.0
11
111.9039046828
21
231.79655585720002
31
0.0
0
LINE
8
CYAN
10
111.9039046828
20
231.79655585720002
30
0.0
11
109.34631260740001
21
231.79655585720002
31
0.0
0
ARC
8
CYAN
10
109.28889727510001
20
231.8984126139
30
0.0
40
0.1169244169
50
160.68308466129997
51
299.40939194939995
0
LINE
8
CYAN
10
109.1785553131
20
231.93709039430001
30
0.0
11
107.74106805240001
21
235.75400842020002
31
0.0
0
ARC
8
CYAN
10
107.62311427050001
20
235.7898195175
30
0.0
40
0.1232701479
50
-16.888436381499993
51
121.83787090670002
0
LINE
8
CYAN
10
107.5580871182
20
235.8945429572
30
0.0
11
102.48459675720001
21
235.8945429572
31
0.0
0
ARC
8
CYAN
10
102.42077006000001
20
235.9302551822
30
0.0
40
0.0731382957
50
109.1544979656
51
330.7721748633
0
LINE
8
CYAN
10
102.39677217420001
20
235.9993443404
30
0.0
11
103.07595822280001
21
237.7864837172
31
0.0
0
LINE
8
CYAN
10
249.1741683628
20
131.8587558572
30
0.0
11
249.1741683628
21
148.29884633720002
31
0.0
0
LINE
8
CYAN
10
249.1741683628
20
148.29884633720002
30
0.0
11
251.4185986002
21
148.29884633720002
31
0.0
0
ARC
8
CYAN
10
251.48440751150002
20
148.135867272
30
0.0
40
0.1757640137
50
-3.5128046621000033
51
111.9882410798
0
ARC
8
CYAN
10
701.5945103423
20
424.7802660239
30
0.0
40
528.1848998705
50
-148.4135343244
51
-146.9054706923
0
LINE
8
CYAN
10
259.0965949228
20
136.37970551720002
30
0.0
11
259.0965949228
21
148.29884633720002
31
0.0
0
LINE
8
CYAN
10
259.0965949228
20
148.29884633720002
30
0.0
11
261.1543464628
21
148.29884633720002
31
0.0
0
LINE
8
CYAN
10
261.1543464628
20
148.29884633720002
30
0.0
11
261.1543464628
21
131.8587558572
31
0.0
0
LINE
8
CYAN
10
261.1543464628
20
131.8587558572
30
0.0
11
258.9594518391
21
131.8587558572
31
0.0
0
ARC
8
CYAN
10
258.895095361
20
132.0216739868
30
0.0
40
0.1751686993
50
176.01778360749998
51
291.5551811003
0
ARC
8
CYAN
10
-250.83132614999997
20
-182.6304314849
30
0.0
40
598.8793812578
50
31.6966416026
51
33.0372872303
0
LINE
8
CYAN
10
251.2188097828
20
143.8694525972
30
0.0
11
251.2188097828
21
131.8587558572
31
0.0
0
LINE
8
CYAN
10
251.2188097828
20
131.8587558572
30
0.0
11
249.1741683628
21
131.8587558572
31
0.0
0
LINE
8
CYAN
10
68.15586408280001
20
131.8587558572
30
0.0
11
68.15586408280001
21
148.0377211481
31
0.0
0
ARC
8
CYAN
10
68.24910871930001
20
148.14211723260001
30
0.0
40
0.1399753718
50
48.2293657794
51
228.22936577939998
0
LINE
8
CYAN
10
68.34235335580001
20
148.24651331720003
30
0.0
11
79.22929470280002
21
148.24651331720003
31
0.0
0
LINE
8
CYAN
10
79.22929470280002
20
148.24651331720003
30
0.0
11
79.22929470280002
21
146.45927243300002
31
0.0
0
ARC
8
CYAN
10
79.1451024047
20
146.4068687651
30
0.0
40
0.0991689845
50
-148.10069761849996
51
31.89930238150004
0
LINE
8
CYAN
10
79.06091010650002
20
146.3544650972
30
0.0
11
70.839779819
21
146.3544650972
31
0.0
0
ARC
8
CYAN
10
70.75558752090001
20
146.2849464292
30
0.0
40
0.1091841942
50
39.54692745429999
51
219.5469274543
0
LINE
8
CYAN
10
70.67139522280002
20
146.21542776130002
30
0.0
11
70.67139522280002
21
141.5278832932
31
0.0
0
ARC
8
CYAN
10
70.7558755759
20
141.4583646252
30
0.0
40
0.1094064681
50
140.5491224438
51
320.5491224438
0
LINE
8
CYAN
10
70.84035592910001
20
141.3888459572
30
0.0
11
77.7568441965
21
141.3888459572
31
0.0
0
ARC
8
CYAN
10
77.8413245497
20
141.3364422893
30
0.0
40
0.0994136534
50
-31.81157442639999
51
148.1884255736
0
LINE
8
CYAN
10
77.9258049028
20
141.28403862140001
30
0.0
11
77.9258049028
21
139.60160507300003
31
0.0
0
ARC
8
CYAN
10
77.8413245497
20
139.5492014051
30
0.0
40
0.0994136534
50
-148.1884255736
51
31.81157442639999
0
LINE
8
CYAN
10
77.7568441965
20
139.4967977372
30
0.0
11
70.84035592910001
21
139.4967977372
31
0.0
0
ARC
8
CYAN
10
70.7558755759
20
139.416353826
30
0.0
40
0.116653988
50
43.5979932777
51
223.5979932777
0
LINE
8
CYAN
10
70.67139522280002
20
139.33590991480003
30
0.0
11
70.67139522280002
21
133.91169189970003
31
0.0
0
ARC
8
CYAN
10
70.7613777368
20
133.83124798850002
30
0.0
40
0.1206982837
50
138.20344739009997
51
318.2034473901
0
LINE
8
CYAN
10
70.8513602509
20
133.75080407720003
30
0.0
11
79.81785312280002
21
133.75080407720003
31
0.0
0
LINE
8
CYAN
10
79.81785312280002
20
133.75080407720003
30
0.0
11
79.81785312280002
21
131.8587558572
31
0.0
0
LINE
8
CYAN
10
79.81785312280002
20
131.8587558572
30
0.0
11
68.15586408280001
21
131.8587558572
31
0.0
0
LINE
8
CYAN
10
281.37455736280003
20
312.69566765720003
30
0.0
11
281.37455736280003
21
309.21858871210003
31
0.0
0
ARC
8
CYAN
10
281.3205496878
20
309.1568508047
30
0.0
40
0.0820268138
50
-131.17909453120004
51
48.82090546879998
0
LINE
8
CYAN
10
281.2665420128
20
309.0951128972
30
0.0
11
278.9687609327
21
309.0951128972
31
0.0
0
ARC
8
CYAN
10
278.9147532577
20
309.1720781444
30
0.0
40
0.0940238174
50
125.20364324120001
51
305.05791813940004
0
LINE
8
CYAN
10
278.86055000560003
20
309.2489057807
30
0.0
11
278.85395626
21
314.4339229938
31
0.0
0
ARC
8
CYAN
10
278.93240069210003
20
314.510919317
30
0.0
40
0.1099179817
50
44.32051447020001
51
224.466239572
0
ARC
8
CYAN
10
281.2255433622
20
254.74440580060002
30
0.0
40
59.8842699126
50
85.1945942136
51
92.11926425080001
0
ARC
8
CYAN
10
285.9753280395
20
310.5887223374
30
0.0
40
3.8387427794
50
-11.5675336983
51
86.01414074459998
0
ARC
8
CYAN
10
284.7600982
20
310.620012493
30
0.0
40
5.0400684868
50
-62.23642275129998
51
-9.14511277859999
0
LINE
8
CYAN
10
287.1078841753
20
306.1601704144
30
0.0
11
286.2127289428
21
305.6591868572
31
0.0
0
LINE
8
CYAN
10
286.2127289428
20
305.6591868572
30
0.0
11
291.8671666828
21
298.19995841720004
31
0.0
0
LINE
8
CYAN
10
291.8671666828
20
298.19995841720004
30
0.0
11
288.9465403066
21
298.19995841720004
31
0.0
0
ARC
8
CYAN
10
288.8809752247
20
298.35543647450004
30
0.0
40
0.1687370921
50
-172.74164729349997
51
-67.13485183069999
0
LINE
8
CYAN
10
288.7135903003
20
298.33411762540004
30
0.0
11
283.74238622530004
21
304.8842436691
31
0.0
0
ARC
8
CYAN
10
283.352518443
20
304.4829355565
30
0.0
40
0.5595043244
50
45.828433939899995
51
106.85556378740002
0
LINE
8
CYAN
10
283.1902845458
20
305.0184028772
30
0.0
11
281.4951058654
21
305.0184028772
31
0.0
0
ARC
8
CYAN
10
281.4321988441
20
304.93899950440004
30
0.0
40
0.1013024626
50
51.61210801639999
51
231.6121080164
0
LINE
8
CYAN
10
281.3692918228
20
304.8595961317
30
0.0
11
281.3692918228
21
298.3587651627
31
0.0
0
ARC
8
CYAN
10
281.3152472084
20
298.2793617899
30
0.0
40
0.0960505905
50
-124.24052418810003
51
55.75947581189997
0
LINE
8
CYAN
10
281.2612025941
20
298.19995841720004
30
0.0
11
278.9618499114
21
298.19995841720004
31
0.0
0
ARC
8
CYAN
10
278.9078052971
20
298.2859648491
30
0.0
40
0.1015771956
50
122.14438135439997
51
302.1443813544
0
LINE
8
CYAN
10
278.8537606828
20
298.371971281
30
0.0
11
278.8537606828
21
306.77024639350003
31
0.0
0
ARC
8
CYAN
10
278.91927565960003
20
306.8562528254
30
0.0
40
0.1081171518
50
52.14461152140001
51
232.7018406883
0
ARC
8
CYAN
10
280.7696253057
20
341.89208033930004
30
0.0
40
34.9959637104
50
-92.9220532552
51
-84.39168994270001
0
ARC
8
CYAN
10
283.7725494279
20
310.3744036105
30
0.0
40
3.3369442237
50
-82.818950921
51
-2.4377624843000016
0
ARC
8
CYAN
10
285.0821037178
20
310.47570556100004
30
0.0
40
2.0389305634
50
-6.8514677947
51
85.12526887300001
0
ARC
8
CYAN
10
281.5744946518
20
276.7512201125
30
0.0
40
35.9450036057
50
84.12244348699998
51
90.3186985881
0
LINE
8
CYAN
10
249.33320916280002
20
298.19995841720004
30
0.0
11
249.33320916280002
21
314.37892370810005
31
0.0
0
ARC
8
CYAN
10
249.42645379930002
20
314.4833197926
30
0.0
40
0.1399753718
50
48.2293657794
51
228.22936577939998
0
LINE
8
CYAN
10
249.51969843580002
20
314.5877158772
30
0.0
11
260.4066397828
21
314.5877158772
31
0.0
0
LINE
8
CYAN
10
260.4066397828
20
314.5877158772
30
0.0
11
260.4066397828
21
312.800474993
31
0.0
0
ARC
8
CYAN
10
260.3224474846
20
312.7480713251
30
0.0
40
0.0991689845
50
-148.10069761849996
51
31.89930238150004
0
LINE
8
CYAN
10
260.2382551865
20
312.69566765720003
30
0.0
11
252.017124899
21
312.69566765720003
31
0.0
0
ARC
8
CYAN
10
251.93293260090002
20
312.62614898920003
30
0.0
40
0.1091841942
50
39.54692745429999
51
219.5469274543
0
LINE
8
CYAN
10
251.8487403028
20
312.5566303213
30
0.0
11
251.8487403028
21
307.8690858532
31
0.0
0
ARC
8
CYAN
10
251.933220656
20
307.7995671852
30
0.0
40
0.1094064681
50
140.5491224439
51
320.5491224439
0
LINE
8
CYAN
10
252.0177010091
20
307.73004851720003
30
0.0
11
258.9341892765
21
307.73004851720003
31
0.0
0
ARC
8
CYAN
10
259.0186696296
20
307.6776448493
30
0.0
40
0.0994136534
50
-31.81157442639999
51
148.1884255736
0
LINE
8
CYAN
10
259.1031499828
20
307.62524118140004
30
0.0
11
259.1031499828
21
305.94280763300003
31
0.0
0
ARC
8
CYAN
10
259.0186696296
20
305.8904039651
30
0.0
40
0.0994136534
50
-148.1884255736
51
31.81157442639999
0
LINE
8
CYAN
10
258.9341892765
20
305.8380002972
30
0.0
11
252.0177010091
21
305.8380002972
31
0.0
0
ARC
8
CYAN
10
251.933220656
20
305.75755638600003
30
0.0
40
0.116653988
50
43.5979932777
51
223.5979932777
0
LINE
8
CYAN
10
251.8487403028
20
305.6771124748
30
0.0
11
251.8487403028
21
300.25289445970003
31
0.0
0
ARC
8
CYAN
10
251.9387228168
20
300.1724505485
30
0.0
40
0.1206982837
50
138.20344739009997
51
318.2034473901
0
LINE
8
CYAN
10
252.0287053309
20
300.09200663720003
30
0.0
11
260.9951982028
21
300.09200663720003
31
0.0
0
LINE
8
CYAN
10
260.9951982028
20
300.09200663720003
30
0.0
11
260.9951982028
21
298.19995841720004
31
0.0
0
LINE
8
CYAN
10
260.9951982028
20
298.19995841720004
30
0.0
11
249.33320916280002
21
298.19995841720004
31
0.0
0
ARC
8
CYAN
10
285.376426171
20
237.04496469990002
30
0.0
40
3.9314131225
50
-140.1730197181
51
-21.091094392100015
0
ARC
8
CYAN
10
277.372710632
20
239.90593957000002
30
0.0
40
12.4302706748
50
-20.1192315212
51
14.318178039400005
0
LINE
8
CYAN
10
289.4168637628
20
242.9800255172
30
0.0
11
291.20059230280003
21
245.12224061720002
31
0.0
0
ARC
8
CYAN
10
282.5963492777
20
240.299403439
30
0.0
40
9.8637090632
50
-2.692386860599999
51
29.2714358511
0
ARC
8
CYAN
10
282.6494820328
20
239.4161236381
30
0.0
40
9.8086817978
50
-36.5751078922
51
2.453786739399999
0
ARC
8
CYAN
10
285.337358017
20
238.1056898267
30
0.0
40
6.8911802367
50
-130.1475691033
51
-41.1467243865
0
LINE
8
CYAN
10
280.8942111628
20
232.8381656372
30
0.0
11
282.3571716028
21
234.5270069972
31
0.0
0
LINE
8
CYAN
10
189.0999448828
20
165.1713558572
30
0.0
11
189.0999448828
21
166.95859674140002
31
0.0
0
ARC
8
CYAN
10
189.1755206605
20
167.0110004093
30
0.0
40
0.0919665297
50
34.73714401569999
51
214.7371440157
0
LINE
8
CYAN
10
189.2510964383
20
167.0634040772
30
0.0
11
193.3563726872
21
167.0634040772
31
0.0
0
ARC
8
CYAN
10
193.431948465
20
167.1552674957
30
0.0
40
0.1189562351
50
230.55596424829997
51
410.5559642483
0
LINE
8
CYAN
10
193.5075242428
20
167.24713091430002
30
0.0
11
193.5075242428
21
179.48333826020001
31
0.0
0
ARC
8
CYAN
10
193.431948465
20
179.5752016787
30
0.0
40
0.118956235
50
309.444035767
51
489.4440357670001
0
LINE
8
CYAN
10
193.3563726872
20
179.6670650972
30
0.0
11
189.2510964383
21
179.6670650972
31
0.0
0
ARC
8
CYAN
10
189.1755206605
20
179.7194687651
30
0.0
40
0.0919665297
50
145.2628559843
51
325.2628559843001
0
LINE
8
CYAN
10
189.0999448828
20
179.771872433
30
0.0
11
189.0999448828
21
181.5591133172
31
0.0
0
LINE
8
CYAN
10
189.0999448828
20
181.5591133172
30
0.0
11
200.4436374028
21
181.5591133172
31
0.0
0
LINE
8
CYAN
10
200.4436374028
20
181.5591133172
30
0.0
11
200.4436374028
21
179.771872433
31
0.0
0
ARC
8
CYAN
10
200.368061625
20
179.7194687651
30
0.0
40
0.0919665298
50
-145.2628560021
51
34.7371439979
0
LINE
8
CYAN
10
200.2924858472
20
179.6670650972
30
0.0
11
196.1872095983
21
179.6670650972
31
0.0
0
ARC
8
CYAN
10
196.1116338205
20
179.5752016787
30
0.0
40
0.118956235
50
50.55596425160002
51
230.55596425160002
0
LINE
8
CYAN
10
196.0360580428
20
179.48333826020001
30
0.0
11
196.0360580428
21
167.24713091430002
31
0.0
0
ARC
8
CYAN
10
196.1116338205
20
167.1552674957
30
0.0
40
0.118956235
50
129.4440357331
51
309.44403573310007
0
LINE
8
CYAN
10
196.1872095983
20
167.0634040772
30
0.0
11
200.2924858472
21
167.0634040772
31
0.0
0
ARC
8
CYAN
10
200.368061625
20
167.0110004093
30
0.0
40
0.0919665298
50
-34.73714399789997
51
145.2628560021
0
LINE
8
CYAN
10
200.4436374028
20
166.95859674140002
30
0.0
11
200.4436374028
21
165.1713558572
31
0.0
0
LINE
8
CYAN
10
200.4436374028
20
165.1713558572
30
0.0
11
189.0999448828
21
165.1713558572
31
0.0
0
LINE
8
CYAN
10
371.9633373628
20
79.5520635572
30
0.0
11
371.9633373628
21
76.07498461210002
31
0.0
0
ARC
8
CYAN
10
371.9093296878
20
76.01324670470001
30
0.0
40
0.0820268138
50
-131.17909453120004
51
48.82090546879998
0
LINE
8
CYAN
10
371.8553220128
20
75.9515087972
30
0.0
11
369.5575409327
21
75.9515087972
31
0.0
0
ARC
8
CYAN
10
369.50353325770004
20
76.02847404440001
30
0.0
40
0.0940238174
50
125.20364324120001
51
305.05791813940004
0
LINE
8
CYAN
10
369.4493300056
20
76.10530168070002
30
0.0
11
369.44273626
21
81.29031889380002
31
0.0
0
ARC
8
CYAN
10
369.5211806921
20
81.367315217
30
0.0
40
0.1099179817
50
44.32051447020001
51
224.466239572
0
ARC
8
CYAN
10
371.8143233622
20
21.600801700600016
30
0.0
40
59.8842699126
50
85.1945942136
51
92.11926425080001
0
ARC
8
CYAN
10
376.5641080395
20
77.44511823740001
30
0.0
40
3.8387427794
50
-11.5675336983
51
86.01414074459998
0
ARC
8
CYAN
10
375.3488782
20
77.47640839300001
30
0.0
40
5.0400684868
50
-62.23642275129998
51
-9.14511277859999
0
LINE
8
CYAN
10
377.69666417530004
20
73.01656631440002
30
0.0
11
376.8015089428
21
72.51558275720001
31
0.0
0
LINE
8
CYAN
10
376.8015089428
20
72.51558275720001
30
0.0
11
382.4559466828
21
65.0563543172
31
0.0
0
LINE
8
CYAN
10
382.4559466828
20
65.0563543172
30
0.0
11
379.5353203066
21
65.0563543172
31
0.0
0
ARC
8
CYAN
10
379.4697552247
20
65.2118323745
30
0.0
40
0.1687370921
50
-172.74164729349997
51
-67.13485183069999
0
LINE
8
CYAN
10
379.3023703003
20
65.19051352540001
30
0.0
11
374.33116622529997
21
71.74063956910001
31
0.0
0
ARC
8
CYAN
10
373.94129844300005
20
71.33933145650002
30
0.0
40
0.5595043244
50
45.828433939899995
51
106.85556378740002
0
LINE
8
CYAN
10
373.7790645458
20
71.8747987772
30
0.0
11
372.0838858654
21
71.8747987772
31
0.0
0
ARC
8
CYAN
10
372.0209788441
20
71.79539540440001
30
0.0
40
0.1013024626
50
51.61210801639999
51
231.6121080164
0
LINE
8
CYAN
10
371.9580718228
20
71.71599203170001
30
0.0
11
371.9580718228
21
65.21516106270002
31
0.0
0
ARC
8
CYAN
10
371.9040272084
20
65.13575769000002
30
0.0
40
0.0960505905
50
-124.24052418810003
51
55.75947581189997
0
LINE
8
CYAN
10
371.84998259409997
20
65.0563543172
30
0.0
11
369.5506299114
21
65.0563543172
31
0.0
0
ARC
8
CYAN
10
369.4965852971
20
65.14236074910002
30
0.0
40
0.1015771956
50
122.14438135439997
51
302.1443813544
0
LINE
8
CYAN
10
369.4425406828
20
65.22836718100001
30
0.0
11
369.4425406828
21
73.6266422935
31
0.0
0
ARC
8
CYAN
10
369.5080556596
20
73.71264872540002
30
0.0
40
0.1081171518
50
52.14461152140001
51
232.7018406883
0
ARC
8
CYAN
10
371.3584053057
20
108.7484762393
30
0.0
40
34.9959637104
50
-92.9220532552
51
-84.39168994270001
0
ARC
8
CYAN
10
374.36132942790005
20
77.23079951050002
30
0.0
40
3.3369442237
50
-82.818950921
51
-2.4377624843000016
0
ARC
8
CYAN
10
375.6708837178
20
77.33210146100001
30
0.0
40
2.0389305634
50
-6.8514677947
51
85.12526887300001
0
ARC
8
CYAN
10
372.1632746518
20
43.60761601250002
30
0.0
40
35.9450036057
50
84.12244348699998
51
90.3186985881
0
LINE
8
CYAN
10
67.37108370280001
20
198.48395585720002
30
0.0
11
67.37108370280001
21
199.63132037550002
31
0.0
0
ARC
8
CYAN
10
68.59485815600002
20
199.95125855860002
30
0.0
40
1.2649048791
50
124.9177320649
51
194.65123365579998
0
LINE
8
CYAN
10
67.87082702180001
20
200.98844864240002
30
0.0
11
77.6554355428
21
212.9796650972
31
0.0
0
LINE
8
CYAN
10
77.6554355428
20
212.9796650972
30
0.0
11
67.9988650228
21
212.9796650972
31
0.0
0
LINE
8
CYAN
10
67.9988650228
20
212.9796650972
30
0.0
11
67.9988650228
21
214.8717133172
31
0.0
0
LINE
8
CYAN
10
67.9988650228
20
214.8717133172
30
0.0
11
80.5021584028
21
214.8717133172
31
0.0
0
LINE
8
CYAN
10
80.5021584028
20
214.8717133172
30
0.0
11
80.5021584028
21
213.724348799
31
0.0
0
ARC
8
CYAN
10
79.2774518045
20
213.40441061610002
30
0.0
40
1.2658067359
50
-55.023832433299994
51
14.640561620000005
0
LINE
8
CYAN
10
80.00305736020002
20
212.36722053210002
30
0.0
11
70.23102414280001
21
200.3760040772
31
0.0
0
LINE
8
CYAN
10
70.23102414280001
20
200.3760040772
30
0.0
11
80.4278580545
21
200.3760040772
31
0.0
0
ARC
8
CYAN
10
80.5151920486
20
200.3236004093
30
0.0
40
0.1018497469
50
-30.96533460910002
51
149.0346653909
0
LINE
8
CYAN
10
80.60252604280001
20
200.27119674140002
30
0.0
11
80.60252604280001
21
198.48395585720002
31
0.0
0
LINE
8
CYAN
10
80.60252604280001
20
198.48395585720002
30
0.0
11
67.37108370280001
21
198.48395585720002
31
0.0
0
LINE
8
CYAN
10
158.5854958228
20
131.8587558572
30
0.0
11
158.5854958228
21
148.29884633720002
31
0.0
0
LINE
8
CYAN
10
158.5854958228
20
148.29884633720002
30
0.0
11
160.82992606020002
21
148.29884633720002
31
0.0
0
ARC
8
CYAN
10
160.89573497150002
20
148.135867272
30
0.0
40
0.1757640137
50
-3.5128046621000033
51
111.9882410798
0
ARC
8
CYAN
10
611.0058378023
20
424.7802660239
30
0.0
40
528.1848998705
50
-148.4135343244
51
-146.9054706923
0
LINE
8
CYAN
10
168.50792238280002
20
136.37970551720002
30
0.0
11
168.50792238280002
21
148.29884633720002
31
0.0
0
LINE
8
CYAN
10
168.50792238280002
20
148.29884633720002
30
0.0
11
170.56567392280002
21
148.29884633720002
31
0.0
0
LINE
8
CYAN
10
170.56567392280002
20
148.29884633720002
30
0.0
11
170.56567392280002
21
131.8587558572
31
0.0
0
LINE
8
CYAN
10
170.56567392280002
20
131.8587558572
30
0.0
11
168.3707792991
21
131.8587558572
31
0.0
0
ARC
8
CYAN
10
168.306422821
20
132.0216739868
30
0.0
40
0.1751686993
50
176.01778360749998
51
291.5551811003
0
ARC
8
CYAN
10
-341.41999868999994
20
-182.6304314849
30
0.0
40
598.8793812578
50
31.6966416026
51
33.0372872303
0
LINE
8
CYAN
10
160.6301372428
20
143.8694525972
30
0.0
11
160.6301372428
21
131.8587558572
31
0.0
0
LINE
8
CYAN
10
160.6301372428
20
131.8587558572
30
0.0
11
158.5854958228
21
131.8587558572
31
0.0
0
ARC
8
CYAN
10
163.5265536967
20
67441.55061429011
30
0.0
40
67170.451530598
50
-90.00004953780001
51
-89.9967586745
0
LINE
8
CYAN
10
167.3265071428
20
271.0991911772
30
0.0
11
164.32708362280002
21
278.9290491572
31
0.0
0
ARC
8
CYAN
10
-2215.4462560441
20
1183.8425876126
30
0.0
40
2546.0144658405
50
-21.1491394391
51
-20.8194059391
0
ARC
8
CYAN
10
158.9657337906
20
265.2127350856
30
0.0
40
0.1197691435
50
-120.13738687690001
51
17.458855122299997
0
LINE
8
CYAN
10
158.9056006784
20
265.1091558572
30
0.0
11
156.85474506280002
21
265.1091558572
31
0.0
0
LINE
8
CYAN
10
156.85474506280002
20
265.1091558572
30
0.0
11
163.2474672661
21
281.3128711192
31
0.0
0
ARC
8
CYAN
10
163.37411826840003
20
281.3692484753
30
0.0
40
0.1386321848
50
67.05638279380001
51
203.9957323635
0
LINE
8
CYAN
10
163.428160574
20
281.4969133172
30
0.0
11
165.72741503150002
21
281.4969133172
31
0.0
0
ARC
8
CYAN
10
165.7814573371
20
281.36928251890004
30
0.0
40
0.1386008351
50
-24.0169074051
51
112.94910327449999
0
LINE
8
CYAN
10
165.90805885950002
20
281.3128711192
30
0.0
11
172.29642468280002
21
265.1091558572
31
0.0
0
LINE
8
CYAN
10
172.29642468280002
20
265.1091558572
30
0.0
11
169.7388326074
21
265.1091558572
31
0.0
0
ARC
8
CYAN
10
169.68141727510002
20
265.21101261390004
30
0.0
40
0.1169244169
50
160.68308466129997
51
299.40939194939995
0
LINE
8
CYAN
10
169.5710753131
20
265.2496903943
30
0.0
11
168.1335880524
21
269.0666084202
31
0.0
0
ARC
8
CYAN
10
168.01563427050002
20
269.10241951750004
30
0.0
40
0.1232701479
50
-16.888436381499993
51
121.83787090670002
0
LINE
8
CYAN
10
167.95060711820003
20
269.2071429572
30
0.0
11
162.8771167572
21
269.2071429572
31
0.0
0
ARC
8
CYAN
10
162.81329006
20
269.2428551822
30
0.0
40
0.0731382957
50
109.1544979656
51
330.7721748633
0
LINE
8
CYAN
10
162.7892921742
20
269.31194434040003
30
0.0
11
163.4684782228
21
271.0990837172
31
0.0
0
LINE
8
CYAN
10
372.5374961428
20
242.0629618772
30
0.0
11
370.126249056
21
242.0629618772
31
0.0
0
ARC
8
CYAN
10
370.0721190194
20
242.1486598472
30
0.0
40
0.1013617429
50
122.27602369259999
51
302.2780353412
0
LINE
8
CYAN
10
370.0179919916
20
242.2343597176
30
0.0
11
370.0180964428
21
248.1843133172
31
0.0
0
ARC
8
CYAN
10
370.09262037250005
20
-75.32823576329997
30
0.0
40
323.5125576642
50
88.7129672294
51
90.013198581
0
ARC
8
CYAN
10
377.278350566
20
242.93073269340002
30
0.0
40
5.1726026038
50
47.38296224130001
51
89.1059774437
0
ARC
8
CYAN
10
376.7358240466
20
243.51553276960001
30
0.0
40
5.1711016644
50
-31.1535520622
51
38.5369592252
0
ARC
8
CYAN
10
375.9530420319
20
244.59856348710002
30
0.0
40
6.42252053
50
-81.1581992328
51
-35.81442963300001
0
ARC
8
CYAN
10
373.8461234279
20
255.41342060670002
30
0.0
40
17.4377552421
50
-93.9808671547
51
-79.77949056520002
0
ARC
8
CYAN
10
372.5845817938
20
237.93064109230002
30
0.0
40
0.1009065893
50
59.67102677099998
51
239.671026771
0
LINE
8
CYAN
10
372.5336275828
20
237.8435445474
30
0.0
11
372.5336275828
21
231.97074894710002
31
0.0
0
ARC
8
CYAN
10
372.4795829684
20
231.8836524021
30
0.0
40
0.1025018462
50
-121.82017541069999
51
58.179824589300004
0
LINE
8
CYAN
10
372.4255383541
20
231.79655585720002
30
0.0
11
370.1261856714
21
231.79655585720002
31
0.0
0
ARC
8
CYAN
10
370.0721410571
20
231.8763727976
30
0.0
40
0.0963927607
50
124.10068875780001
51
304.1022065244
0
LINE
8
CYAN
10
370.0180985571
20
231.95619116970002
30
0.0
11
370.0182017884
21
239.7501505447
31
0.0
0
ARC
8
CYAN
10
370.08824637500004
20
239.8299672732
30
0.0
40
0.1061930048
50
48.73237336489999
51
228.7308556011
0
LINE
8
CYAN
10
370.15828884719997
20
239.9097858572
30
0.0
11
373.0440387028
21
239.9097858572
31
0.0
0
ARC
8
CYAN
10
373.9678071371
20
249.33052451490002
30
0.0
40
9.4659212429
50
-95.60034296000002
51
-67.80617174850002
0
ARC
8
CYAN
10
376.1926090546
20
243.27493862880002
30
0.0
40
3.0271457981
50
-63.4966308749
51
3.9726032649999943
0
ARC
8
CYAN
10
376.7954073829
20
243.6810510852
30
0.0
40
2.4250397258
50
-4.645222916699995
51
78.66405662970003
0
ARC
8
CYAN
10
373.85597426280003
20
224.16712364850002
30
0.0
40
22.1565895293
50
81.13076044649999
51
93.05305499959998
0
ARC
8
CYAN
10
372.60669803300004
20
246.2197461806
30
0.0
40
0.1002391884
50
46.34078350739998
51
226.34078350739998
0
LINE
8
CYAN
10
372.5374961428
20
246.14722726390002
30
0.0
11
372.5374961428
21
242.0629618772
31
0.0
0
LINE
8
CYAN
10
371.9633373628
20
146.3544650972
30
0.0
11
371.9633373628
21
142.87738615210003
31
0.0
0
ARC
8
CYAN
10
371.9093296878
20
142.81564824470001
30
0.0
40
0.0820268138
50
-131.17909453120004
51
48.82090546879998
0
LINE
8
CYAN
10
371.8553220128
20
142.7539103372
30
0.0
11
369.5575409327
21
142.7539103372
31
0.0
0
ARC
8
CYAN
10
369.50353325770004
20
142.83087558440002
30
0.0
40
0.0940238174
50
125.20364324120001
51
305.05791813940004
0
LINE
8
CYAN
10
369.4493300056
20
142.9077032207
30
0.0
11
369.44273626
21
148.09272043380003
31
0.0
0
ARC
8
CYAN
10
369.5211806921
20
148.169716757
30
0.0
40
0.1099179817
50
44.32051447020001
51
224.466239572
0
ARC
8
CYAN
10
371.8143233622
20
88.40320324060002
30
0.0
40
59.8842699126
50
85.1945942136
51
92.11926425080001
0
ARC
8
CYAN
10
376.5641080395
20
144.24751977740002
30
0.0
40
3.8387427794
50
-11.5675336983
51
86.01414074459998
0
ARC
8
CYAN
10
375.3488782
20
144.278809933
30
0.0
40
5.0400684868
50
-62.23642275129998
51
-9.14511277859999
0
LINE
8
CYAN
10
377.69666417530004
20
139.8189678544
30
0.0
11
376.8015089428
21
139.3179842972
31
0.0
0
LINE
8
CYAN
10
376.8015089428
20
139.3179842972
30
0.0
11
382.4559466828
21
131.8587558572
31
0.0
0
LINE
8
CYAN
10
382.4559466828
20
131.8587558572
30
0.0
11
379.5353203066
21
131.8587558572
31
0.0
0
ARC
8
CYAN
10
379.4697552247
20
132.0142339145
30
0.0
40
0.1687370921
50
-172.74164729349997
51
-67.13485183069999
0
LINE
8
CYAN
10
379.3023703003
20
131.9929150654
30
0.0
11
374.33116622529997
21
138.54304110910002
31
0.0
0
ARC
8
CYAN
10
373.94129844300005
20
138.14173299650002
30
0.0
40
0.5595043244
50
45.828433939899995
51
106.85556378740002
0
LINE
8
CYAN
10
373.7790645458
20
138.6772003172
30
0.0
11
372.0838858654
21
138.6772003172
31
0.0
0
ARC
8
CYAN
10
372.0209788441
20
138.59779694440002
30
0.0
40
0.1013024626
50
51.61210801639999
51
231.6121080164
0
LINE
8
CYAN
10
371.9580718228
20
138.51839357170002
30
0.0
11
371.9580718228
21
132.01756260270002
31
0.0
0
ARC
8
CYAN
10
371.9040272084
20
131.9381592299
30
0.0
40
0.0960505905
50
-124.24052418810003
51
55.75947581189997
0
LINE
8
CYAN
10
371.84998259409997
20
131.8587558572
30
0.0
11
369.5506299114
21
131.8587558572
31
0.0
0
ARC
8
CYAN
10
369.4965852971
20
131.94476228910003
30
0.0
40
0.1015771956
50
122.14438135439997
51
302.1443813544
0
LINE
8
CYAN
10
369.4425406828
20
132.03076872100002
30
0.0
11
369.4425406828
21
140.42904383350003
31
0.0
0
ARC
8
CYAN
10
369.5080556596
20
140.51505026540002
30
0.0
40
0.1081171518
50
52.14461152140001
51
232.7018406883
0
ARC
8
CYAN
10
371.3584053057
20
175.5508777793
30
0.0
40
34.9959637104
50
-92.9220532552
51
-84.39168994270001
0
ARC
8
CYAN
10
374.36132942790005
20
144.0332010505
30
0.0
40
3.3369442237
50
-82.818950921
51
-2.4377624843000016
0
ARC
8
CYAN
10
375.6708837178
20
144.134503001
30
0.0
40
2.0389305634
50
-6.8514677947
51
85.12526887300001
0
ARC
8
CYAN
10
372.1632746518
20
110.41001755250001
30
0.0
40
35.9450036057
50
84.12244348699998
51
90.3186985881
0
LINE
8
CYAN
10
249.4923574228
20
198.48395585720002
30
0.0
11
249.4923574228
21
200.27119674140002
31
0.0
0
ARC
8
CYAN
10
249.5679332006
20
200.3236004093
30
0.0
40
0.0919665297
50
34.73714401569999
51
214.7371440157
0
LINE
8
CYAN
10
249.64350897830002
20
200.3760040772
30
0.0
11
253.74878522720002
21
200.3760040772
31
0.0
0
ARC
8
CYAN
10
253.82436100500001
20
200.46786749580002
30
0.0
40
0.1189562351
50
230.55596424829997
51
410.5559642483
0
LINE
8
CYAN
10
253.8999367828
20
200.55973091430002
30
0.0
11
253.8999367828
21
212.79593826020002
31
0.0
0
ARC
8
CYAN
10
253.82436100500001
20
212.88780167870001
30
0.0
40
0.118956235
50
309.444035767
51
489.4440357670001
0
LINE
8
CYAN
10
253.74878522720002
20
212.9796650972
30
0.0
11
249.64350897830002
21
212.9796650972
31
0.0
0
ARC
8
CYAN
10
249.5679332006
20
213.0320687651
30
0.0
40
0.0919665297
50
145.2628559843
51
325.2628559843001
0
LINE
8
CYAN
10
249.4923574228
20
213.084472433
30
0.0
11
249.4923574228
21
214.8717133172
31
0.0
0
LINE
8
CYAN
10
249.4923574228
20
214.8717133172
30
0.0
11
260.8360499428
21
214.8717133172
31
0.0
0
LINE
8
CYAN
10
260.8360499428
20
214.8717133172
30
0.0
11
260.8360499428
21
213.084472433
31
0.0
0
ARC
8
CYAN
10
260.760474165
20
213.0320687651
30
0.0
40
0.0919665298
50
-145.2628560021
51
34.7371439979
0
LINE
8
CYAN
10
260.6848983872
20
212.9796650972
30
0.0
11
256.5796221383
21
212.9796650972
31
0.0
0
ARC
8
CYAN
10
256.5040463605
20
212.88780167870001
30
0.0
40
0.118956235
50
50.55596425160002
51
230.55596425160002
0
LINE
8
CYAN
10
256.4284705828
20
212.79593826020002
30
0.0
11
256.4284705828
21
200.55973091430002
31
0.0
0
ARC
8
CYAN
10
256.5040463605
20
200.46786749580002
30
0.0
40
0.118956235
50
129.4440357331
51
309.44403573310007
0
LINE
8
CYAN
10
256.5796221383
20
200.3760040772
30
0.0
11
260.6848983872
21
200.3760040772
31
0.0
0
ARC
8
CYAN
10
260.760474165
20
200.3236004093
30
0.0
40
0.0919665298
50
-34.73714399789997
51
145.2628560021
0
LINE
8
CYAN
10
260.8360499428
20
200.27119674140002
30
0.0
11
260.8360499428
21
198.48395585720002
31
0.0
0
LINE
8
CYAN
10
260.8360499428
20
198.48395585720002
30
0.0
11
249.4923574228
21
198.48395585720002
31
0.0
0
LINE
8
CYAN
10
249.33320916280002
20
65.0563543172
30
0.0
11
249.33320916280002
21
81.23531960810001
31
0.0
0
ARC
8
CYAN
10
249.4314097987
20
81.3397156927
30
0.0
40
0.1433244828
50
46.75157064370001
51
226.7515706437
0
LINE
8
CYAN
10
249.5296104347
20
81.44411177720002
30
0.0
11
260.9951982028
21
81.44411177720002
31
0.0
0
LINE
8
CYAN
10
260.9951982028
20
81.44411177720002
30
0.0
11
260.9951982028
21
79.5520635572
31
0.0
0
LINE
8
CYAN
10
260.9951982028
20
79.5520635572
30
0.0
11
252.0287053309
21
79.5520635572
31
0.0
0
ARC
8
CYAN
10
251.9387228168
20
79.47308497060001
30
0.0
40
0.1197266469
50
41.27376088130001
51
221.27376088130003
0
LINE
8
CYAN
10
251.8487403028
20
79.39410638390001
30
0.0
11
251.8487403028
21
74.06869311060001
31
0.0
0
ARC
8
CYAN
10
251.939616625
20
73.9897145239
30
0.0
40
0.1203998468
50
139.00682206990004
51
319.00682206989995
0
LINE
8
CYAN
10
252.03049294730002
20
73.9107359372
30
0.0
11
259.6523780428
21
73.9107359372
31
0.0
0
LINE
8
CYAN
10
259.6523780428
20
73.9107359372
30
0.0
11
259.6523780428
21
72.0185802572
31
0.0
0
LINE
8
CYAN
10
259.6523780428
20
72.0185802572
30
0.0
11
252.03049294730002
21
72.0185802572
31
0.0
0
ARC
8
CYAN
10
251.939616625
20
71.93750249460001
30
0.0
40
0.1217871485
50
41.738608265900005
51
221.73860826589998
0
LINE
8
CYAN
10
251.8487403028
20
71.85642473200002
30
0.0
11
251.8487403028
21
65.2185098425
31
0.0
0
ARC
8
CYAN
10
251.7946956884
20
65.13743207980002
30
0.0
40
0.0974393346
50
-123.68653145479996
51
56.31346854520003
0
LINE
8
CYAN
10
251.74065107410001
20
65.0563543172
30
0.0
11
249.33320916280002
21
65.0563543172
31
0.0
0
LINE
8
CYAN
10
278.6860156228
20
65.0563543172
30
0.0
11
278.6860156228
21
81.44411177720002
31
0.0
0
LINE
8
CYAN
10
278.6860156228
20
81.44411177720002
30
0.0
11
281.5815484099
21
81.44411177720002
31
0.0
0
ARC
8
CYAN
10
281.6465501663
20
81.3251154987
30
0.0
40
0.1355925612
50
-22.0819355395
51
118.64558808879997
0
ARC
8
CYAN
10
576.3471334659
20
181.5536871637
30
0.0
40
311.1758033782
50
-161.20033869859998
51
-159.2587985969
0
LINE
8
CYAN
10
285.3387567628
20
71.3515760372
30
0.0
11
288.8190873095
21
81.27414189910002
31
0.0
0
ARC
8
CYAN
10
288.9465155404
20
81.3248867705
30
0.0
40
0.1371604754
50
60.37013399740002
51
201.7135919153
0
LINE
8
CYAN
10
289.0143269981
20
81.44411177720002
30
0.0
11
292.0350192028
21
81.44411177720002
31
0.0
0
LINE
8
CYAN
10
292.0350192028
20
81.44411177720002
30
0.0
11
292.0350192028
21
65.0563543172
31
0.0
0
LINE
8
CYAN
10
292.0350192028
20
65.0563543172
30
0.0
11
289.9773751228
21
65.0563543172
31
0.0
0
ARC
8
CYAN
10
-155.39919130270002
20
71.2580639878
30
0.0
40
445.4197426291
50
-0.7977717141000001
51
1.0114097712
0
LINE
8
CYAN
10
289.9511548828
20
79.12039673720002
30
0.0
11
286.3208009805
21
68.6964147873
31
0.0
0
ARC
8
CYAN
10
286.19993070740003
20
68.6384018814
30
0.0
40
0.134071325
50
-115.9575264147
51
25.639146821299992
0
LINE
8
CYAN
10
286.14124705200004
20
68.51785583720002
30
0.0
11
284.2571928535
21
68.51785583720002
31
0.0
0
ARC
8
CYAN
10
284.1985091981
20
68.63665244260002
30
0.0
40
0.1325005843
50
155.58448776369997
51
296.2886478401
0
ARC
8
CYAN
10
-24.3117071927
20
-36.4852516807
30
0.0
40
325.8316382457
50
18.832011205
51
20.7255446546
0
LINE
8
CYAN
10
280.4341749028
20
78.8239145972
30
0.0
11
280.4341749028
21
65.0563543172
31
0.0
0
LINE
8
CYAN
10
280.4341749028
20
65.0563543172
30
0.0
11
278.6860156228
21
65.0563543172
31
0.0
0
LINE
8
CYAN
10
308.9410562428
20
331.7343558572
30
0.0
11
308.9410562428
21
332.8817203755
31
0.0
0
ARC
8
CYAN
10
310.164830696
20
333.2016585586
30
0.0
40
1.2649048791
50
124.9177320649
51
194.65123365579998
0
LINE
8
CYAN
10
309.4407995618
20
334.2388486424
30
0.0
11
319.2254080828
21
346.2300650972
31
0.0
0
LINE
8
CYAN
10
319.2254080828
20
346.2300650972
30
0.0
11
309.5688375628
21
346.2300650972
31
0.0
0
LINE
8
CYAN
10
309.5688375628
20
346.2300650972
30
0.0
11
309.5688375628
21
348.12211331720005
31
0.0
0
LINE
8
CYAN
10
309.5688375628
20
348.12211331720005
30
0.0
11
322.0721309428
21
348.12211331720005
31
0.0
0
LINE
8
CYAN
10
322.0721309428
20
348.12211331720005
30
0.0
11
322.0721309428
21
346.974748799
31
0.0
0
ARC
8
CYAN
10
320.84742434450004
20
346.6548106161
30
0.0
40
1.2658067359
50
-55.023832433299994
51
14.640561620000005
0
LINE
8
CYAN
10
321.5730299002
20
345.6176205321
30
0.0
11
311.8009966828
21
333.6264040772
31
0.0
0
LINE
8
CYAN
10
311.8009966828
20
333.6264040772
30
0.0
11
321.9978305945
21
333.6264040772
31
0.0
0
ARC
8
CYAN
10
322.08516458860004
20
333.5740004093
30
0.0
40
0.1018497469
50
-30.96533460910002
51
149.0346653909
0
LINE
8
CYAN
10
322.1724985828
20
333.5215967414
30
0.0
11
322.1724985828
21
331.7343558572
31
0.0
0
LINE
8
CYAN
10
322.1724985828
20
331.7343558572
30
0.0
11
308.9410562428
21
331.7343558572
31
0.0
0
LINE
8
CYAN
10
128.3892358228
20
331.7343558572
30
0.0
11
128.3892358228
21
348.12211331720005
31
0.0
0
LINE
8
CYAN
10
128.3892358228
20
348.12211331720005
30
0.0
11
130.7966777341
21
348.12211331720005
31
0.0
0
ARC
8
CYAN
10
130.8507223484
20
348.0386991675
30
0.0
40
0.0993918543
50
-57.06051403310001
51
122.93948596689998
0
LINE
8
CYAN
10
130.9047669628
20
347.9552850178
30
0.0
11
130.9047669628
21
341.1260878567
31
0.0
0
ARC
8
CYAN
10
130.9855406322
20
341.042673707
30
0.0
40
0.1161133328
50
134.0786445668
51
314.07864456680005
0
LINE
8
CYAN
10
131.06631430160002
20
340.9592595572
30
0.0
11
137.6793327839
21
340.9592595572
31
0.0
0
ARC
8
CYAN
10
137.7601064533
20
341.042673707
30
0.0
40
0.1161133328
50
225.9213554155
51
405.9213554155
0
LINE
8
CYAN
10
137.8408801228
20
341.1260878567
30
0.0
11
137.8408801228
21
347.9552850178
31
0.0
0
ARC
8
CYAN
10
137.89520409110003
20
348.0386991675
30
0.0
40
0.09954403
50
56.925570634699994
51
236.9255706347
0
LINE
8
CYAN
10
137.9495280595
20
348.12211331720005
30
0.0
11
140.3694139228
21
348.12211331720005
31
0.0
0
LINE
8
CYAN
10
140.3694139228
20
348.12211331720005
30
0.0
11
140.3694139228
21
331.7343558572
31
0.0
0
LINE
8
CYAN
10
140.3694139228
20
331.7343558572
30
0.0
11
137.9495280595
21
331.7343558572
31
0.0
0
ARC
8
CYAN
10
137.89520409110003
20
331.8197497414
30
0.0
40
0.1012087398
50
122.46278906219997
51
302.4627890622
0
LINE
8
CYAN
10
137.8408801228
20
331.9051436257
30
0.0
11
137.8408801228
21
338.8964235687
31
0.0
0
ARC
8
CYAN
10
137.7601064533
20
338.981817453
30
0.0
40
0.1175436138
50
313.4073267206999
51
493.4073267207
0
LINE
8
CYAN
10
137.6793327839
20
339.0672113372
30
0.0
11
131.06631430160002
21
339.0672113372
31
0.0
0
ARC
8
CYAN
10
130.9855406322
20
338.981817453
30
0.0
40
0.1175436138
50
46.592673297
51
226.59267329700003
0
LINE
8
CYAN
10
130.9047669628
20
338.8964235687
30
0.0
11
130.9047669628
21
331.9051436257
31
0.0
0
ARC
8
CYAN
10
130.8507223484
20
331.8197497414
30
0.0
40
0.1010590709
50
-122.32915678459999
51
57.67084321540001
0
LINE
8
CYAN
10
130.7966777341
20
331.7343558572
30
0.0
11
128.3892358228
21
331.7343558572
31
0.0
0
LINE
8
CYAN
10
281.10537006280003
20
250.0873224572
30
0.0
11
281.10537006280003
21
252.1752282758
31
0.0
0
ARC
8
CYAN
10
281.1665895235
20
252.2364477365
30
0.0
40
0.0865773916
50
45.0
51
225.0
0
LINE
8
CYAN
10
281.2278089842
20
252.2976671972
30
0.0
11
283.1932758813
21
252.2976671972
31
0.0
0
ARC
8
CYAN
10
283.254495342
20
252.2364477365
30
0.0
40
0.0865773916
50
-44.99999997660002
51
135.00000002339996
0
LINE
8
CYAN
10
283.3157148028
20
252.1752282758
30
0.0
11
283.3157148028
21
250.20976137870002
31
0.0
0
ARC
8
CYAN
10
283.254495342
20
250.148541918
30
0.0
40
0.0865773917
50
-135.0
51
45.0
0
LINE
8
CYAN
10
283.1932758813
20
250.0873224572
30
0.0
11
281.10537006280003
21
250.0873224572
31
0.0
0
LINE
8
CYAN
10
279.3704283628
20
98.5461558572
30
0.0
11
279.3704283628
21
114.93391331720001
31
0.0
0
LINE
8
CYAN
10
279.3704283628
20
114.93391331720001
30
0.0
11
281.7778702741
21
114.93391331720001
31
0.0
0
ARC
8
CYAN
10
281.8319148884
20
114.8504991675
30
0.0
40
0.0993918543
50
-57.06051403310001
51
122.93948596689998
0
LINE
8
CYAN
10
281.8859595028
20
114.76708501780001
30
0.0
11
281.8859595028
21
107.93788785670002
31
0.0
0
ARC
8
CYAN
10
281.9667331722
20
107.85447370700001
30
0.0
40
0.1161133328
50
134.0786445668
51
314.07864456680005
0
LINE
8
CYAN
10
282.0475068416
20
107.7710595572
30
0.0
11
288.6605253239
21
107.7710595572
31
0.0
0
ARC
8
CYAN
10
288.7412989934
20
107.85447370700001
30
0.0
40
0.1161133328
50
225.9213554155
51
405.9213554155
0
LINE
8
CYAN
10
288.8220726628
20
107.93788785670002
30
0.0
11
288.8220726628
21
114.76708501780001
31
0.0
0
ARC
8
CYAN
10
288.8763966312
20
114.8504991675
30
0.0
40
0.09954403
50
56.925570634699994
51
236.9255706347
0
LINE
8
CYAN
10
288.9307205995
20
114.93391331720001
30
0.0
11
291.3506064628
21
114.93391331720001
31
0.0
0
LINE
8
CYAN
10
291.3506064628
20
114.93391331720001
30
0.0
11
291.3506064628
21
98.5461558572
31
0.0
0
LINE
8
CYAN
10
291.3506064628
20
98.5461558572
30
0.0
11
288.9307205995
21
98.5461558572
31
0.0
0
ARC
8
CYAN
10
288.8763966312
20
98.63154974150001
30
0.0
40
0.1012087398
50
122.46278906219997
51
302.4627890622
0
LINE
8
CYAN
10
288.8220726628
20
98.71694362570001
30
0.0
11
288.8220726628
21
105.7082235687
31
0.0
0
ARC
8
CYAN
10
288.7412989934
20
105.79361745290001
30
0.0
40
0.1175436138
50
313.4073267206999
51
493.4073267207
0
LINE
8
CYAN
10
288.6605253239
20
105.87901133720001
30
0.0
11
282.0475068416
21
105.87901133720001
31
0.0
0
ARC
8
CYAN
10
281.9667331722
20
105.79361745290001
30
0.0
40
0.1175436138
50
46.592673297
51
226.59267329700003
0
LINE
8
CYAN
10
281.8859595028
20
105.7082235687
30
0.0
11
281.8859595028
21
98.71694362570001
31
0.0
0
ARC
8
CYAN
10
281.8319148884
20
98.63154974150001
30
0.0
40
0.1010590709
50
-122.32915678449999
51
57.67084321550001
0
LINE
8
CYAN
10
281.7778702741
20
98.5461558572
30
0.0
11
279.3704283628
21
98.5461558572
31
0.0
0
LINE
8
CYAN
10
309.5666883628
20
98.5461558572
30
0.0
11
309.5666883628
21
114.98624633720001
31
0.0
0
LINE
8
CYAN
10
309.5666883628
20
114.98624633720001
30
0.0
11
311.8111186002
21
114.98624633720001
31
0.0
0
ARC
8
CYAN
10
311.8769275115
20
114.82326727200001
30
0.0
40
0.1757640137
50
-3.5128046621000033
51
111.9882410798
0
ARC
8
CYAN
10
761.9870303423
20
391.46766602390005
30
0.0
40
528.1848998705
50
-148.4135343244
51
-146.9054706923
0
LINE
8
CYAN
10
319.4891149228
20
103.0671055172
30
0.0
11
319.4891149228
21
114.98624633720001
31
0.0
0
LINE
8
CYAN
10
319.4891149228
20
114.98624633720001
30
0.0
11
321.54686646280004
21
114.98624633720001
31
0.0
0
LINE
8
CYAN
10
321.54686646280004
20
114.98624633720001
30
0.0
11
321.54686646280004
21
98.5461558572
31
0.0
0
LINE
8
CYAN
10
321.54686646280004
20
98.5461558572
30
0.0
11
319.3519718391
21
98.5461558572
31
0.0
0
ARC
8
CYAN
10
319.287615361
20
98.70907398680001
30
0.0
40
0.1751686993
50
176.01778360749998
51
291.5551811003
0
ARC
8
CYAN
10
-190.43880614999998
20
-215.94303148489996
30
0.0
40
598.8793812578
50
31.6966416026
51
33.0372872303
0
LINE
8
CYAN
10
311.6113297828
20
110.5568525972
30
0.0
11
311.6113297828
21
98.5461558572
31
0.0
0
LINE
8
CYAN
10
311.6113297828
20
98.5461558572
30
0.0
11
309.5666883628
21
98.5461558572
31
0.0
0
LINE
8
CYAN
10
339.7630558228
20
365.04695585720003
30
0.0
11
339.7630558228
21
381.4870463372
31
0.0
0
LINE
8
CYAN
10
339.7630558228
20
381.4870463372
30
0.0
11
342.0074860602
21
381.4870463372
31
0.0
0
ARC
8
CYAN
10
342.0732949715
20
381.324067272
30
0.0
40
0.1757640137
50
-3.5128046621000033
51
111.9882410798
0
ARC
8
CYAN
10
792.1833978023001
20
657.9684660239
30
0.0
40
528.1848998705
50
-148.4135343244
51
-146.9054706923
0
LINE
8
CYAN
10
349.6854823828
20
369.5679055172
30
0.0
11
349.6854823828
21
381.4870463372
31
0.0
0
LINE
8
CYAN
10
349.6854823828
20
381.4870463372
30
0.0
11
351.7432339228
21
381.4870463372
31
0.0
0
LINE
8
CYAN
10
351.7432339228
20
381.4870463372
30
0.0
11
351.7432339228
21
365.04695585720003
31
0.0
0
LINE
8
CYAN
10
351.7432339228
20
365.04695585720003
30
0.0
11
349.5483392991
21
365.04695585720003
31
0.0
0
ARC
8
CYAN
10
349.48398282100004
20
365.2098739868
30
0.0
40
0.1751686993
50
176.01778360749998
51
291.5551811003
0
ARC
8
CYAN
10
-160.24243869
20
50.55776851510001
30
0.0
40
598.8793812578
50
31.6966416026
51
33.0372872303
0
LINE
8
CYAN
10
341.80769724280003
20
377.0576525972
30
0.0
11
341.80769724280003
21
365.04695585720003
31
0.0
0
LINE
8
CYAN
10
341.80769724280003
20
365.04695585720003
30
0.0
11
339.7630558228
21
365.04695585720003
31
0.0
0
LINE
8
CYAN
10
223.7016350428
20
365.04695585720003
30
0.0
11
223.7016350428
21
379.357979024
31
0.0
0
ARC
8
CYAN
10
223.6135019387
20
379.4503220606
30
0.0
40
0.1276506187
50
313.6637146234
51
493.66371462340004
0
LINE
8
CYAN
10
223.52536883460002
20
379.54266509720003
30
0.0
11
217.4064133228
21
379.54266509720003
31
0.0
0
LINE
8
CYAN
10
217.4064133228
20
379.54266509720003
30
0.0
11
217.4064133228
21
381.4347133172
31
0.0
0
LINE
8
CYAN
10
217.4064133228
20
381.4347133172
30
0.0
11
232.52979642280002
21
381.4347133172
31
0.0
0
LINE
8
CYAN
10
232.52979642280002
20
381.4347133172
30
0.0
11
232.52979642280002
21
379.54266509720003
31
0.0
0
LINE
8
CYAN
10
232.52979642280002
20
379.54266509720003
30
0.0
11
226.406558415
21
379.54266509720003
31
0.0
0
ARC
8
CYAN
10
226.31836362890002
20
379.4503220606
30
0.0
40
0.1276932132
50
46.3162639739
51
226.3162639739
0
LINE
8
CYAN
10
226.2301688428
20
379.357979024
30
0.0
11
226.2301688428
21
365.04695585720003
31
0.0
0
LINE
8
CYAN
10
226.2301688428
20
365.04695585720003
30
0.0
11
223.7016350428
21
365.04695585720003
31
0.0
0
LINE
8
CYAN
10
128.5483840828
20
198.48395585720002
30
0.0
11
128.5483840828
21
214.6629211481
31
0.0
0
ARC
8
CYAN
10
128.6416287193
20
214.7673172327
30
0.0
40
0.1399753718
50
48.2293657794
51
228.22936577939998
0
LINE
8
CYAN
10
128.7348733558
20
214.8717133172
30
0.0
11
139.6218147028
21
214.8717133172
31
0.0
0
LINE
8
CYAN
10
139.6218147028
20
214.8717133172
30
0.0
11
139.6218147028
21
213.084472433
31
0.0
0
ARC
8
CYAN
10
139.53762240470002
20
213.0320687651
30
0.0
40
0.0991689845
50
-148.10069761849996
51
31.89930238150004
0
LINE
8
CYAN
10
139.4534301065
20
212.9796650972
30
0.0
11
131.232299819
21
212.9796650972
31
0.0
0
ARC
8
CYAN
10
131.1481075209
20
212.9101464292
30
0.0
40
0.1091841942
50
39.54692745429999
51
219.5469274543
0
LINE
8
CYAN
10
131.0639152228
20
212.8406277613
30
0.0
11
131.0639152228
21
208.1530832932
31
0.0
0
ARC
8
CYAN
10
131.1483955759
20
208.0835646252
30
0.0
40
0.1094064681
50
140.5491224438
51
320.5491224438
0
LINE
8
CYAN
10
131.2328759291
20
208.0140459572
30
0.0
11
138.14936419650002
21
208.0140459572
31
0.0
0
ARC
8
CYAN
10
138.2338445496
20
207.96164228930002
30
0.0
40
0.0994136534
50
-31.81157442639999
51
148.1884255736
0
LINE
8
CYAN
10
138.31832490280001
20
207.90923862140002
30
0.0
11
138.31832490280001
21
206.226805073
31
0.0
0
ARC
8
CYAN
10
138.2338445496
20
206.1744014051
30
0.0
40
0.0994136534
50
-148.1884255736
51
31.81157442639999
0
LINE
8
CYAN
10
138.14936419650002
20
206.12199773720002
30
0.0
11
131.2328759291
21
206.12199773720002
31
0.0
0
ARC
8
CYAN
10
131.1483955759
20
206.041553826
30
0.0
40
0.116653988
50
43.5979932777
51
223.5979932777
0
LINE
8
CYAN
10
131.0639152228
20
205.9611099148
30
0.0
11
131.0639152228
21
200.5368918997
31
0.0
0
ARC
8
CYAN
10
131.1538977369
20
200.45644798840001
30
0.0
40
0.1206982837
50
138.20344739009997
51
318.2034473901
0
LINE
8
CYAN
10
131.24388025090002
20
200.3760040772
30
0.0
11
140.2103731228
21
200.3760040772
31
0.0
0
LINE
8
CYAN
10
140.2103731228
20
200.3760040772
30
0.0
11
140.2103731228
21
198.48395585720002
31
0.0
0
LINE
8
CYAN
10
140.2103731228
20
198.48395585720002
30
0.0
11
128.5483840828
21
198.48395585720002
31
0.0
0
LINE
8
CYAN
10
158.7446440828
20
165.1713558572
30
0.0
11
158.7446440828
21
181.35032114810002
31
0.0
0
ARC
8
CYAN
10
158.8378887193
20
181.4547172327
30
0.0
40
0.1399753718
50
48.2293657794
51
228.22936577939998
0
LINE
8
CYAN
10
158.9311333558
20
181.5591133172
30
0.0
11
169.8180747028
21
181.5591133172
31
0.0
0
LINE
8
CYAN
10
169.8180747028
20
181.5591133172
30
0.0
11
169.8180747028
21
179.771872433
31
0.0
0
ARC
8
CYAN
10
169.7338824047
20
179.7194687651
30
0.0
40
0.0991689845
50
-148.10069761849996
51
31.89930238150004
0
LINE
8
CYAN
10
169.6496901065
20
179.6670650972
30
0.0
11
161.42855981900001
21
179.6670650972
31
0.0
0
ARC
8
CYAN
10
161.3443675209
20
179.5975464292
30
0.0
40
0.1091841942
50
39.54692745429999
51
219.5469274543
0
LINE
8
CYAN
10
161.2601752228
20
179.5280277613
30
0.0
11
161.2601752228
21
174.8404832932
31
0.0
0
ARC
8
CYAN
10
161.344655576
20
174.7709646252
30
0.0
40
0.1094064681
50
140.5491224438
51
320.5491224438
0
LINE
8
CYAN
10
161.42913592910003
20
174.7014459572
30
0.0
11
168.3456241965
21
174.7014459572
31
0.0
0
ARC
8
CYAN
10
168.4301045497
20
174.6490422893
30
0.0
40
0.0994136534
50
-31.81157442639999
51
148.1884255736
0
LINE
8
CYAN
10
168.5145849028
20
174.59663862140002
30
0.0
11
168.5145849028
21
172.914205073
31
0.0
0
ARC
8
CYAN
10
168.4301045497
20
172.8618014051
30
0.0
40
0.0994136534
50
-148.1884255736
51
31.81157442639999
0
LINE
8
CYAN
10
168.3456241965
20
172.80939773720002
30
0.0
11
161.42913592910003
21
172.80939773720002
31
0.0
0
ARC
8
CYAN
10
161.344655576
20
172.728953826
30
0.0
40
0.116653988
50
43.5979932777
51
223.5979932777
0
LINE
8
CYAN
10
161.2601752228
20
172.6485099148
30
0.0
11
161.2601752228
21
167.2242918997
31
0.0
0
ARC
8
CYAN
10
161.3501577368
20
167.1438479885
30
0.0
40
0.1206982837
50
138.20344739009997
51
318.2034473901
0
LINE
8
CYAN
10
161.44014025090001
20
167.0634040772
30
0.0
11
170.4066331228
21
167.0634040772
31
0.0
0
LINE
8
CYAN
10
170.4066331228
20
167.0634040772
30
0.0
11
170.4066331228
21
165.1713558572
31
0.0
0
LINE
8
CYAN
10
170.4066331228
20
165.1713558572
30
0.0
11
158.7446440828
21
165.1713558572
31
0.0
0
LINE
8
CYAN
10
253.2135897628
20
265.1091558572
30
0.0
11
246.8529249028
21
281.4969133172
31
0.0
0
LINE
8
CYAN
10
246.8529249028
20
281.4969133172
30
0.0
11
249.3938564805
21
281.4969133172
31
0.0
0
ARC
8
CYAN
10
249.4508978016
20
281.3636565402
30
0.0
40
0.1449519953
50
-22.9986567217
51
113.17362131340002
0
LINE
8
CYAN
10
249.58432814460002
20
281.3070224117
30
0.0
11
254.7482260228
21
268.4703971972
31
0.0
0
LINE
8
CYAN
10
254.7482260228
20
268.4703971972
30
0.0
11
260.0151583033
21
281.3070224117
31
0.0
0
ARC
8
CYAN
10
260.1526004265
20
281.3615587558
30
0.0
40
0.1478666631
50
66.26011105899998
51
201.6429293043
0
LINE
8
CYAN
10
260.2121293504
20
281.4969133172
30
0.0
11
262.2423789628
21
281.4969133172
31
0.0
0
LINE
8
CYAN
10
262.2423789628
20
281.4969133172
30
0.0
11
255.8152307311
21
265.2931980553
31
0.0
0
ARC
8
CYAN
10
255.6879047457
20
265.2372028305
30
0.0
40
0.1390948301
50
-112.989975271
51
23.73885877069999
0
LINE
8
CYAN
10
255.6335784686
20
265.1091558572
30
0.0
11
253.2135897628
21
265.1091558572
31
0.0
0
ARC
8
CYAN
10
-12557.126784005399
20
235.92398557220002
30
0.0
40
12715.7880394203
50
-3.883232000000015E-4
51
0.05524353989999999
0
ARC
8
CYAN
10
158.72937829300002
20
-44.17868372559997
30
0.0
40
292.3630064163
50
88.6791644184
51
90.0145086941
0
ARC
8
CYAN
10
165.0430214553
20
242.05800810850002
30
0.0
40
6.0635853023
50
53.64782200370001
51
85.9752826403
0
ARC
8
CYAN
10
166.171297471
20
244.3899859331
30
0.0
40
3.5483979565
50
-22.656848128699995
51
45.978202829299995
0
ARC
8
CYAN
10
165.1416056494
20
245.0635611838
30
0.0
40
4.7634099122
50
-80.34909971019998
51
-25.363571415299997
0
ARC
8
CYAN
10
164.2873498964
20
231.5717818761
30
0.0
40
8.949726746
50
64.2735412075
51
79.357652368
0
ARC
8
CYAN
10
166.4591779977
20
235.9786323689
30
0.0
40
4.037197289
50
-86.9305975383
51
64.89296133620002
0
ARC
8
CYAN
10
161.1964052328
20
312.33263240130003
30
0.0
40
80.5719075679
50
-91.7088010868
51
-86.1008374706
0
ARC
8
CYAN
10
158.72455658500002
20
231.84874383570002
30
0.0
40
0.0866824845
50
142.62453243309997
51
322.98248752009994
0
LINE
8
CYAN
10
158.6556722155
20
231.901363193
30
0.0
11
158.66125512280001
21
233.6886040772
31
0.0
0
ARC
8
CYAN
10
158.74330762480002
20
1014.4680446719999
30
0.0
40
780.7794449062
50
-90.0060212421
51
-89.5862889652
0
ARC
8
CYAN
10
164.58313975180002
20
238.8013135713
30
0.0
40
5.0963715557
50
-92.2734819806
51
-58.9151390369
0
ARC
8
CYAN
10
165.2578025543
20
236.1172272398
30
0.0
40
2.5792170343
50
-40.65784800490001
51
39.0939492008
0
ARC
8
CYAN
10
163.01705854440002
20
233.5969218699
30
0.0
40
5.9324832156
50
44.345991465
51
91.89703918690002
0
ARC
8
CYAN
10
173.31773685870002
20
240.50928250980002
30
0.0
40
10.543002633
50
176.8119844088
51
185.35057152070002
0
ARC
8
CYAN
10
162.8031144466
20
247.965920568
30
0.0
40
6.8703242028
50
-90.10060956009998
51
-66.59810291399998
0
ARC
8
CYAN
10
164.48030960440002
20
244.1093739757
30
0.0
40
2.664876499
50
-66.75924880520002
51
-3.874020896400006
0
ARC
8
CYAN
10
165.13595401740002
20
244.0524840491
30
0.0
40
2.00692527
50
-3.5182209023999964
51
74.0458304819
0
ARC
8
CYAN
10
162.3528812144
20
230.43857727580001
30
0.0
40
15.8972200712
50
77.8912984764
51
94.24113159129999
0
LINE
8
CYAN
10
161.1772161028
20
246.29226509720002
30
0.0
11
161.179857359
21
236.0138691923
31
0.0
0
ARC
8
CYAN
10
161.1257910358
20
235.9258227354
30
0.0
40
0.1033215654
50
-121.58211204650001
51
58.447334738599984
0
LINE
8
CYAN
10
161.07167946890002
20
235.83780407720002
30
0.0
11
158.66125512280001
21
235.83780407720002
31
0.0
0
LINE
8
CYAN
10
187.05745266280002
20
231.79655585720002
30
0.0
11
193.3538906324
21
239.9746247854
31
0.0
0
ARC
8
CYAN
10
193.3061135763
20
240.1229727941
30
0.0
40
0.1558517846
50
-72.1482929827
51
74.9643827189
0
LINE
8
CYAN
10
193.3465445609
20
240.27348895350002
30
0.0
11
187.60678818280002
21
248.1843133172
31
0.0
0
LINE
8
CYAN
10
187.60678818280002
20
248.1843133172
30
0.0
11
190.45645318
21
248.1843133172
31
0.0
0
ARC
8
CYAN
10
190.5204252514
20
248.02968982110002
30
0.0
40
0.1673345495
50
4.447521342599997
51
112.47625001599998
0
LINE
8
CYAN
10
190.68725591950002
20
248.0426659396
30
0.0
11
194.8978223461
21
242.2442619949
31
0.0
0
ARC
8
CYAN
10
195.0039809174
20
242.2131804906
30
0.0
40
0.1106151083
50
163.68082694779997
51
376.3191730522
0
LINE
8
CYAN
10
195.1101394888
20
242.2442619949
30
0.0
11
199.59087803670002
21
248.0426659396
31
0.0
0
ARC
8
CYAN
10
199.7683152148
20
248.01866663130002
30
0.0
40
0.1790528385
50
67.6875727982
51
172.2971902301
0
LINE
8
CYAN
10
199.83629384690002
20
248.1843133172
30
0.0
11
202.15472298280002
21
248.1843133172
31
0.0
0
LINE
8
CYAN
10
202.15472298280002
20
248.1843133172
30
0.0
11
196.3039323159
21
240.62386850220003
31
0.0
0
ARC
8
CYAN
10
196.3417565172
20
240.47328750970001
30
0.0
40
0.1552588339
50
104.1003115113
51
251.5400112225
0
LINE
8
CYAN
10
196.292594997
20
240.3260175181
30
0.0
11
202.4861296228
21
231.79655585720002
31
0.0
0
LINE
8
CYAN
10
202.4861296228
20
231.79655585720002
30
0.0
11
199.9627102471
21
231.79655585720002
31
0.0
0
ARC
8
CYAN
10
199.7933140391
20
232.4505234995
30
0.0
40
0.6755507031
50
-166.3099249288
51
-75.4779384845
0
LINE
8
CYAN
10
199.13695564280002
20
232.29064101720002
30
0.0
11
194.75148617780002
21
238.3354641466
31
0.0
0
ARC
8
CYAN
10
194.65322588560002
20
238.36433647910002
30
0.0
40
0.1024143379
50
-16.3746445693
51
196.3746445693
0
LINE
8
CYAN
10
194.5549655934
20
238.3354641466
30
0.0
11
189.8889281428
21
232.29064101720002
31
0.0
0
ARC
8
CYAN
10
189.1968152167
20
232.49735938650002
30
0.0
40
0.7223245716
50
-104.02126866469999
51
-16.629687449099986
0
LINE
8
CYAN
10
189.021808931
20
231.79655585720002
30
0.0
11
187.05745266280002
21
231.79655585720002
31
0.0
0
LINE
8
CYAN
10
68.7552759628
20
98.5461558572
30
0.0
11
66.3182980828
21
114.93391331720001
31
0.0
0
LINE
8
CYAN
10
66.3182980828
20
114.93391331720001
30
0.0
11
68.4631996828
21
114.93391331720001
31
0.0
0
ARC
8
CYAN
10
548.9800631196
20
179.6736515084
30
0.0
40
484.8584223753
50
-172.3267807376
51
-170.70001928100004
0
LINE
8
CYAN
10
70.49473098280001
20
101.31883877720001
30
0.0
11
72.8178743375
21
111.30141398120001
31
0.0
0
ARC
8
CYAN
10
72.9248052627
20
111.36665843570002
30
0.0
40
0.1252639677
50
57.59103409859999
51
211.38966925169996
0
LINE
8
CYAN
10
72.99194160260001
20
111.47241179720001
30
0.0
11
75.1473714629
21
111.47241179720001
31
0.0
0
ARC
8
CYAN
10
75.2145078028
20
111.36805353870001
30
0.0
40
0.1240884131
50
-31.085933219400005
51
122.75421438629999
0
ARC
8
CYAN
10
307.1681219892
20
160.70174808110002
30
0.0
40
237.0513252207
50
-167.97231763999997
51
-165.53060439480004
0
LINE
8
CYAN
10
77.6357703628
20
101.47143197720001
30
0.0
11
79.7414490628
21
114.93391331720001
31
0.0
0
LINE
8
CYAN
10
79.7414490628
20
114.93391331720001
30
0.0
11
81.65531166280002
21
114.93391331720001
31
0.0
0
LINE
8
CYAN
10
81.65531166280002
20
114.93391331720001
30
0.0
11
78.96107454280002
21
98.5461558572
31
0.0
0
LINE
8
CYAN
10
78.96107454280002
20
98.5461558572
30
0.0
11
76.34506788300001
21
98.5461558572
31
0.0
0
ARC
8
CYAN
10
76.28634120290002
20
98.65977664900001
30
0.0
40
0.1279003803
50
143.76189527620005
51
297.33288762300003
0
ARC
8
CYAN
10
-212.27480255599997
20
35.1822855211
30
0.0
40
295.376039244
50
12.424912300700003
51
14.304708322300002
0
LINE
8
CYAN
10
73.94322984280001
20
108.16339601720001
30
0.0
11
71.71232554210002
21
98.73538396220002
31
0.0
0
ARC
8
CYAN
10
71.6049810476
20
98.6608727346
30
0.0
40
0.1306704386
50
-118.60874011290001
51
34.7657446184
0
LINE
8
CYAN
10
71.5424126725
20
98.5461558572
30
0.0
11
68.7552759628
21
98.5461558572
31
0.0
0
LINE
8
CYAN
10
188.9407966228
20
131.8587558572
30
0.0
11
188.9407966228
21
148.0377211481
31
0.0
0
ARC
8
CYAN
10
189.0340412593
20
148.14211723260001
30
0.0
40
0.1399753718
50
48.2293657794
51
228.22936577939998
0
LINE
8
CYAN
10
189.12728589580001
20
148.24651331720003
30
0.0
11
200.01422724280002
21
148.24651331720003
31
0.0
0
LINE
8
CYAN
10
200.01422724280002
20
148.24651331720003
30
0.0
11
200.01422724280002
21
146.45927243300002
31
0.0
0
ARC
8
CYAN
10
199.9300349446
20
146.4068687651
30
0.0
40
0.0991689845
50
-148.10069761849996
51
31.89930238150004
0
LINE
8
CYAN
10
199.84584264650002
20
146.3544650972
30
0.0
11
191.624712359
21
146.3544650972
31
0.0
0
ARC
8
CYAN
10
191.5405200609
20
146.2849464292
30
0.0
40
0.1091841942
50
39.54692745429999
51
219.5469274543
0
LINE
8
CYAN
10
191.45632776280002
20
146.21542776130002
30
0.0
11
191.45632776280002
21
141.5278832932
31
0.0
0
ARC
8
CYAN
10
191.5408081159
20
141.4583646252
30
0.0
40
0.1094064681
50
140.5491224438
51
320.5491224438
0
LINE
8
CYAN
10
191.6252884691
20
141.3888459572
30
0.0
11
198.5417767365
21
141.3888459572
31
0.0
0
ARC
8
CYAN
10
198.6262570897
20
141.3364422893
30
0.0
40
0.0994136534
50
-31.81157442639999
51
148.1884255736
0
LINE
8
CYAN
10
198.7107374428
20
141.28403862140001
30
0.0
11
198.7107374428
21
139.60160507300003
31
0.0
0
ARC
8
CYAN
10
198.6262570897
20
139.5492014051
30
0.0
40
0.0994136534
50
-148.1884255736
51
31.81157442639999
0
LINE
8
CYAN
10
198.5417767365
20
139.4967977372
30
0.0
11
191.6252884691
21
139.4967977372
31
0.0
0
ARC
8
CYAN
10
191.5408081159
20
139.416353826
30
0.0
40
0.116653988
50
43.5979932777
51
223.5979932777
0
LINE
8
CYAN
10
191.45632776280002
20
139.33590991480003
30
0.0
11
191.45632776280002
21
133.91169189970003
31
0.0
0
ARC
8
CYAN
10
191.5463102768
20
133.83124798850002
30
0.0
40
0.1206982837
50
138.20344739009997
51
318.2034473901
0
LINE
8
CYAN
10
191.6362927909
20
133.75080407720003
30
0.0
11
200.60278566280002
21
133.75080407720003
31
0.0
0
LINE
8
CYAN
10
200.60278566280002
20
133.75080407720003
30
0.0
11
200.60278566280002
21
131.8587558572
31
0.0
0
LINE
8
CYAN
10
200.60278566280002
20
131.8587558572
30
0.0
11
188.9407966228
21
131.8587558572
31
0.0
0
ARC
8
CYAN
10
135.7368841256
20
106.6758240501
30
0.0
40
8.0909814936
50
177.33714140699996
51
248.808264258
0
ARC
8
CYAN
10
135.9272890113
20
107.45097810880002
30
0.0
40
8.2822786146
50
87.84478103030001
51
182.76307306
0
ARC
8
CYAN
10
135.89691110020001
20
98.64299351830002
30
0.0
40
17.0878241742
50
73.02393118460002
51
88.8537014773
0
LINE
8
CYAN
10
140.8860816028
20
114.98624633720001
30
0.0
11
140.8860816028
21
112.6712355572
31
0.0
0
ARC
8
CYAN
10
136.1644769551
20
103.42826047640001
30
0.0
40
10.3791203285
50
62.94061450649999
51
95.44941715530001
0
ARC
8
CYAN
10
136.3497393697
20
107.95488120320002
30
0.0
40
5.9224969789
50
101.4030666669
51
166.219383337
0
ARC
8
CYAN
10
137.7678292122
20
107.3147699098
30
0.0
40
7.457650004
50
164.03778302840004
51
213.12515146160004
0
ARC
8
CYAN
10
136.9073623568
20
107.39348310260002
30
0.0
40
6.8012064285
50
-142.3535265766
51
-81.8363237702
0
ARC
8
CYAN
10
135.8484496474
20
114.7270788632
30
0.0
40
14.2108555949
50
-81.8089025651
51
-68.2950397719
0
LINE
8
CYAN
10
141.1040104828
20
101.5237649972
30
0.0
11
141.1040104828
21
99.45301079720001
31
0.0
0
ARC
8
CYAN
10
136.50890188260001
20
110.8936663532
30
0.0
40
12.3289749209
50
-107.4485172761
51
-68.1172710121
0
LINE
8
CYAN
10
249.33320916280002
20
98.5461558572
30
0.0
11
249.33320916280002
21
114.72512114810002
31
0.0
0
ARC
8
CYAN
10
249.42645379930002
20
114.82951723260001
30
0.0
40
0.1399753718
50
48.2293657794
51
228.22936577939998
0
LINE
8
CYAN
10
249.51969843580002
20
114.93391331720001
30
0.0
11
260.4066397828
21
114.93391331720001
31
0.0
0
LINE
8
CYAN
10
260.4066397828
20
114.93391331720001
30
0.0
11
260.4066397828
21
113.146672433
31
0.0
0
ARC
8
CYAN
10
260.3224474846
20
113.09426876510001
30
0.0
40
0.0991689845
50
-148.10069761849996
51
31.89930238150004
0
LINE
8
CYAN
10
260.2382551865
20
113.04186509720002
30
0.0
11
252.017124899
21
113.04186509720002
31
0.0
0
ARC
8
CYAN
10
251.93293260090002
20
112.97234642930002
30
0.0
40
0.1091841942
50
39.54692745429999
51
219.5469274543
0
LINE
8
CYAN
10
251.8487403028
20
112.90282776130002
30
0.0
11
251.8487403028
21
108.21528329320002
31
0.0
0
ARC
8
CYAN
10
251.933220656
20
108.14576462520002
30
0.0
40
0.1094064681
50
140.5491224438
51
320.5491224438
0
LINE
8
CYAN
10
252.0177010091
20
108.07624595720002
30
0.0
11
258.9341892765
21
108.07624595720002
31
0.0
0
ARC
8
CYAN
10
259.0186696296
20
108.0238422893
30
0.0
40
0.0994136534
50
-31.81157442639999
51
148.1884255736
0
LINE
8
CYAN
10
259.1031499828
20
107.97143862140001
30
0.0
11
259.1031499828
21
106.28900507300001
31
0.0
0
ARC
8
CYAN
10
259.0186696296
20
106.23660140510002
30
0.0
40
0.0994136534
50
-148.1884255736
51
31.81157442639999
0
LINE
8
CYAN
10
258.9341892765
20
106.18419773720001
30
0.0
11
252.0177010091
21
106.18419773720001
31
0.0
0
ARC
8
CYAN
10
251.933220656
20
106.10375382600002
30
0.0
40
0.116653988
50
43.5979932777
51
223.5979932777
0
LINE
8
CYAN
10
251.8487403028
20
106.02330991480001
30
0.0
11
251.8487403028
21
100.59909189970001
31
0.0
0
ARC
8
CYAN
10
251.9387228168
20
100.5186479885
30
0.0
40
0.1206982837
50
138.20344739009997
51
318.2034473901
0
LINE
8
CYAN
10
252.0287053309
20
100.43820407720001
30
0.0
11
260.9951982028
21
100.43820407720001
31
0.0
0
LINE
8
CYAN
10
260.9951982028
20
100.43820407720001
30
0.0
11
260.9951982028
21
98.5461558572
31
0.0
0
LINE
8
CYAN
10
260.9951982028
20
98.5461558572
30
0.0
11
249.33320916280002
21
98.5461558572
31
0.0
0
ARC
8
CYAN
10
-12647.715564005499
20
69.18378403230003
30
0.0
40
12715.7880394203
50
-3.883232000000015E-4
51
0.05524353989999999
0
ARC
8
CYAN
10
68.14059829300001
20
-210.9188852656
30
0.0
40
292.3630064163
50
88.6791644184
51
90.0145086941
0
ARC
8
CYAN
10
74.45424145530001
20
75.3178065685
30
0.0
40
6.0635853023
50
53.64782200370001
51
85.9752826403
0
ARC
8
CYAN
10
75.58251747100002
20
77.64978439310002
30
0.0
40
3.5483979565
50
-22.656848128699995
51
45.978202829299995
0
ARC
8
CYAN
10
74.5528256494
20
78.32335964380002
30
0.0
40
4.7634099122
50
-80.34909971019998
51
-25.363571415299997
0
ARC
8
CYAN
10
73.69856989640002
20
64.83158033610002
30
0.0
40
8.949726746
50
64.2735412075
51
79.357652368
0
ARC
8
CYAN
10
75.8703979977
20
69.23843082890002
30
0.0
40
4.037197289
50
-86.9305975383
51
64.89296133620002
0
ARC
8
CYAN
10
70.60762523280002
20
145.59243086130002
30
0.0
40
80.5719075679
50
-91.7088010868
51
-86.1008374706
0
ARC
8
CYAN
10
68.135776585
20
65.1085422957
30
0.0
40
0.0866824845
50
142.62453243309997
51
322.98248752009994
0
LINE
8
CYAN
10
68.06689221550002
20
65.16116165300002
30
0.0
11
68.0724751228
21
66.94840253720002
31
0.0
0
ARC
8
CYAN
10
68.15452762480001
20
847.7278431320001
30
0.0
40
780.7794449062
50
-90.0060212421
51
-89.5862889652
0
ARC
8
CYAN
10
73.9943597518
20
72.06111203130001
30
0.0
40
5.0963715557
50
-92.2734819806
51
-58.9151390369
0
ARC
8
CYAN
10
74.6690225543
20
69.37702569980001
30
0.0
40
2.5792170343
50
-40.65784800490001
51
39.0939492008
0
ARC
8
CYAN
10
72.4282785444
20
66.85672032990001
30
0.0
40
5.9324832156
50
44.345991465
51
91.89703918690002
0
ARC
8
CYAN
10
82.7289568587
20
73.7690809698
30
0.0
40
10.543002633
50
176.8119844088
51
185.35057152070002
0
ARC
8
CYAN
10
72.21433444660002
20
81.22571902800001
30
0.0
40
6.8703242028
50
-90.10060956009998
51
-66.59810291399998
0
ARC
8
CYAN
10
73.8915296044
20
77.36917243570002
30
0.0
40
2.664876499
50
-66.75924880520002
51
-3.874020896400006
0
ARC
8
CYAN
10
74.54717401740001
20
77.31228250910002
30
0.0
40
2.00692527
50
-3.5182209023999964
51
74.0458304819
0
ARC
8
CYAN
10
71.7641012144
20
63.6983757358
30
0.0
40
15.8972200712
50
77.8912984764
51
94.24113159129999
0
LINE
8
CYAN
10
70.58843610280002
20
79.5520635572
30
0.0
11
70.591077359
21
69.27366765230002
31
0.0
0
ARC
8
CYAN
10
70.53701103580002
20
69.18562119540002
30
0.0
40
0.1033215654
50
-121.58211204650001
51
58.447334738599984
0
LINE
8
CYAN
10
70.4828994689
20
69.0976025372
30
0.0
11
68.0724751228
21
69.0976025372
31
0.0
0
LINE
8
CYAN
10
188.7816483628
20
65.0563543172
30
0.0
11
188.7816483628
21
81.44411177720002
31
0.0
0
LINE
8
CYAN
10
188.7816483628
20
81.44411177720002
30
0.0
11
191.1890902741
21
81.44411177720002
31
0.0
0
ARC
8
CYAN
10
191.2431348885
20
81.3606976275
30
0.0
40
0.0993918543
50
-57.06051403310001
51
122.93948596689998
0
LINE
8
CYAN
10
191.29717950280002
20
81.27728347780001
30
0.0
11
191.29717950280002
21
74.4480863167
31
0.0
0
ARC
8
CYAN
10
191.37795317220002
20
74.36467216700001
30
0.0
40
0.1161133328
50
134.0786445668
51
314.07864456680005
0
LINE
8
CYAN
10
191.45872684160003
20
74.2812580172
30
0.0
11
198.07174532390002
21
74.2812580172
31
0.0
0
ARC
8
CYAN
10
198.15251899330002
20
74.36467216700001
30
0.0
40
0.1161133328
50
225.9213554155
51
405.9213554155
0
LINE
8
CYAN
10
198.2332926628
20
74.4480863167
30
0.0
11
198.2332926628
21
81.27728347780001
31
0.0
0
ARC
8
CYAN
10
198.28761663120002
20
81.3606976275
30
0.0
40
0.09954403
50
56.925570634699994
51
236.9255706347
0
LINE
8
CYAN
10
198.34194059950002
20
81.44411177720002
30
0.0
11
200.7618264628
21
81.44411177720002
31
0.0
0
LINE
8
CYAN
10
200.7618264628
20
81.44411177720002
30
0.0
11
200.7618264628
21
65.0563543172
31
0.0
0
LINE
8
CYAN
10
200.7618264628
20
65.0563543172
30
0.0
11
198.34194059950002
21
65.0563543172
31
0.0
0
ARC
8
CYAN
10
198.28761663120002
20
65.14174820150001
30
0.0
40
0.1012087398
50
122.46278906219997
51
302.4627890622
0
LINE
8
CYAN
10
198.2332926628
20
65.22714208570002
30
0.0
11
198.2332926628
21
72.21842202870002
31
0.0
0
ARC
8
CYAN
10
198.15251899330002
20
72.30381591300002
30
0.0
40
0.1175436138
50
313.4073267206999
51
493.4073267207
0
LINE
8
CYAN
10
198.07174532390002
20
72.38920979720001
30
0.0
11
191.45872684160003
21
72.38920979720001
31
0.0
0
ARC
8
CYAN
10
191.37795317220002
20
72.30381591300002
30
0.0
40
0.1175436138
50
46.592673297
51
226.59267329700003
0
LINE
8
CYAN
10
191.29717950280002
20
72.21842202870002
30
0.0
11
191.29717950280002
21
65.22714208570002
31
0.0
0
ARC
8
CYAN
10
191.2431348885
20
65.14174820150001
30
0.0
40
0.1010590709
50
-122.32915678449999
51
57.67084321550001
0
LINE
8
CYAN
10
191.1890902741
20
65.0563543172
30
0.0
11
188.7816483628
21
65.0563543172
31
0.0
0
LINE
8
CYAN
10
67.37108370280001
20
331.7343558572
30
0.0
11
67.37108370280001
21
332.8817203755
31
0.0
0
ARC
8
CYAN
10
68.59485815600002
20
333.2016585586
30
0.0
40
1.2649048791
50
124.9177320649
51
194.65123365579998
0
LINE
8
CYAN
10
67.87082702180001
20
334.2388486424
30
0.0
11
77.6554355428
21
346.2300650972
31
0.0
0
LINE
8
CYAN
10
77.6554355428
20
346.2300650972
30
0.0
11
67.9988650228
21
346.2300650972
31
0.0
0
LINE
8
CYAN
10
67.9988650228
20
346.2300650972
30
0.0
11
67.9988650228
21
348.12211331720005
31
0.0
0
LINE
8
CYAN
10
67.9988650228
20
348.12211331720005
30
0.0
11
80.5021584028
21
348.12211331720005
31
0.0
0
LINE
8
CYAN
10
80.5021584028
20
348.12211331720005
30
0.0
11
80.5021584028
21
346.974748799
31
0.0
0
ARC
8
CYAN
10
79.2774518045
20
346.6548106161
30
0.0
40
1.2658067359
50
-55.023832433299994
51
14.640561620000005
0
LINE
8
CYAN
10
80.00305736020002
20
345.6176205321
30
0.0
11
70.23102414280001
21
333.6264040772
31
0.0
0
LINE
8
CYAN
10
70.23102414280001
20
333.6264040772
30
0.0
11
80.4278580545
21
333.6264040772
31
0.0
0
ARC
8
CYAN
10
80.5151920486
20
333.5740004093
30
0.0
40
0.1018497469
50
-30.96533460910002
51
149.0346653909
0
LINE
8
CYAN
10
80.60252604280001
20
333.5215967414
30
0.0
11
80.60252604280001
21
331.7343558572
31
0.0
0
LINE
8
CYAN
10
80.60252604280001
20
331.7343558572
30
0.0
11
67.37108370280001
21
331.7343558572
31
0.0
0
LINE
8
CYAN
10
128.7075323428
20
231.79655585720002
30
0.0
11
128.7075323428
21
248.1843133172
31
0.0
0
LINE
8
CYAN
10
128.7075323428
20
248.1843133172
30
0.0
11
131.2230634828
21
248.1843133172
31
0.0
0
LINE
8
CYAN
10
131.2230634828
20
248.1843133172
30
0.0
11
131.2230634828
21
233.8732901505
31
0.0
0
ARC
8
CYAN
10
131.3099146075
20
233.7809471139
30
0.0
40
0.126768901
50
133.2445582363
51
313.2445582363
0
LINE
8
CYAN
10
131.3967657321
20
233.6886040772
30
0.0
11
139.8775226134
21
233.6886040772
31
0.0
0
ARC
8
CYAN
10
139.9643737381
20
233.63620040930002
30
0.0
40
0.1014360009
50
-31.105668449099937
51
148.89433155090006
0
LINE
8
CYAN
10
140.0512248628
20
233.58379674140002
30
0.0
11
140.0512248628
21
231.79655585720002
31
0.0
0
LINE
8
CYAN
10
140.0512248628
20
231.79655585720002
30
0.0
11
128.7075323428
21
231.79655585720002
31
0.0
0
LINE
8
CYAN
10
284.0264552428
20
131.8587558572
30
0.0
11
277.6657903828
21
148.24651331720003
31
0.0
0
LINE
8
CYAN
10
277.6657903828
20
148.24651331720003
30
0.0
11
280.2067219605
21
148.24651331720003
31
0.0
0
ARC
8
CYAN
10
280.2637632816
20
148.1132565402
30
0.0
40
0.1449519953
50
-22.9986567217
51
113.17362131340002
0
LINE
8
CYAN
10
280.3971936246
20
148.0566224117
30
0.0
11
285.5610915028
21
135.21999719720003
31
0.0
0
LINE
8
CYAN
10
285.5610915028
20
135.21999719720003
30
0.0
11
290.8280237833
21
148.0566224117
31
0.0
0
ARC
8
CYAN
10
290.9654659065
20
148.1111587558
30
0.0
40
0.1478666631
50
66.26011105899998
51
201.6429293043
0
LINE
8
CYAN
10
291.02499483040003
20
148.24651331720003
30
0.0
11
293.0552444428
21
148.24651331720003
31
0.0
0
LINE
8
CYAN
10
293.0552444428
20
148.24651331720003
30
0.0
11
286.6280962111
21
132.0427980553
31
0.0
0
ARC
8
CYAN
10
286.5007702257
20
131.9868028305
30
0.0
40
0.1390948301
50
-112.989975271
51
23.73885877069999
0
LINE
8
CYAN
10
286.4464439486
20
131.8587558572
30
0.0
11
284.0264552428
21
131.8587558572
31
0.0
0
LINE
8
CYAN
10
219.2982466228
20
298.19995841720004
30
0.0
11
219.2982466228
21
299.9871993014
31
0.0
0
ARC
8
CYAN
10
219.37382240050002
20
300.0396029693
30
0.0
40
0.0919665297
50
34.73714401569999
51
214.7371440157
0
LINE
8
CYAN
10
219.44939817830002
20
300.09200663720003
30
0.0
11
223.5546744272
21
300.09200663720003
31
0.0
0
ARC
8
CYAN
10
223.630250205
20
300.1838700558
30
0.0
40
0.1189562351
50
230.55596424829997
51
410.5559642483
0
LINE
8
CYAN
10
223.7058259828
20
300.2757334743
30
0.0
11
223.7058259828
21
312.51194082020004
31
0.0
0
ARC
8
CYAN
10
223.630250205
20
312.60380423870004
30
0.0
40
0.118956235
50
309.444035767
51
489.4440357670001
0
LINE
8
CYAN
10
223.5546744272
20
312.69566765720003
30
0.0
11
219.44939817830002
21
312.69566765720003
31
0.0
0
ARC
8
CYAN
10
219.37382240050002
20
312.7480713251
30
0.0
40
0.0919665297
50
145.2628559843
51
325.2628559843001
0
LINE
8
CYAN
10
219.2982466228
20
312.800474993
30
0.0
11
219.2982466228
21
314.5877158772
31
0.0
0
LINE
8
CYAN
10
219.2982466228
20
314.5877158772
30
0.0
11
230.6419391428
21
314.5877158772
31
0.0
0
LINE
8
CYAN
10
230.6419391428
20
314.5877158772
30
0.0
11
230.6419391428
21
312.800474993
31
0.0
0
ARC
8
CYAN
10
230.566363365
20
312.7480713251
30
0.0
40
0.0919665298
50
-145.2628560021
51
34.7371439979
0
LINE
8
CYAN
10
230.4907875872
20
312.69566765720003
30
0.0
11
226.3855113383
21
312.69566765720003
31
0.0
0
ARC
8
CYAN
10
226.3099355605
20
312.60380423870004
30
0.0
40
0.118956235
50
50.55596425160002
51
230.55596425160002
0
LINE
8
CYAN
10
226.2343597828
20
312.51194082020004
30
0.0
11
226.2343597828
21
300.2757334743
31
0.0
0
ARC
8
CYAN
10
226.3099355605
20
300.1838700558
30
0.0
40
0.118956235
50
129.4440357331
51
309.44403573310007
0
LINE
8
CYAN
10
226.3855113383
20
300.09200663720003
30
0.0
11
230.4907875872
21
300.09200663720003
31
0.0
0
ARC
8
CYAN
10
230.566363365
20
300.0396029693
30
0.0
40
0.0919665298
50
-34.73714399789997
51
145.2628560021
0
LINE
8
CYAN
10
230.6419391428
20
299.9871993014
30
0.0
11
230.6419391428
21
298.19995841720004
31
0.0
0
LINE
8
CYAN
10
230.6419391428
20
298.19995841720004
30
0.0
11
219.2982466228
21
298.19995841720004
31
0.0
0
LINE
8
CYAN
10
279.5294691628
20
198.48395585720002
30
0.0
11
279.5294691628
21
214.6629211481
31
0.0
0
ARC
8
CYAN
10
279.6227137993
20
214.7673172327
30
0.0
40
0.1399753718
50
48.2293657794
51
228.22936577939998
0
LINE
8
CYAN
10
279.7159584358
20
214.8717133172
30
0.0
11
290.6028997828
21
214.8717133172
31
0.0
0
LINE
8
CYAN
10
290.6028997828
20
214.8717133172
30
0.0
11
290.6028997828
21
213.084472433
31
0.0
0
ARC
8
CYAN
10
290.51870748470003
20
213.0320687651
30
0.0
40
0.0991689845
50
-148.10069761849996
51
31.89930238150004
0
LINE
8
CYAN
10
290.4345151865
20
212.9796650972
30
0.0
11
282.213384899
21
212.9796650972
31
0.0
0
ARC
8
CYAN
10
282.1291926009
20
212.9101464292
30
0.0
40
0.1091841942
50
39.54692745429999
51
219.5469274543
0
LINE
8
CYAN
10
282.0450003028
20
212.8406277613
30
0.0
11
282.0450003028
21
208.1530832932
31
0.0
0
ARC
8
CYAN
10
282.1294806559
20
208.0835646252
30
0.0
40
0.1094064681
50
140.5491224439
51
320.5491224439
0
LINE
8
CYAN
10
282.2139610091
20
208.0140459572
30
0.0
11
289.13044927650003
21
208.0140459572
31
0.0
0
ARC
8
CYAN
10
289.2149296297
20
207.96164228930002
30
0.0
40
0.0994136534
50
-31.81157442639999
51
148.1884255736
0
LINE
8
CYAN
10
289.2994099828
20
207.90923862140002
30
0.0
11
289.2994099828
21
206.226805073
31
0.0
0
ARC
8
CYAN
10
289.2149296297
20
206.1744014051
30
0.0
40
0.0994136534
50
-148.1884255736
51
31.81157442639999
0
LINE
8
CYAN
10
289.13044927650003
20
206.12199773720002
30
0.0
11
282.2139610091
21
206.12199773720002
31
0.0
0
ARC
8
CYAN
10
282.1294806559
20
206.041553826
30
0.0
40
0.116653988
50
43.5979932777
51
223.5979932777
0
LINE
8
CYAN
10
282.0450003028
20
205.9611099148
30
0.0
11
282.0450003028
21
200.5368918997
31
0.0
0
ARC
8
CYAN
10
282.1349828168
20
200.45644798840001
30
0.0
40
0.1206982837
50
138.20344739009997
51
318.2034473901
0
LINE
8
CYAN
10
282.2249653309
20
200.3760040772
30
0.0
11
291.1914582028
21
200.3760040772
31
0.0
0
LINE
8
CYAN
10
291.1914582028
20
200.3760040772
30
0.0
11
291.1914582028
21
198.48395585720002
31
0.0
0
LINE
8
CYAN
10
291.1914582028
20
198.48395585720002
30
0.0
11
279.5294691628
21
198.48395585720002
31
0.0
0
LINE
8
CYAN
10
309.6298748428
20
381.8314556372
30
0.0
11
312.1454059828
21
381.8314556372
31
0.0
0
ARC
8
CYAN
10
597.9024076217
20
377.2256006388
30
0.0
40
285.7941180044
50
179.07658184489998
51
181.26882985439997
0
ARC
8
CYAN
10
317.1022234533
20
370.8625192085
30
0.0
40
4.9239798636
50
179.59722492520004
51
220.17046086880003
0
ARC
8
CYAN
10
315.6927422524
20
370.963372746
30
0.0
40
4.0344225921
50
-125.6793889351
51
-54.32061106489999
0
ARC
8
CYAN
10
314.40391611710004
20
370.8873102991
30
0.0
40
4.8487415294
50
-41.31407690820001
51
0.5843517298999971
0
ARC
8
CYAN
10
-1393.0573825159001
20
381.7341817128
30
0.0
40
1712.3438306417
50
-0.36128884879999995
51
0.003254828400000035
0
LINE
8
CYAN
10
319.2864453628
20
381.8314556372
30
0.0
11
321.4836799828
21
381.8314556372
31
0.0
0
ARC
8
CYAN
10
137.610546172
20
377.8164797134
30
0.0
40
183.9169632445
50
-2.3956774445
51
1.2508876112
0
ARC
8
CYAN
10
315.9558622916
20
370.4598603267
30
0.0
40
5.4210256658
50
-93.1366144311
51
-3.5022757224000074
0
ARC
8
CYAN
10
315.2644339702
20
370.9751537875
30
0.0
40
5.9413300628
50
-134.4544109004
51
-86.1898379786
0
ARC
8
CYAN
10
316.991781557
20
371.0815788847
30
0.0
40
7.3192895013
50
-176.1566423049
51
-143.5611955794
0
ARC
8
CYAN
10
1360.4370370983
20
381.7339247514
30
0.0
40
1050.8071667817
50
179.9946820803
51
180.6075862464
0
ARC
8
CYAN
10
288.34159531390003
20
273.2808042193
30
0.0
40
10.0788226151
50
177.5805594762
51
208.8838846072
0
ARC
8
CYAN
10
288.04600690670003
20
274.12190314410003
30
0.0
40
9.7830822849
50
143.3769550369
51
182.43488929619997
0
ARC
8
CYAN
10
285.3829419306
20
275.4247820238
30
0.0
40
6.8899655913
50
50.1194754761
51
138.8569059893
0
LINE
8
CYAN
10
289.8007108828
20
280.71202547720003
30
0.0
11
288.3695586028
21
279.0079247972
31
0.0
0
ARC
8
CYAN
10
285.35353569430004
20
276.480411838
30
0.0
40
3.9350623812
50
39.96396467199999
51
158.85941442289996
0
ARC
8
CYAN
10
293.4365228245
20
273.6252589973
30
0.0
40
12.5063262645
50
160.0148818152
51
194.22634684259998
0
LINE
8
CYAN
10
281.3137350028
20
270.5517899372
30
0.0
11
279.5165739628
21
268.41236879720003
31
0.0
0
LINE
8
CYAN
10
67.99671582280001
20
231.79655585720002
30
0.0
11
67.99671582280001
21
248.1843133172
31
0.0
0
LINE
8
CYAN
10
67.99671582280001
20
248.1843133172
30
0.0
11
70.40415773410001
21
248.1843133172
31
0.0
0
ARC
8
CYAN
10
70.45820234850001
20
248.10089916750002
30
0.0
40
0.0993918543
50
-57.06051403310001
51
122.93948596689998
0
LINE
8
CYAN
10
70.51224696280002
20
248.01748501780003
30
0.0
11
70.51224696280002
21
241.18828785670001
31
0.0
0
ARC
8
CYAN
10
70.5930206322
20
241.1048737069
30
0.0
40
0.1161133328
50
134.0786445668
51
314.07864456680005
0
LINE
8
CYAN
10
70.6737943016
20
241.02145955720002
30
0.0
11
77.28681278390002
21
241.02145955720002
31
0.0
0
ARC
8
CYAN
10
77.36758645340001
20
241.1048737069
30
0.0
40
0.1161133328
50
225.9213554155
51
405.9213554155
0
LINE
8
CYAN
10
77.44836012280001
20
241.18828785670001
30
0.0
11
77.44836012280001
21
248.01748501780003
31
0.0
0
ARC
8
CYAN
10
77.5026840912
20
248.10089916750002
30
0.0
40
0.09954403
50
56.925570634699994
51
236.9255706347
0
LINE
8
CYAN
10
77.55700805950002
20
248.1843133172
30
0.0
11
79.9768939228
21
248.1843133172
31
0.0
0
LINE
8
CYAN
10
79.9768939228
20
248.1843133172
30
0.0
11
79.9768939228
21
231.79655585720002
31
0.0
0
LINE
8
CYAN
10
79.9768939228
20
231.79655585720002
30
0.0
11
77.55700805950002
21
231.79655585720002
31
0.0
0
ARC
8
CYAN
10
77.5026840912
20
231.88194974150002
30
0.0
40
0.1012087398
50
122.46278906219997
51
302.4627890622
0
LINE
8
CYAN
10
77.44836012280001
20
231.9673436257
30
0.0
11
77.44836012280001
21
238.9586235687
31
0.0
0
ARC
8
CYAN
10
77.36758645340001
20
239.044017453
30
0.0
40
0.1175436138
50
313.4073267206999
51
493.4073267207
0
LINE
8
CYAN
10
77.28681278390002
20
239.1294113372
30
0.0
11
70.6737943016
21
239.1294113372
31
0.0
0
ARC
8
CYAN
10
70.5930206322
20
239.044017453
30
0.0
40
0.1175436138
50
46.592673297
51
226.59267329700003
0
LINE
8
CYAN
10
70.51224696280002
20
238.9586235687
30
0.0
11
70.51224696280002
21
231.9673436257
31
0.0
0
ARC
8
CYAN
10
70.45820234850001
20
231.88194974150002
30
0.0
40
0.1010590709
50
-122.32915678459999
51
57.67084321540001
0
LINE
8
CYAN
10
70.40415773410001
20
231.79655585720002
30
0.0
11
67.99671582280001
21
231.79655585720002
31
0.0
0
LINE
8
CYAN
10
339.7630558228
20
165.1713558572
30
0.0
11
339.7630558228
21
181.61144633720002
31
0.0
0
LINE
8
CYAN
10
339.7630558228
20
181.61144633720002
30
0.0
11
342.0074860602
21
181.61144633720002
31
0.0
0
ARC
8
CYAN
10
342.0732949715
20
181.44846727200002
30
0.0
40
0.1757640137
50
-3.5128046621000033
51
111.9882410798
0
ARC
8
CYAN
10
792.1833978023001
20
458.0928660239
30
0.0
40
528.1848998705
50
-148.4135343244
51
-146.9054706923
0
LINE
8
CYAN
10
349.6854823828
20
169.6923055172
30
0.0
11
349.6854823828
21
181.61144633720002
31
0.0
0
LINE
8
CYAN
10
349.6854823828
20
181.61144633720002
30
0.0
11
351.7432339228
21
181.61144633720002
31
0.0
0
LINE
8
CYAN
10
351.7432339228
20
181.61144633720002
30
0.0
11
351.7432339228
21
165.1713558572
31
0.0
0
LINE
8
CYAN
10
351.7432339228
20
165.1713558572
30
0.0
11
349.5483392991
21
165.1713558572
31
0.0
0
ARC
8
CYAN
10
349.48398282100004
20
165.3342739868
30
0.0
40
0.1751686993
50
176.01778360749998
51
291.5551811003
0
ARC
8
CYAN
10
-160.24243869
20
-149.3178314849
30
0.0
40
598.8793812578
50
31.6966416026
51
33.0372872303
0
LINE
8
CYAN
10
341.80769724280003
20
177.18205259720003
30
0.0
11
341.80769724280003
21
165.1713558572
31
0.0
0
LINE
8
CYAN
10
341.80769724280003
20
165.1713558572
30
0.0
11
339.7630558228
21
165.1713558572
31
0.0
0
LINE
8
CYAN
10
311.5708173628
20
279.6048650972
30
0.0
11
311.5708173628
21
276.1277861521
31
0.0
0
ARC
8
CYAN
10
311.5168096878
20
276.0660482446
30
0.0
40
0.0820268138
50
-131.17909453120004
51
48.82090546879998
0
LINE
8
CYAN
10
311.4628020128
20
276.0043103372
30
0.0
11
309.16502093270003
21
276.0043103372
31
0.0
0
ARC
8
CYAN
10
309.1110132577
20
276.08127558440003
30
0.0
40
0.0940238174
50
125.20364324120001
51
305.05791813940004
0
LINE
8
CYAN
10
309.0568100056
20
276.1581032207
30
0.0
11
309.05021626
21
281.3431204338
31
0.0
0
ARC
8
CYAN
10
309.1286606921
20
281.420116757
30
0.0
40
0.1099179817
50
44.32051447020001
51
224.466239572
0
ARC
8
CYAN
10
311.4218033622
20
221.6536032406
30
0.0
40
59.8842699126
50
85.1945942136
51
92.11926425080001
0
ARC
8
CYAN
10
316.1715880395
20
277.4979197774
30
0.0
40
3.8387427794
50
-11.5675336983
51
86.01414074459998
0
ARC
8
CYAN
10
314.9563582
20
277.529209933
30
0.0
40
5.0400684868
50
-62.23642275129998
51
-9.14511277859999
0
LINE
8
CYAN
10
317.3041441753
20
273.0693678544
30
0.0
11
316.4089889428
21
272.5683842972
31
0.0
0
LINE
8
CYAN
10
316.4089889428
20
272.5683842972
30
0.0
11
322.0634266828
21
265.1091558572
31
0.0
0
LINE
8
CYAN
10
322.0634266828
20
265.1091558572
30
0.0
11
319.1428003066
21
265.1091558572
31
0.0
0
ARC
8
CYAN
10
319.0772352247
20
265.2646339145
30
0.0
40
0.1687370921
50
-172.74164729349997
51
-67.13485183069999
0
LINE
8
CYAN
10
318.90985030030004
20
265.2433150654
30
0.0
11
313.9386462253
21
271.7934411091
31
0.0
0
ARC
8
CYAN
10
313.548778443
20
271.3921329965
30
0.0
40
0.5595043244
50
45.828433939899995
51
106.85556378740002
0
LINE
8
CYAN
10
313.3865445458
20
271.9276003172
30
0.0
11
311.69136586540003
21
271.9276003172
31
0.0
0
ARC
8
CYAN
10
311.6284588441
20
271.8481969444
30
0.0
40
0.1013024626
50
51.61210801639999
51
231.6121080164
0
LINE
8
CYAN
10
311.5655518228
20
271.76879357170003
30
0.0
11
311.5655518228
21
265.2679626027
31
0.0
0
ARC
8
CYAN
10
311.5115072085
20
265.1885592299
30
0.0
40
0.0960505905
50
-124.24052418810003
51
55.75947581189997
0
LINE
8
CYAN
10
311.4574625941
20
265.1091558572
30
0.0
11
309.1581099114
21
265.1091558572
31
0.0
0
ARC
8
CYAN
10
309.1040652971
20
265.19516228910004
30
0.0
40
0.1015771956
50
122.14438135439997
51
302.1443813544
0
LINE
8
CYAN
10
309.0500206828
20
265.28116872100003
30
0.0
11
309.0500206828
21
273.6794438335
31
0.0
0
ARC
8
CYAN
10
309.1155356596
20
273.76545026540003
30
0.0
40
0.1081171518
50
52.14461152140001
51
232.7018406883
0
ARC
8
CYAN
10
310.9658853057
20
308.8012777793
30
0.0
40
34.9959637104
50
-92.9220532552
51
-84.39168994270001
0
ARC
8
CYAN
10
313.9688094279
20
277.2836010505
30
0.0
40
3.3369442237
50
-82.818950921
51
-2.4377624843000016
0
ARC
8
CYAN
10
315.2783637178
20
277.384903001
30
0.0
40
2.0389305634
50
-6.8514677947
51
85.12526887300001
0
ARC
8
CYAN
10
311.7707546518
20
243.6604175525
30
0.0
40
35.9450036057
50
84.12244348699998
51
90.3186985881
0
ARC
8
CYAN
10
288.34159531390003
20
239.4105942793
30
0.0
40
10.0788226151
50
177.5805594762
51
208.8838846072
0
ARC
8
CYAN
10
288.04600690670003
20
240.2516932041
30
0.0
40
9.7830822849
50
143.3769550369
51
182.43488929619997
0
ARC
8
CYAN
10
285.3829419306
20
241.5545720838
30
0.0
40
6.8899655913
50
50.1194754761
51
138.8569059893
0
LINE
8
CYAN
10
289.8007108828
20
246.8418155372
30
0.0
11
288.3695586028
21
245.13771485720002
31
0.0
0
ARC
8
CYAN
10
285.35353569430004
20
242.610201898
30
0.0
40
3.9350623812
50
39.96396467199999
51
158.85941442289996
0
ARC
8
CYAN
10
293.4365228245
20
239.7550490573
30
0.0
40
12.5063262645
50
160.0148818152
51
194.22634684259998
0
LINE
8
CYAN
10
281.3137350028
20
236.6815799972
30
0.0
11
279.5165739628
21
234.5421588572
31
0.0
0
LINE
8
CYAN
10
158.9037923428
20
198.48395585720002
30
0.0
11
158.9037923428
21
200.27119674140002
31
0.0
0
ARC
8
CYAN
10
158.9793681205
20
200.3236004093
30
0.0
40
0.0919665297
50
34.73714401569999
51
214.7371440157
0
LINE
8
CYAN
10
159.0549438983
20
200.3760040772
30
0.0
11
163.1602201472
21
200.3760040772
31
0.0
0
ARC
8
CYAN
10
163.235795925
20
200.46786749580002
30
0.0
40
0.1189562351
50
230.55596424829997
51
410.5559642483
0
LINE
8
CYAN
10
163.3113717028
20
200.55973091430002
30
0.0
11
163.3113717028
21
212.79593826020002
31
0.0
0
ARC
8
CYAN
10
163.235795925
20
212.88780167870001
30
0.0
40
0.118956235
50
309.444035767
51
489.4440357670001
0
LINE
8
CYAN
10
163.1602201472
20
212.9796650972
30
0.0
11
159.0549438983
21
212.9796650972
31
0.0
0
ARC
8
CYAN
10
158.9793681205
20
213.0320687651
30
0.0
40
0.0919665297
50
145.2628559843
51
325.2628559843001
0
LINE
8
CYAN
10
158.9037923428
20
213.084472433
30
0.0
11
158.9037923428
21
214.8717133172
31
0.0
0
LINE
8
CYAN
10
158.9037923428
20
214.8717133172
30
0.0
11
170.2474848628
21
214.8717133172
31
0.0
0
LINE
8
CYAN
10
170.2474848628
20
214.8717133172
30
0.0
11
170.2474848628
21
213.084472433
31
0.0
0
ARC
8
CYAN
10
170.171909085
20
213.0320687651
30
0.0
40
0.0919665298
50
-145.2628560021
51
34.7371439979
0
LINE
8
CYAN
10
170.0963333072
20
212.9796650972
30
0.0
11
165.99105705830002
21
212.9796650972
31
0.0
0
ARC
8
CYAN
10
165.9154812806
20
212.88780167870001
30
0.0
40
0.118956235
50
50.55596425160002
51
230.55596425160002
0
LINE
8
CYAN
10
165.8399055028
20
212.79593826020002
30
0.0
11
165.8399055028
21
200.55973091430002
31
0.0
0
ARC
8
CYAN
10
165.9154812806
20
200.46786749580002
30
0.0
40
0.118956235
50
129.4440357331
51
309.44403573310007
0
LINE
8
CYAN
10
165.99105705830002
20
200.3760040772
30
0.0
11
170.0963333072
21
200.3760040772
31
0.0
0
ARC
8
CYAN
10
170.171909085
20
200.3236004093
30
0.0
40
0.0919665298
50
-34.73714399789997
51
145.2628560021
0
LINE
8
CYAN
10
170.2474848628
20
200.27119674140002
30
0.0
11
170.2474848628
21
198.48395585720002
31
0.0
0
LINE
8
CYAN
10
170.2474848628
20
198.48395585720002
30
0.0
11
158.9037923428
21
198.48395585720002
31
0.0
0
LINE
8
CYAN
10
24.804062500000015
20
427.29252777780005
30
0.0
11
25.599999999999994
21
427.4
31
0.0
0
ARC
8
CYAN
10
25.596978544600006
20
424.4212907576
30
0.0
40
2.9787107748
50
-254.5620653335
51
89.94188201360002
0
LINE
8
CYAN
10
108.9045886228
20
81.45722189720001
30
0.0
11
108.9045886228
21
79.27298993720001
31
0.0
0
ARC
8
CYAN
10
103.89899610980001
20
67.81993188910002
30
0.0
40
12.4991397728
50
66.3921260607
51
94.4423188932
0
ARC
8
CYAN
10
103.1639503976
20
77.24820750800001
30
0.0
40
3.0422562329
50
94.3939866347
51
136.98264457629998
0
ARC
8
CYAN
10
102.8266247291
20
78.10149415700002
30
0.0
40
2.2482406792
50
147.0692144152
51
251.40260118140003
0
ARC
8
CYAN
10
-22.312477939800004
20
-262.2000892164
30
0.0
40
360.3336071344
50
68.8342458759
51
69.8000751364
0
ARC
8
CYAN
10
105.97001933230001
20
69.92956042910001
30
0.0
40
4.3008536126
50
-54.7666608967
51
64.93311581509998
0
ARC
8
CYAN
10
103.7573926798
20
73.8231530406
30
0.0
40
8.7686513605
50
-91.17780676940001
51
-57.636026261200016
0
ARC
8
CYAN
10
104.95221855880001
20
90.3767945196
30
0.0
40
25.3577503145
50
-105.6842248574
51
-93.10848524879998
0
LINE
8
CYAN
10
98.09712150280001
20
65.96320925720002
30
0.0
11
98.09712150280001
21
68.45681855720002
31
0.0
0
ARC
8
CYAN
10
104.7196086998
20
81.86185130940001
30
0.0
40
14.9516634446
50
-116.2907497074
51
-94.09732570490002
0
ARC
8
CYAN
10
103.9566158658
20
71.93385720700002
30
0.0
40
4.9947949522
50
-93.5045035432
51
-52.03775421539999
0
ARC
8
CYAN
10
105.58379264690001
20
69.59826596000002
30
0.0
40
2.1579217028
50
-47.9499467953
51
69.72528173269998
0
ARC
8
CYAN
10
-177.04157980300002
20
-618.9887366974999
30
0.0
40
746.4879090597
50
67.690566978
51
68.1391511287
0
ARC
8
CYAN
10
102.6599482711
20
78.1454463702
30
0.0
40
4.6638892789
50
-154.3633350705
51
-111.95862498629998
0
ARC
8
CYAN
10
102.75534477720001
20
77.63551468720001
30
0.0
40
4.5568913594
50
131.9321179501
51
199.32453273330006
0
ARC
8
CYAN
10
103.6019652586
20
75.42918172190002
30
0.0
40
6.816538992
50
87.2023608382
51
124.8150526952
0
ARC
8
CYAN
10
103.37233992230001
20
62.44034333580001
30
0.0
40
19.8052378401
50
73.7796233962
51
88.37297925849998
0
LINE
8
CYAN
10
229.98761520280001
20
214.8848234372
30
0.0
11
229.98761520280001
21
212.70059147720002
31
0.0
0
ARC
8
CYAN
10
224.9820226898
20
201.2475334291
30
0.0
40
12.4991397728
50
66.3921260607
51
94.4423188932
0
ARC
8
CYAN
10
224.2469769776
20
210.67580904800002
30
0.0
40
3.0422562329
50
94.3939866347
51
136.98264457629998
0
ARC
8
CYAN
10
223.9096513091
20
211.529095697
30
0.0
40
2.2482406792
50
147.0692144152
51
251.40260118140003
0
ARC
8
CYAN
10
98.77054864020002
20
-128.77248767639998
30
0.0
40
360.3336071344
50
68.8342458759
51
69.8000751364
0
ARC
8
CYAN
10
227.0530459123
20
203.35716196910002
30
0.0
40
4.3008536126
50
-54.7666608967
51
64.93311581509998
0
ARC
8
CYAN
10
224.8404192598
20
207.25075458060002
30
0.0
40
8.7686513605
50
-91.17780676940001
51
-57.636026261200016
0
ARC
8
CYAN
10
226.0352451388
20
223.8043960596
30
0.0
40
25.3577503145
50
-105.6842248574
51
-93.10848524879998
0
LINE
8
CYAN
10
219.1801480828
20
199.3908107972
30
0.0
11
219.1801480828
21
201.8844200972
31
0.0
0
ARC
8
CYAN
10
225.8026352798
20
215.28945284940002
30
0.0
40
14.9516634446
50
-116.2907497074
51
-94.09732570490002
0
ARC
8
CYAN
10
225.0396424458
20
205.361458747
30
0.0
40
4.9947949522
50
-93.5045035432
51
-52.03775421539999
0
ARC
8
CYAN
10
226.6668192269
20
203.0258675
30
0.0
40
2.1579217028
50
-47.9499467953
51
69.72528173269998
0
ARC
8
CYAN
10
-55.958553222999996
20
-485.5611351575
30
0.0
40
746.4879090597
50
67.690566978
51
68.1391511287
0
ARC
8
CYAN
10
223.7429748511
20
211.57304791020002
30
0.0
40
4.6638892789
50
-154.3633350705
51
-111.95862498629998
0
ARC
8
CYAN
10
223.8383713572
20
211.0631162272
30
0.0
40
4.5568913594
50
131.9321179501
51
199.32453273330006
0
ARC
8
CYAN
10
224.6849918386
20
208.8567832619
30
0.0
40
6.816538992
50
87.2023608382
51
124.8150526952
0
ARC
8
CYAN
10
224.4553665023
20
195.86794487580002
30
0.0
40
19.8052378401
50
73.7796233962
51
88.37297925849998
0
LINE
8
CYAN
10
369.95920836280004
20
198.48395585720002
30
0.0
11
369.95920836280004
21
214.92404633720002
31
0.0
0
LINE
8
CYAN
10
369.95920836280004
20
214.92404633720002
30
0.0
11
372.2036386002
21
214.92404633720002
31
0.0
0
ARC
8
CYAN
10
372.2694475115
20
214.76106727200002
30
0.0
40
0.1757640137
50
-3.5128046621000033
51
111.9882410798
0
ARC
8
CYAN
10
822.3795503423
20
491.40546602390003
30
0.0
40
528.1848998705
50
-148.4135343244
51
-146.9054706923
0
LINE
8
CYAN
10
379.8816349228
20
203.0049055172
30
0.0
11
379.8816349228
21
214.92404633720002
31
0.0
0
LINE
8
CYAN
10
379.8816349228
20
214.92404633720002
30
0.0
11
381.93938646280003
21
214.92404633720002
31
0.0
0
LINE
8
CYAN
10
381.93938646280003
20
214.92404633720002
30
0.0
11
381.93938646280003
21
198.48395585720002
31
0.0
0
LINE
8
CYAN
10
381.93938646280003
20
198.48395585720002
30
0.0
11
379.7444918391
21
198.48395585720002
31
0.0
0
ARC
8
CYAN
10
379.680135361
20
198.64687398680002
30
0.0
40
0.1751686993
50
176.01778360749998
51
291.5551811003
0
ARC
8
CYAN
10
-130.04628615
20
-116.00523148489998
30
0.0
40
598.8793812578
50
31.6966416026
51
33.0372872303
0
LINE
8
CYAN
10
372.0038497828
20
210.4946525972
30
0.0
11
372.0038497828
21
198.48395585720002
31
0.0
0
LINE
8
CYAN
10
372.0038497828
20
198.48395585720002
30
0.0
11
369.95920836280004
21
198.48395585720002
31
0.0
0
LINE
8
CYAN
10
370.27739742280005
20
298.19995841720004
30
0.0
11
370.27739742280005
21
314.5877158772
31
0.0
0
LINE
8
CYAN
10
370.27739742280005
20
314.5877158772
30
0.0
11
372.7929285628
21
314.5877158772
31
0.0
0
LINE
8
CYAN
10
372.7929285628
20
314.5877158772
30
0.0
11
372.7929285628
21
300.2766927105
31
0.0
0
ARC
8
CYAN
10
372.8797796874
20
300.1843496739
30
0.0
40
0.126768901
50
133.2445582363
51
313.2445582363
0
LINE
8
CYAN
10
372.9666308121
20
300.09200663720003
30
0.0
11
381.4473876934
21
300.09200663720003
31
0.0
0
ARC
8
CYAN
10
381.5342388181
20
300.0396029693
30
0.0
40
0.1014360009
50
-31.105668449099937
51
148.89433155090006
0
LINE
8
CYAN
10
381.62108994280004
20
299.9871993014
30
0.0
11
381.62108994280004
21
298.19995841720004
31
0.0
0
LINE
8
CYAN
10
381.62108994280004
20
298.19995841720004
30
0.0
11
370.27739742280005
21
298.19995841720004
31
0.0
0
LINE
8
CYAN
10
341.0665456228
20
265.7238270572
30
0.0
11
341.0665456228
21
267.73763247
31
0.0
0
ARC
8
CYAN
10
341.0955318335
20
267.7966792336
30
0.0
40
0.0657778132
50
27.168059077599985
51
243.85345770599997
0
ARC
8
CYAN
10
344.9490362888
20
276.4614634579
30
0.0
40
9.4319037784
50
-113.7255513281
51
-87.5207089865
0
ARC
8
CYAN
10
345.1705783772
20
269.6723653057
30
0.0
40
2.6405685804
50
-85.9506411204
51
-2.2988222025000087
0
ARC
8
CYAN
10
228.3723813064
20
275.6158424376
30
0.0
40
119.5897415128
50
-2.8995188530000005
51
1.4447502787
0
LINE
8
CYAN
10
347.9241055228
20
278.631055861
30
0.0
11
347.9241055228
21
279.8290194435
31
0.0
0
ARC
8
CYAN
10
347.8447011796
20
279.91531343040003
30
0.0
40
0.1172676506
50
312.6190450883001
51
492.6190450883
0
LINE
8
CYAN
10
347.7652968364
20
280.00160741720003
30
0.0
11
342.41117540920004
21
280.00160741720003
31
0.0
0
ARC
8
CYAN
10
342.331771066
20
280.0540110851
30
0.0
40
0.0951377639
50
146.5767965526
51
326.5767965526
0
LINE
8
CYAN
10
342.2523667228
20
280.106414753
30
0.0
11
342.2523667228
21
281.7888483014
31
0.0
0
ARC
8
CYAN
10
342.3329127812
20
281.8412519693
30
0.0
40
0.0960927257
50
33.048228935
51
213.048228935
0
LINE
8
CYAN
10
342.4134588396
20
281.8936556372
30
0.0
11
350.2785445459
21
281.8936556372
31
0.0
0
ARC
8
CYAN
10
350.35909060430004
20
281.8019150203
30
0.0
40
0.1220819737
50
-48.71764432400007
51
131.28235567599992
0
ARC
8
CYAN
10
170.6435314718
20
277.484709526
30
0.0
40
179.8457505622
50
-2.3727159141
51
1.3462847054000007
0
ARC
8
CYAN
10
345.3428610737
20
270.1369215911
30
0.0
40
4.9931895566
50
-83.6848952782
51
-1.1223365724000056
0
ARC
8
CYAN
10
345.1532977177
20
280.1413913581
30
0.0
40
14.9855831737
50
-105.8257254402
51
-87.174146967
0
LINE
8
CYAN
10
340.0812448828
20
331.7343558572
30
0.0
11
340.0812448828
21
333.5215967414
31
0.0
0
ARC
8
CYAN
10
340.15682066060003
20
333.5740004093
30
0.0
40
0.0919665297
50
34.73714401569999
51
214.7371440157
0
LINE
8
CYAN
10
340.23239643830004
20
333.6264040772
30
0.0
11
344.3376726872
21
333.6264040772
31
0.0
0
ARC
8
CYAN
10
344.41324846500004
20
333.7182674958
30
0.0
40
0.1189562351
50
230.55596424829997
51
410.5559642483
0
LINE
8
CYAN
10
344.4888242428
20
333.81013091430003
30
0.0
11
344.4888242428
21
346.0463382602
31
0.0
0
ARC
8
CYAN
10
344.41324846500004
20
346.1382016787
30
0.0
40
0.118956235
50
309.444035767
51
489.4440357670001
0
LINE
8
CYAN
10
344.3376726872
20
346.2300650972
30
0.0
11
340.23239643830004
21
346.2300650972
31
0.0
0
ARC
8
CYAN
10
340.15682066060003
20
346.2824687651
30
0.0
40
0.0919665297
50
145.2628559843
51
325.2628559843001
0
LINE
8
CYAN
10
340.0812448828
20
346.334872433
30
0.0
11
340.0812448828
21
348.12211331720005
31
0.0
0
LINE
8
CYAN
10
340.0812448828
20
348.12211331720005
30
0.0
11
351.4249374028
21
348.12211331720005
31
0.0
0
LINE
8
CYAN
10
351.4249374028
20
348.12211331720005
30
0.0
11
351.4249374028
21
346.334872433
31
0.0
0
ARC
8
CYAN
10
351.34936162500003
20
346.2824687651
30
0.0
40
0.0919665298
50
-145.2628560021
51
34.7371439979
0
LINE
8
CYAN
10
351.2737858472
20
346.2300650972
30
0.0
11
347.16850959830003
21
346.2300650972
31
0.0
0
ARC
8
CYAN
10
347.0929338205
20
346.1382016787
30
0.0
40
0.118956235
50
50.55596425160002
51
230.55596425160002
0
LINE
8
CYAN
10
347.0173580428
20
346.0463382602
30
0.0
11
347.0173580428
21
333.81013091430003
31
0.0
0
ARC
8
CYAN
10
347.0929338205
20
333.7182674958
30
0.0
40
0.118956235
50
129.4440357331
51
309.44403573310007
0
LINE
8
CYAN
10
347.16850959830003
20
333.6264040772
30
0.0
11
351.2737858472
21
333.6264040772
31
0.0
0
ARC
8
CYAN
10
351.34936162500003
20
333.5740004093
30
0.0
40
0.0919665298
50
-34.73714399789997
51
145.2628560021
0
LINE
8
CYAN
10
351.4249374028
20
333.5215967414
30
0.0
11
351.4249374028
21
331.7343558572
31
0.0
0
LINE
8
CYAN
10
351.4249374028
20
331.7343558572
30
0.0
11
340.0812448828
21
331.7343558572
31
0.0
0
LINE
8
CYAN
10
318.1093285228
20
383.8716911972
30
0.0
11
318.1093285228
21
385.9595970158
31
0.0
0
ARC
8
CYAN
10
318.1705479835
20
386.02081647650004
30
0.0
40
0.0865773916
50
45.0
51
225.0
0
LINE
8
CYAN
10
318.2317674442
20
386.0820359372
30
0.0
11
320.19723434130003
21
386.0820359372
31
0.0
0
ARC
8
CYAN
10
320.2584538021
20
386.02081647650004
30
0.0
40
0.0865773916
50
-44.99999997660002
51
135.00000002339996
0
LINE
8
CYAN
10
320.3196732628
20
385.9595970158
30
0.0
11
320.3196732628
21
383.9941301187
31
0.0
0
ARC
8
CYAN
10
320.2584538021
20
383.93291065790004
30
0.0
40
0.0865773917
50
-135.0
51
45.0
0
LINE
8
CYAN
10
320.19723434130003
20
383.8716911972
30
0.0
11
318.1093285228
21
383.8716911972
31
0.0
0
LINE
8
CYAN
10
229.9871853628
20
81.45722189720001
30
0.0
11
229.9871853628
21
79.27298993720001
31
0.0
0
ARC
8
CYAN
10
224.9815928498
20
67.81993188910002
30
0.0
40
12.4991397728
50
66.3921260607
51
94.4423188932
0
ARC
8
CYAN
10
224.2465471376
20
77.24820750800001
30
0.0
40
3.0422562329
50
94.3939866347
51
136.98264457629998
0
ARC
8
CYAN
10
223.9092214691
20
78.10149415700002
30
0.0
40
2.2482406792
50
147.0692144152
51
251.40260118140003
0
ARC
8
CYAN
10
98.77011880020001
20
-262.2000892164
30
0.0
40
360.3336071344
50
68.8342458759
51
69.8000751364
0
ARC
8
CYAN
10
227.0526160723
20
69.92956042910001
30
0.0
40
4.3008536126
50
-54.7666608967
51
64.93311581509998
0
ARC
8
CYAN
10
224.83998941980002
20
73.8231530406
30
0.0
40
8.7686513605
50
-91.17780676940001
51
-57.636026261200016
0
ARC
8
CYAN
10
226.0348152988
20
90.3767945196
30
0.0
40
25.3577503145
50
-105.6842248574
51
-93.10848524879998
0
LINE
8
CYAN
10
219.17971824280002
20
65.96320925720002
30
0.0
11
219.17971824280002
21
68.45681855720002
31
0.0
0
ARC
8
CYAN
10
225.80220543980002
20
81.86185130940001
30
0.0
40
14.9516634446
50
-116.2907497074
51
-94.09732570490002
0
ARC
8
CYAN
10
225.0392126058
20
71.93385720700002
30
0.0
40
4.9947949522
50
-93.5045035432
51
-52.03775421539999
0
ARC
8
CYAN
10
226.66638938690002
20
69.59826596000002
30
0.0
40
2.1579217028
50
-47.9499467953
51
69.72528173269998
0
ARC
8
CYAN
10
-55.95898306299998
20
-618.9887366974999
30
0.0
40
746.4879090597
50
67.690566978
51
68.1391511287
0
ARC
8
CYAN
10
223.74254501110002
20
78.1454463702
30
0.0
40
4.6638892789
50
-154.3633350705
51
-111.95862498629998
0
ARC
8
CYAN
10
223.83794151720002
20
77.63551468720001
30
0.0
40
4.5568913594
50
131.9321179501
51
199.32453273330006
0
ARC
8
CYAN
10
224.6845619986
20
75.42918172190002
30
0.0
40
6.816538992
50
87.2023608382
51
124.8150526952
0
ARC
8
CYAN
10
224.4549366623
20
62.44034333580001
30
0.0
40
19.8052378401
50
73.7796233962
51
88.37297925849998
0
LINE
8
CYAN
10
318.1093285228
20
183.9960911972
30
0.0
11
318.1093285228
21
186.0839970158
31
0.0
0
ARC
8
CYAN
10
318.1705479835
20
186.14521647650002
30
0.0
40
0.0865773916
50
45.0
51
225.0
0
LINE
8
CYAN
10
318.2317674442
20
186.2064359372
30
0.0
11
320.19723434130003
21
186.2064359372
31
0.0
0
ARC
8
CYAN
10
320.2584538021
20
186.14521647650002
30
0.0
40
0.0865773916
50
-44.99999997660002
51
135.00000002339996
0
LINE
8
CYAN
10
320.3196732628
20
186.0839970158
30
0.0
11
320.3196732628
21
184.1185301187
31
0.0
0
ARC
8
CYAN
10
320.2584538021
20
184.057310658
30
0.0
40
0.0865773917
50
-135.0
51
45.0
0
LINE
8
CYAN
10
320.19723434130003
20
183.9960911972
30
0.0
11
318.1093285228
21
183.9960911972
31
0.0
0
LINE
8
CYAN
10
279.5294691628
20
365.04695585720003
30
0.0
11
279.5294691628
21
381.22592114810004
31
0.0
0
ARC
8
CYAN
10
279.6276697987
20
381.3303172327
30
0.0
40
0.1433244828
50
46.75157064370001
51
226.7515706437
0
LINE
8
CYAN
10
279.7258704347
20
381.4347133172
30
0.0
11
291.1914582028
21
381.4347133172
31
0.0
0
LINE
8
CYAN
10
291.1914582028
20
381.4347133172
30
0.0
11
291.1914582028
21
379.54266509720003
31
0.0
0
LINE
8
CYAN
10
291.1914582028
20
379.54266509720003
30
0.0
11
282.2249653309
21
379.54266509720003
31
0.0
0
ARC
8
CYAN
10
282.1349828168
20
379.46368651060004
30
0.0
40
0.1197266469
50
41.27376088130001
51
221.27376088130003
0
LINE
8
CYAN
10
282.0450003028
20
379.3847079239
30
0.0
11
282.0450003028
21
374.0592946506
31
0.0
0
ARC
8
CYAN
10
282.13587662500004
20
373.9803160639
30
0.0
40
0.1203998468
50
139.00682206990004
51
319.00682206989995
0
LINE
8
CYAN
10
282.2267529473
20
373.9013374772
30
0.0
11
289.8486380428
21
373.9013374772
31
0.0
0
LINE
8
CYAN
10
289.8486380428
20
373.9013374772
30
0.0
11
289.8486380428
21
372.0091817972
31
0.0
0
LINE
8
CYAN
10
289.8486380428
20
372.0091817972
30
0.0
11
282.2267529473
21
372.0091817972
31
0.0
0
ARC
8
CYAN
10
282.13587662500004
20
371.9281040346
30
0.0
40
0.1217871485
50
41.738608265900005
51
221.73860826589998
0
LINE
8
CYAN
10
282.0450003028
20
371.847026272
30
0.0
11
282.0450003028
21
365.2091113825
31
0.0
0
ARC
8
CYAN
10
281.9909556884
20
365.1280336198
30
0.0
40
0.0974393346
50
-123.68653145479996
51
56.31346854520003
0
LINE
8
CYAN
10
281.9369110741
20
365.04695585720003
30
0.0
11
279.5294691628
21
365.04695585720003
31
0.0
0
LINE
8
CYAN
10
100.1439121228
20
169.2135712172
30
0.0
11
97.6196767228
21
169.2135712172
31
0.0
0
LINE
8
CYAN
10
97.6196767228
20
169.2135712172
30
0.0
11
97.62825409850001
21
181.3791491467
31
0.0
0
ARC
8
CYAN
10
97.6975942494
20
181.4690823882
30
0.0
40
0.1135607523
50
52.44792188420002
51
232.36712879240002
0
ARC
8
CYAN
10
100.10028336260001
20
119.31777346330001
30
0.0
40
62.2850663991
50
86.14503776299999
51
92.1470574132
0
ARC
8
CYAN
10
103.49841786920001
20
173.2884665588
30
0.0
40
8.2114769618
50
54.8703944087
51
84.4837395399
0
ARC
8
CYAN
10
103.5837788858
20
174.6338170895
30
0.0
40
7.0970965505
50
5.7201389745999975
51
49.17479427539999
0
ARC
8
CYAN
10
99.58448252350001
20
173.7077434111
30
0.0
40
11.1810118487
50
-26.2749551787
51
8.400422939
0
ARC
8
CYAN
10
103.6179542082
20
172.1465211779
30
0.0
40
6.8839666625
50
-87.7445368465
51
-29.486160483799992
0
ARC
8
CYAN
10
97.70156506910001
20
363.483036029
30
0.0
40
198.3116936756
50
-90.02114418619999
51
-88.2120863146
0
LINE
8
CYAN
10
97.6283809828
20
165.1713558572
30
0.0
11
97.6283809828
21
166.9595103081
31
0.0
0
ARC
8
CYAN
10
97.6931789235
20
167.01194076270002
30
0.0
40
0.0833530184
50
38.94830538530001
51
218.97762601450003
0
ARC
8
CYAN
10
99.5919731494
20
201.7758989589
30
0.0
40
34.759975614
50
-93.0243842488
51
-82.7831788101
0
ARC
8
CYAN
10
103.3641927588
20
171.79663102720002
30
0.0
40
4.5443866634
50
-82.4831702132
51
-11.271204486599995
0
ARC
8
CYAN
10
96.7017608834
20
173.3229474671
30
0.0
40
11.3783095189
50
-12.2515897499
51
17.26986721
0
ARC
8
CYAN
10
103.51274757200001
20
175.18875336070002
30
0.0
40
4.3271530649
50
20.453396199500002
51
78.621403133
0
ARC
8
CYAN
10
100.9215990471
20
155.70939329650002
30
0.0
40
23.9702906753
50
81.7372045381
51
91.85921813949999
0
LINE
8
CYAN
10
100.1439121228
20
179.6670650972
30
0.0
11
100.1439121228
21
169.2135712172
31
0.0
0
ARC
8
CYAN
10
-12406.145698925398
20
202.61138557220002
30
0.0
40
12715.7880394203
50
-3.883232000000015E-4
51
0.05524353989999999
0
ARC
8
CYAN
10
309.71046337300004
20
-77.4912837256
30
0.0
40
292.3630064163
50
88.6791644184
51
90.0145086941
0
ARC
8
CYAN
10
316.0241065353
20
208.74540810850002
30
0.0
40
6.0635853023
50
53.64782200370001
51
85.9752826403
0
ARC
8
CYAN
10
317.152382551
20
211.0773859331
30
0.0
40
3.5483979565
50
-22.656848128699995
51
45.978202829299995
0
ARC
8
CYAN
10
316.1226907294
20
211.7509611838
30
0.0
40
4.7634099122
50
-80.34909971019998
51
-25.363571415299997
0
ARC
8
CYAN
10
315.2684349764
20
198.2591818761
30
0.0
40
8.949726746
50
64.2735412075
51
79.357652368
0
ARC
8
CYAN
10
317.4402630777
20
202.6660323689
30
0.0
40
4.037197289
50
-86.9305975383
51
64.89296133620002
0
ARC
8
CYAN
10
312.1774903128
20
279.0200324013
30
0.0
40
80.5719075679
50
-91.7088010868
51
-86.1008374706
0
ARC
8
CYAN
10
309.70564166500003
20
198.53614383570002
30
0.0
40
0.0866824845
50
142.62453243309997
51
322.98248752009994
0
LINE
8
CYAN
10
309.6367572955
20
198.588763193
30
0.0
11
309.6423402028
21
200.3760040772
31
0.0
0
ARC
8
CYAN
10
309.72439270480004
20
981.1554446719999
30
0.0
40
780.7794449062
50
-90.0060212421
51
-89.5862889652
0
ARC
8
CYAN
10
315.5642248318
20
205.48871357130002
30
0.0
40
5.0963715557
50
-92.2734819806
51
-58.9151390369
0
ARC
8
CYAN
10
316.2388876343
20
202.80462723980003
30
0.0
40
2.5792170343
50
-40.65784800490001
51
39.0939492008
0
ARC
8
CYAN
10
313.99814362440003
20
200.2843218699
30
0.0
40
5.9324832156
50
44.345991465
51
91.89703918690002
0
ARC
8
CYAN
10
324.29882193870003
20
207.1966825098
30
0.0
40
10.543002633
50
176.8119844088
51
185.35057152070002
0
ARC
8
CYAN
10
313.7841995266
20
214.653320568
30
0.0
40
6.8703242028
50
-90.10060956009998
51
-66.59810291399998
0
ARC
8
CYAN
10
315.46139468440003
20
210.7967739757
30
0.0
40
2.664876499
50
-66.75924880520002
51
-3.874020896400006
0
ARC
8
CYAN
10
316.11703909740004
20
210.7398840491
30
0.0
40
2.00692527
50
-3.5182209023999964
51
74.0458304819
0
ARC
8
CYAN
10
313.3339662944
20
197.1259772758
30
0.0
40
15.8972200712
50
77.8912984764
51
94.24113159129999
0
LINE
8
CYAN
10
312.1583011828
20
212.9796650972
30
0.0
11
312.160942439
21
202.7012691923
31
0.0
0
ARC
8
CYAN
10
312.1068761158
20
202.6132227354
30
0.0
40
0.1033215654
50
-121.58211204650001
51
58.447334738599984
0
LINE
8
CYAN
10
312.05276454890003
20
202.52520407720002
30
0.0
11
309.6423402028
21
202.52520407720002
31
0.0
0
LINE
8
CYAN
10
128.5483840828
20
131.8587558572
30
0.0
11
128.5483840828
21
148.0377211481
31
0.0
0
ARC
8
CYAN
10
128.6465847187
20
148.14211723260001
30
0.0
40
0.1433244828
50
46.75157064370001
51
226.7515706437
0
LINE
8
CYAN
10
128.7447853547
20
148.24651331720003
30
0.0
11
140.2103731228
21
148.24651331720003
31
0.0
0
LINE
8
CYAN
10
140.2103731228
20
148.24651331720003
30
0.0
11
140.2103731228
21
146.3544650972
31
0.0
0
LINE
8
CYAN
10
140.2103731228
20
146.3544650972
30
0.0
11
131.24388025090002
21
146.3544650972
31
0.0
0
ARC
8
CYAN
10
131.1538977369
20
146.2754865105
30
0.0
40
0.1197266469
50
41.27376088130001
51
221.27376088130003
0
LINE
8
CYAN
10
131.0639152228
20
146.19650792390001
30
0.0
11
131.0639152228
21
140.8710946506
31
0.0
0
ARC
8
CYAN
10
131.1547915451
20
140.7921160639
30
0.0
40
0.1203998468
50
139.00682206990004
51
319.00682206989995
0
LINE
8
CYAN
10
131.24566786730003
20
140.7131374772
30
0.0
11
138.8675529628
21
140.7131374772
31
0.0
0
LINE
8
CYAN
10
138.8675529628
20
140.7131374772
30
0.0
11
138.8675529628
21
138.8209817972
31
0.0
0
LINE
8
CYAN
10
138.8675529628
20
138.8209817972
30
0.0
11
131.24566786730003
21
138.8209817972
31
0.0
0
ARC
8
CYAN
10
131.1547915451
20
138.73990403460002
30
0.0
40
0.1217871485
50
41.738608265900005
51
221.73860826589998
0
LINE
8
CYAN
10
131.0639152228
20
138.658826272
30
0.0
11
131.0639152228
21
132.0209113825
31
0.0
0
ARC
8
CYAN
10
131.0098706084
20
131.9398336199
30
0.0
40
0.0974393346
50
-123.68653145479996
51
56.31346854520003
0
LINE
8
CYAN
10
130.9558259941
20
131.8587558572
30
0.0
11
128.5483840828
21
131.8587558572
31
0.0
0
ARC
8
CYAN
10
165.9331441256
20
73.1860225101
30
0.0
40
8.0909814936
50
177.33714140699996
51
248.808264258
0
ARC
8
CYAN
10
166.1235490113
20
73.9611765688
30
0.0
40
8.2822786146
50
87.84478103030001
51
182.76307306
0
ARC
8
CYAN
10
166.0931711002
20
65.15319197830001
30
0.0
40
17.0878241742
50
73.02393118460002
51
88.8537014773
0
LINE
8
CYAN
10
171.0823416028
20
81.49644479720001
30
0.0
11
171.0823416028
21
79.18143401720002
31
0.0
0
ARC
8
CYAN
10
166.3607369551
20
69.93845893640002
30
0.0
40
10.3791203285
50
62.94061450649999
51
95.44941715530001
0
ARC
8
CYAN
10
166.5459993697
20
74.46507966320002
30
0.0
40
5.9224969789
50
101.4030666669
51
166.219383337
0
ARC
8
CYAN
10
167.9640892122
20
73.82496836980002
30
0.0
40
7.457650004
50
164.03778302840004
51
213.12515146160004
0
ARC
8
CYAN
10
167.1036223568
20
73.90368156260001
30
0.0
40
6.8012064285
50
-142.3535265766
51
-81.8363237702
0
ARC
8
CYAN
10
166.0447096474
20
81.2372773232
30
0.0
40
14.2108555949
50
-81.8089025651
51
-68.2950397719
0
LINE
8
CYAN
10
171.30027048280002
20
68.0339634572
30
0.0
11
171.30027048280002
21
65.96320925720002
31
0.0
0
ARC
8
CYAN
10
166.7051618826
20
77.40386481320002
30
0.0
40
12.3289749209
50
-107.4485172761
51
-68.1172710121
0
LINE
8
CYAN
10
130.3052476228
20
381.4347133172
30
0.0
11
130.3052476228
21
365.2113083404
31
0.0
0
ARC
8
CYAN
10
130.2512053172
20
365.1291320988
30
0.0
40
0.0983539805
50
-123.3304818421
51
56.6695181579
0
LINE
8
CYAN
10
130.1971630115
20
365.04695585720003
30
0.0
11
127.78982394280001
21
365.04695585720003
31
0.0
0
LINE
8
CYAN
10
127.78982394280001
20
365.04695585720003
30
0.0
11
127.78982394280001
21
381.4347133172
31
0.0
0
LINE
8
CYAN
10
127.78982394280001
20
381.4347133172
30
0.0
11
130.3052476228
21
381.4347133172
31
0.0
0
LINE
8
CYAN
10
110.69626920280001
20
281.54924633720003
30
0.0
11
110.69626920280001
21
279.2342355572
31
0.0
0
ARC
8
CYAN
10
105.9747309106
20
269.9915583697
30
0.0
40
10.3788248582
50
62.94019261279998
51
95.44963562619999
0
ARC
8
CYAN
10
106.15990292110001
20
274.5178916125
30
0.0
40
5.922471143
50
101.4023367474
51
166.2194257219
0
ARC
8
CYAN
10
107.34914816940001
20
273.8925329752
30
0.0
40
7.2337101419
50
163.6516810091
51
222.3001815532
0
ARC
8
CYAN
10
106.80508543580001
20
274.2145446665
30
0.0
40
7.0738859341
50
-132.7989900276
51
-77.0889234789
0
LINE
8
CYAN
10
108.38566428280001
20
267.31950059720003
30
0.0
11
108.38566428280001
21
271.5000690121
31
0.0
0
ARC
8
CYAN
10
108.31953818410001
20
271.57429785470003
30
0.0
40
0.0994111764
50
311.6959602832
51
491.6959602832
0
LINE
8
CYAN
10
108.25341208540002
20
271.6485266972
30
0.0
11
105.44004716010001
21
271.6485266972
31
0.0
0
ARC
8
CYAN
10
105.37392106140001
20
271.7009333414
30
0.0
40
0.0843748617
50
141.60226481840002
51
321.60226481840004
0
LINE
8
CYAN
10
105.3077949628
20
271.7533399856
30
0.0
11
105.3077949628
21
273.4358690888
31
0.0
0
ARC
8
CYAN
10
105.3861025692
20
273.488275733
30
0.0
40
0.094225992
50
33.79205213979999
51
213.79205213979998
0
LINE
8
CYAN
10
105.46441017560001
20
273.5406823772
30
0.0
11
110.74458020990001
21
273.5406823772
31
0.0
0
ARC
8
CYAN
10
110.82288781630001
20
273.4520385748
30
0.0
40
0.1182785058
50
-48.54274024449995
51
131.45725975550005
0
LINE
8
CYAN
10
110.90119542280001
20
273.3633947724
30
0.0
11
110.90119542280001
21
265.92875327720003
31
0.0
0
ARC
8
CYAN
10
106.25030751140001
20
279.03625707770004
30
0.0
40
13.9081779628
50
-100.74692542670002
51
-70.46397332850002
0
ARC
8
CYAN
10
105.57262244820001
20
273.2581799856
30
0.0
40
8.1155239617
50
177.48199275420006
51
256.3455906585
0
ARC
8
CYAN
10
105.7374357748
20
274.01412098130004
30
0.0
40
8.2821373791
50
87.8444615527
51
182.7641097569
0
ARC
8
CYAN
10
105.7070987002
20
265.20599351830003
30
0.0
40
17.0878241742
50
73.02393118460002
51
88.8537014773
0
LINE
8
CYAN
10
423.6040625
20
28.492527777800007
30
0.0
11
424.4
21
28.600000000000023
31
0.0
0
ARC
8
CYAN
10
424.3969785446
20
25.621290757600008
30
0.0
40
2.9787107748
50
-254.5620653334
51
89.94188201360002
0
LINE
8
CYAN
10
221.9580965428
20
179.6670650972
30
0.0
11
221.9580965428
21
176.1899861521
31
0.0
0
ARC
8
CYAN
10
221.9040888678
20
176.1282482446
30
0.0
40
0.0820268138
50
-131.17909453120004
51
48.82090546879998
0
LINE
8
CYAN
10
221.85008119280002
20
176.06651033720001
30
0.0
11
219.5523001127
21
176.06651033720001
31
0.0
0
ARC
8
CYAN
10
219.4982924377
20
176.1434755844
30
0.0
40
0.0940238174
50
125.20364324120001
51
305.05791813940004
0
LINE
8
CYAN
10
219.4440891856
20
176.2203032207
30
0.0
11
219.43749544000002
21
181.4053204338
31
0.0
0
ARC
8
CYAN
10
219.5159398721
20
181.482316757
30
0.0
40
0.1099179817
50
44.32051447020001
51
224.466239572
0
ARC
8
CYAN
10
221.8090825422
20
121.71580324060001
30
0.0
40
59.8842699126
50
85.1945942136
51
92.11926425080001
0
ARC
8
CYAN
10
226.5588672195
20
177.56011977740002
30
0.0
40
3.8387427794
50
-11.5675336983
51
86.01414074459998
0
ARC
8
CYAN
10
225.34363738000002
20
177.59140993300002
30
0.0
40
5.0400684868
50
-62.23642275129998
51
-9.14511277859999
0
LINE
8
CYAN
10
227.6914233553
20
173.1315678544
30
0.0
11
226.7962681228
21
172.63058429720002
31
0.0
0
LINE
8
CYAN
10
226.7962681228
20
172.63058429720002
30
0.0
11
232.45070586280002
21
165.1713558572
31
0.0
0
LINE
8
CYAN
10
232.45070586280002
20
165.1713558572
30
0.0
11
229.53007948660002
21
165.1713558572
31
0.0
0
ARC
8
CYAN
10
229.4645144047
20
165.3268339145
30
0.0
40
0.1687370921
50
-172.74164729349997
51
-67.13485183069999
0
LINE
8
CYAN
10
229.29712948030001
20
165.30551506540002
30
0.0
11
224.3259254053
21
171.85564110910002
31
0.0
0
ARC
8
CYAN
10
223.936057623
20
171.4543329965
30
0.0
40
0.5595043244
50
45.828433939899995
51
106.85556378740002
0
LINE
8
CYAN
10
223.7738237258
20
171.9898003172
30
0.0
11
222.0786450454
21
171.9898003172
31
0.0
0
ARC
8
CYAN
10
222.01573802410002
20
171.9103969445
30
0.0
40
0.1013024626
50
51.61210801639999
51
231.6121080164
0
LINE
8
CYAN
10
221.9528310028
20
171.83099357170002
30
0.0
11
221.9528310028
21
165.3301626027
31
0.0
0
ARC
8
CYAN
10
221.8987863884
20
165.25075923000003
30
0.0
40
0.0960505905
50
-124.24052418810003
51
55.75947581189997
0
LINE
8
CYAN
10
221.84474177410002
20
165.1713558572
30
0.0
11
219.5453890914
21
165.1713558572
31
0.0
0
ARC
8
CYAN
10
219.4913444771
20
165.2573622891
30
0.0
40
0.1015771956
50
122.14438135439997
51
302.1443813544
0
LINE
8
CYAN
10
219.43729986280002
20
165.34336872100002
30
0.0
11
219.43729986280002
21
173.7416438335
31
0.0
0
ARC
8
CYAN
10
219.5028148396
20
173.8276502654
30
0.0
40
0.1081171518
50
52.14461152140001
51
232.7018406883
0
ARC
8
CYAN
10
221.3531644857
20
208.8634777793
30
0.0
40
34.9959637104
50
-92.9220532552
51
-84.39168994270001
0
ARC
8
CYAN
10
224.3560886079
20
177.3458010505
30
0.0
40
3.3369442237
50
-82.818950921
51
-2.4377624843000016
0
ARC
8
CYAN
10
225.6656428978
20
177.44710300100002
30
0.0
40
2.0389305634
50
-6.8514677947
51
85.12526887300001
0
ARC
8
CYAN
10
222.1580338318
20
143.72261755250003
30
0.0
40
35.9450036057
50
84.12244348699998
51
90.3186985881
0
LINE
8
CYAN
10
339.92209662280004
20
198.48395585720002
30
0.0
11
339.92209662280004
21
214.6629211481
31
0.0
0
ARC
8
CYAN
10
340.0153412593
20
214.7673172327
30
0.0
40
0.1399753718
50
48.2293657794
51
228.22936577939998
0
LINE
8
CYAN
10
340.1085858958
20
214.8717133172
30
0.0
11
350.9955272428
21
214.8717133172
31
0.0
0
LINE
8
CYAN
10
350.9955272428
20
214.8717133172
30
0.0
11
350.9955272428
21
213.084472433
31
0.0
0
ARC
8
CYAN
10
350.9113349446
20
213.0320687651
30
0.0
40
0.0991689845
50
-148.10069761849996
51
31.89930238150004
0
LINE
8
CYAN
10
350.8271426465
20
212.9796650972
30
0.0
11
342.60601235900003
21
212.9796650972
31
0.0
0
ARC
8
CYAN
10
342.52182006090004
20
212.9101464292
30
0.0
40
0.1091841942
50
39.54692745429999
51
219.5469274543
0
LINE
8
CYAN
10
342.4376277628
20
212.8406277613
30
0.0
11
342.4376277628
21
208.1530832932
31
0.0
0
ARC
8
CYAN
10
342.5221081159
20
208.0835646252
30
0.0
40
0.1094064681
50
140.5491224438
51
320.5491224438
0
LINE
8
CYAN
10
342.6065884691
20
208.0140459572
30
0.0
11
349.5230767365
21
208.0140459572
31
0.0
0
ARC
8
CYAN
10
349.6075570897
20
207.96164228930002
30
0.0
40
0.0994136534
50
-31.81157442639999
51
148.1884255736
0
LINE
8
CYAN
10
349.69203744280003
20
207.90923862140002
30
0.0
11
349.69203744280003
21
206.226805073
31
0.0
0
ARC
8
CYAN
10
349.6075570897
20
206.1744014051
30
0.0
40
0.0994136534
50
-148.1884255736
51
31.81157442639999
0
LINE
8
CYAN
10
349.5230767365
20
206.12199773720002
30
0.0
11
342.6065884691
21
206.12199773720002
31
0.0
0
ARC
8
CYAN
10
342.5221081159
20
206.041553826
30
0.0
40
0.116653988
50
43.5979932777
51
223.5979932777
0
LINE
8
CYAN
10
342.4376277628
20
205.9611099148
30
0.0
11
342.4376277628
21
200.5368918997
31
0.0
0
ARC
8
CYAN
10
342.52761027680003
20
200.45644798840001
30
0.0
40
0.1206982837
50
138.20344739009997
51
318.2034473901
0
LINE
8
CYAN
10
342.6175927909
20
200.3760040772
30
0.0
11
351.5840856628
21
200.3760040772
31
0.0
0
LINE
8
CYAN
10
351.5840856628
20
200.3760040772
30
0.0
11
351.5840856628
21
198.48395585720002
31
0.0
0
LINE
8
CYAN
10
351.5840856628
20
198.48395585720002
30
0.0
11
339.92209662280004
21
198.48395585720002
31
0.0
0
LINE
8
CYAN
10
218.35152402280002
20
98.5461558572
30
0.0
11
218.35152402280002
21
99.69352037550001
31
0.0
0
ARC
8
CYAN
10
219.575298476
20
100.01345855860001
30
0.0
40
1.2649048791
50
124.9177320649
51
194.65123365579998
0
LINE
8
CYAN
10
218.8512673418
20
101.0506486424
30
0.0
11
228.63587586280002
21
113.04186509720002
31
0.0
0
LINE
8
CYAN
10
228.63587586280002
20
113.04186509720002
30
0.0
11
218.97930534280002
21
113.04186509720002
31
0.0
0
LINE
8
CYAN
10
218.97930534280002
20
113.04186509720002
30
0.0
11
218.97930534280002
21
114.93391331720001
31
0.0
0
LINE
8
CYAN
10
218.97930534280002
20
114.93391331720001
30
0.0
11
231.48259872280002
21
114.93391331720001
31
0.0
0
LINE
8
CYAN
10
231.48259872280002
20
114.93391331720001
30
0.0
11
231.48259872280002
21
113.78654879900002
31
0.0
0
ARC
8
CYAN
10
230.25789212450002
20
113.46661061610001
30
0.0
40
1.2658067359
50
-55.023832433299994
51
14.640561620000005
0
LINE
8
CYAN
10
230.9834976802
20
112.42942053210001
30
0.0
11
221.2114644628
21
100.43820407720001
31
0.0
0
LINE
8
CYAN
10
221.2114644628
20
100.43820407720001
30
0.0
11
231.40829837450002
21
100.43820407720001
31
0.0
0
ARC
8
CYAN
10
231.4956323687
20
100.38580040930002
30
0.0
40
0.1018497469
50
-30.96533460910002
51
149.0346653909
0
LINE
8
CYAN
10
231.58296636280002
20
100.33339674140001
30
0.0
11
231.58296636280002
21
98.5461558572
31
0.0
0
LINE
8
CYAN
10
231.58296636280002
20
98.5461558572
30
0.0
11
218.35152402280002
21
98.5461558572
31
0.0
0
LINE
8
CYAN
10
423.6040625
20
427.29252777780005
30
0.0
11
424.4
21
427.4
31
0.0
0
ARC
8
CYAN
10
424.3969785446
20
424.4212907576
30
0.0
40
2.9787107748
50
-254.5620653335
51
89.94188201360002
0
LINE
8
CYAN
10
311.8139993428
20
383.8716911972
30
0.0
11
311.8139993428
21
385.9595970158
31
0.0
0
ARC
8
CYAN
10
311.8752188035
20
386.02081647650004
30
0.0
40
0.0865773916
50
45.0
51
225.0
0
LINE
8
CYAN
10
311.9364382642
20
386.0820359372
30
0.0
11
313.9019051613
21
386.0820359372
31
0.0
0
ARC
8
CYAN
10
313.963124622
20
386.02081647650004
30
0.0
40
0.0865773916
50
-44.99999997660002
51
135.00000002339996
0
LINE
8
CYAN
10
314.0243440828
20
385.9595970158
30
0.0
11
314.0243440828
21
383.9941301187
31
0.0
0
ARC
8
CYAN
10
313.963124622
20
383.93291065790004
30
0.0
40
0.0865773917
50
-135.0
51
45.0
0
LINE
8
CYAN
10
313.9019051613
20
383.8716911972
30
0.0
11
311.8139993428
21
383.8716911972
31
0.0
0
LINE
8
CYAN
10
309.8848774228
20
231.79655585720002
30
0.0
11
309.8848774228
21
248.1843133172
31
0.0
0
LINE
8
CYAN
10
309.8848774228
20
248.1843133172
30
0.0
11
312.4004085628
21
248.1843133172
31
0.0
0
LINE
8
CYAN
10
312.4004085628
20
248.1843133172
30
0.0
11
312.4004085628
21
233.8732901505
31
0.0
0
ARC
8
CYAN
10
312.4872596874
20
233.7809471139
30
0.0
40
0.126768901
50
133.2445582363
51
313.2445582363
0
LINE
8
CYAN
10
312.5741108121
20
233.6886040772
30
0.0
11
321.0548676934
21
233.6886040772
31
0.0
0
ARC
8
CYAN
10
321.1417188181
20
233.63620040930002
30
0.0
40
0.1014360009
50
-31.105668449099937
51
148.89433155090006
0
LINE
8
CYAN
10
321.2285699428
20
233.58379674140002
30
0.0
11
321.2285699428
21
231.79655585720002
31
0.0
0
LINE
8
CYAN
10
321.2285699428
20
231.79655585720002
30
0.0
11
309.8848774228
21
231.79655585720002
31
0.0
0
LINE
8
CYAN
10
108.9045886228
20
381.4478234372
30
0.0
11
108.9045886228
21
379.2635914772
31
0.0
0
ARC
8
CYAN
10
103.89899610980001
20
367.8105334291
30
0.0
40
12.4991397728
50
66.3921260607
51
94.4423188932
0
ARC
8
CYAN
10
103.1639503976
20
377.238809048
30
0.0
40
3.0422562329
50
94.3939866347
51
136.98264457629998
0
ARC
8
CYAN
10
102.8266247291
20
378.092095697
30
0.0
40
2.2482406792
50
147.0692144152
51
251.40260118140003
0
ARC
8
CYAN
10
-22.312477939800004
20
37.79051232360001
30
0.0
40
360.3336071344
50
68.8342458759
51
69.8000751364
0
ARC
8
CYAN
10
105.97001933230001
20
369.92016196910004
30
0.0
40
4.3008536126
50
-54.7666608967
51
64.93311581509998
0
ARC
8
CYAN
10
103.7573926798
20
373.8137545806
30
0.0
40
8.7686513605
50
-91.17780676940001
51
-57.636026261200016
0
ARC
8
CYAN
10
104.95221855880001
20
390.36739605959997
30
0.0
40
25.3577503145
50
-105.6842248574
51
-93.10848524879998
0
LINE
8
CYAN
10
98.09712150280001
20
365.95381079720005
30
0.0
11
98.09712150280001
21
368.44742009720005
31
0.0
0
ARC
8
CYAN
10
104.7196086998
20
381.85245284940004
30
0.0
40
14.9516634446
50
-116.2907497074
51
-94.09732570490002
0
ARC
8
CYAN
10
103.9566158658
20
371.924458747
30
0.0
40
4.9947949522
50
-93.5045035432
51
-52.03775421539999
0
ARC
8
CYAN
10
105.58379264690001
20
369.5888675
30
0.0
40
2.1579217028
50
-47.9499467953
51
69.72528173269998
0
ARC
8
CYAN
10
-177.04157980300002
20
-318.99813515750003
30
0.0
40
746.4879090597
50
67.690566978
51
68.1391511287
0
ARC
8
CYAN
10
102.6599482711
20
378.1360479102
30
0.0
40
4.6638892789
50
-154.3633350705
51
-111.95862498629998
0
ARC
8
CYAN
10
102.75534477720001
20
377.6261162272
30
0.0
40
4.5568913594
50
131.9321179501
51
199.32453273330006
0
ARC
8
CYAN
10
103.6019652586
20
375.4197832619
30
0.0
40
6.816538992
50
87.2023608382
51
124.8150526952
0
ARC
8
CYAN
10
103.37233992230001
20
362.43094487580004
30
0.0
40
19.8052378401
50
73.7796233962
51
88.37297925849998
0
LINE
8
CYAN
10
128.5483840828
20
65.0563543172
30
0.0
11
128.5483840828
21
81.23531960810001
31
0.0
0
ARC
8
CYAN
10
128.6416287193
20
81.3397156927
30
0.0
40
0.1399753718
50
48.2293657794
51
228.22936577939998
0
LINE
8
CYAN
10
128.7348733558
20
81.44411177720002
30
0.0
11
139.6218147028
21
81.44411177720002
31
0.0
0
LINE
8
CYAN
10
139.6218147028
20
81.44411177720002
30
0.0
11
139.6218147028
21
79.65687089300002
31
0.0
0
ARC
8
CYAN
10
139.53762240470002
20
79.60446722510002
30
0.0
40
0.0991689845
50
-148.10069761849996
51
31.89930238150004
0
LINE
8
CYAN
10
139.4534301065
20
79.5520635572
30
0.0
11
131.232299819
21
79.5520635572
31
0.0
0
ARC
8
CYAN
10
131.1481075209
20
79.4825448892
30
0.0
40
0.1091841942
50
39.54692745429999
51
219.5469274543
0
LINE
8
CYAN
10
131.0639152228
20
79.41302622130002
30
0.0
11
131.0639152228
21
74.7254817532
31
0.0
0
ARC
8
CYAN
10
131.1483955759
20
74.6559630852
30
0.0
40
0.1094064681
50
140.5491224438
51
320.5491224438
0
LINE
8
CYAN
10
131.2328759291
20
74.5864444172
30
0.0
11
138.14936419650002
21
74.5864444172
31
0.0
0
ARC
8
CYAN
10
138.2338445496
20
74.5340407493
30
0.0
40
0.0994136534
50
-31.81157442639999
51
148.1884255736
0
LINE
8
CYAN
10
138.31832490280001
20
74.48163708140001
30
0.0
11
138.31832490280001
21
72.79920353300002
31
0.0
0
ARC
8
CYAN
10
138.2338445496
20
72.7467998651
30
0.0
40
0.0994136534
50
-148.1884255736
51
31.81157442639999
0
LINE
8
CYAN
10
138.14936419650002
20
72.6943961972
30
0.0
11
131.2328759291
21
72.6943961972
31
0.0
0
ARC
8
CYAN
10
131.1483955759
20
72.613952286
30
0.0
40
0.116653988
50
43.5979932777
51
223.5979932777
0
LINE
8
CYAN
10
131.0639152228
20
72.53350837480002
30
0.0
11
131.0639152228
21
67.1092903597
31
0.0
0
ARC
8
CYAN
10
131.1538977369
20
67.0288464484
30
0.0
40
0.1206982837
50
138.20344739009997
51
318.2034473901
0
LINE
8
CYAN
10
131.24388025090002
20
66.94840253720002
30
0.0
11
140.2103731228
21
66.94840253720002
31
0.0
0
LINE
8
CYAN
10
140.2103731228
20
66.94840253720002
30
0.0
11
140.2103731228
21
65.0563543172
31
0.0
0
LINE
8
CYAN
10
140.2103731228
20
65.0563543172
30
0.0
11
128.5483840828
21
65.0563543172
31
0.0
0
LINE
8
CYAN
10
309.6298748428
20
81.84085409720001
30
0.0
11
312.1454059828
21
81.84085409720001
31
0.0
0
ARC
8
CYAN
10
597.9024076217
20
77.23499909880002
30
0.0
40
285.7941180044
50
179.07658184489998
51
181.26882985439997
0
ARC
8
CYAN
10
317.1022234533
20
70.8719176685
30
0.0
40
4.9239798636
50
179.59722492520004
51
220.17046086880003
0
ARC
8
CYAN
10
315.6927422524
20
70.972771206
30
0.0
40
4.0344225921
50
-125.6793889351
51
-54.32061106489999
0
ARC
8
CYAN
10
314.40391611710004
20
70.89670875910002
30
0.0
40
4.8487415294
50
-41.31407690820001
51
0.5843517298999971
0
ARC
8
CYAN
10
-1393.0573825159001
20
81.74358017280002
30
0.0
40
1712.3438306417
50
-0.36128884879999995
51
0.003254828400000035
0
LINE
8
CYAN
10
319.2864453628
20
81.84085409720001
30
0.0
11
321.4836799828
21
81.84085409720001
31
0.0
0
ARC
8
CYAN
10
137.610546172
20
77.82587817340001
30
0.0
40
183.9169632445
50
-2.3956774445
51
1.2508876112
0
ARC
8
CYAN
10
315.9558622916
20
70.46925878670001
30
0.0
40
5.4210256658
50
-93.1366144311
51
-3.5022757224000074
0
ARC
8
CYAN
10
315.2644339702
20
70.9845522475
30
0.0
40
5.9413300628
50
-134.4544109004
51
-86.1898379786
0
ARC
8
CYAN
10
316.991781557
20
71.09097734470001
30
0.0
40
7.3192895013
50
-176.1566423049
51
-143.5611955794
0
ARC
8
CYAN
10
1360.4370370983
20
81.74332321140002
30
0.0
40
1050.8071667817
50
179.9946820803
51
180.6075862464
0
LINE
8
CYAN
10
130.3052476228
20
373.39992911720003
30
0.0
11
136.7259220695
21
380.9227106827
31
0.0
0
ARC
8
CYAN
10
137.7657716205
20
380.3607461581
30
0.0
40
1.1819861318
50
114.6857169174
51
151.61194055189998
0
LINE
8
CYAN
10
137.2721262449
20
381.4347133172
30
0.0
11
139.7045589028
21
381.4347133172
31
0.0
0
LINE
8
CYAN
10
139.7045589028
20
381.4347133172
30
0.0
11
133.2024198958
21
373.83529081020004
31
0.0
0
ARC
8
CYAN
10
133.23037937910001
20
373.6986321891
30
0.0
40
0.139489467
50
101.56278016609998
51
267.26014284599995
0
LINE
8
CYAN
10
133.2237116005
20
373.5593021775
30
0.0
11
140.9688258028
21
365.04695585720003
31
0.0
0
LINE
8
CYAN
10
140.9688258028
20
365.04695585720003
30
0.0
11
138.4270912134
21
365.04695585720003
31
0.0
0
ARC
8
CYAN
10
138.2564655119
20
365.6677130743
30
0.0
40
0.6437799722
50
-131.7784914942
51
-74.63083119720001
0
LINE
8
CYAN
10
137.82754544710002
20
365.187629508
30
0.0
11
130.3052476228
21
373.39992911720003
31
0.0
0
LINE
8
CYAN
10
279.5294691628
20
165.1713558572
30
0.0
11
279.5294691628
21
181.35032114810002
31
0.0
0
ARC
8
CYAN
10
279.6276697987
20
181.4547172327
30
0.0
40
0.1433244828
50
46.75157064370001
51
226.7515706437
0
LINE
8
CYAN
10
279.7258704347
20
181.5591133172
30
0.0
11
291.1914582028
21
181.5591133172
31
0.0
0
LINE
8
CYAN
10
291.1914582028
20
181.5591133172
30
0.0
11
291.1914582028
21
179.6670650972
31
0.0
0
LINE
8
CYAN
10
291.1914582028
20
179.6670650972
30
0.0
11
282.2249653309
21
179.6670650972
31
0.0
0
ARC
8
CYAN
10
282.1349828168
20
179.58808651060002
30
0.0
40
0.1197266469
50
41.27376088130001
51
221.27376088130003
0
LINE
8
CYAN
10
282.0450003028
20
179.50910792390002
30
0.0
11
282.0450003028
21
174.18369465060002
31
0.0
0
ARC
8
CYAN
10
282.13587662500004
20
174.1047160639
30
0.0
40
0.1203998468
50
139.00682206990004
51
319.00682206989995
0
LINE
8
CYAN
10
282.2267529473
20
174.0257374772
30
0.0
11
289.8486380428
21
174.0257374772
31
0.0
0
LINE
8
CYAN
10
289.8486380428
20
174.0257374772
30
0.0
11
289.8486380428
21
172.1335817972
31
0.0
0
LINE
8
CYAN
10
289.8486380428
20
172.1335817972
30
0.0
11
282.2267529473
21
172.1335817972
31
0.0
0
ARC
8
CYAN
10
282.13587662500004
20
172.05250403460002
30
0.0
40
0.1217871485
50
41.738608265900005
51
221.73860826589998
0
LINE
8
CYAN
10
282.0450003028
20
171.971426272
30
0.0
11
282.0450003028
21
165.3335113825
31
0.0
0
ARC
8
CYAN
10
281.9909556884
20
165.2524336198
30
0.0
40
0.0974393346
50
-123.68653145479996
51
56.31346854520003
0
LINE
8
CYAN
10
281.9369110741
20
165.1713558572
30
0.0
11
279.5294691628
21
165.1713558572
31
0.0
0
LINE
8
CYAN
10
369.2747956228
20
265.1091558572
30
0.0
11
369.2747956228
21
281.4969133172
31
0.0
0
LINE
8
CYAN
10
369.2747956228
20
281.4969133172
30
0.0
11
372.1703284099
21
281.4969133172
31
0.0
0
ARC
8
CYAN
10
372.2353301663
20
281.3779170387
30
0.0
40
0.1355925612
50
-22.0819355395
51
118.64558808879997
0
ARC
8
CYAN
10
666.9359134659001
20
381.60648870370005
30
0.0
40
311.1758033782
50
-161.20033869859998
51
-159.2587985969
0
LINE
8
CYAN
10
375.9275367628
20
271.4043775772
30
0.0
11
379.40786730950003
21
281.32694343910003
31
0.0
0
ARC
8
CYAN
10
379.5352955404
20
281.3776883105
30
0.0
40
0.1371604754
50
60.37013399740002
51
201.7135919153
0
LINE
8
CYAN
10
379.6031069981
20
281.4969133172
30
0.0
11
382.6237992028
21
281.4969133172
31
0.0
0
LINE
8
CYAN
10
382.6237992028
20
281.4969133172
30
0.0
11
382.6237992028
21
265.1091558572
31
0.0
0
LINE
8
CYAN
10
382.6237992028
20
265.1091558572
30
0.0
11
380.5661551228
21
265.1091558572
31
0.0
0
ARC
8
CYAN
10
-64.81041130269998
20
271.3108655278
30
0.0
40
445.4197426291
50
-0.7977717141000001
51
1.0114097712
0
LINE
8
CYAN
10
380.5399348828
20
279.1731982772
30
0.0
11
376.9095809805
21
268.7492163273
31
0.0
0
ARC
8
CYAN
10
376.7887107074
20
268.6912034214
30
0.0
40
0.134071325
50
-115.9575264147
51
25.639146821299992
0
LINE
8
CYAN
10
376.73002705199997
20
268.5706573772
30
0.0
11
374.84597285350003
21
268.5706573772
31
0.0
0
ARC
8
CYAN
10
374.7872891981
20
268.6894539826
30
0.0
40
0.1325005843
50
155.58448776369997
51
296.2886478401
0
ARC
8
CYAN
10
66.27707280730002
20
163.56754985930002
30
0.0
40
325.8316382457
50
18.832011205
51
20.7255446546
0
LINE
8
CYAN
10
371.0229549028
20
278.8767161372
30
0.0
11
371.0229549028
21
265.1091558572
31
0.0
0
LINE
8
CYAN
10
371.0229549028
20
265.1091558572
30
0.0
11
369.2747956228
21
265.1091558572
31
0.0
0
LINE
8
CYAN
10
158.9037923428
20
365.04695585720003
30
0.0
11
158.9037923428
21
366.8341967414
31
0.0
0
ARC
8
CYAN
10
158.9793681205
20
366.8866004093
30
0.0
40
0.0919665297
50
34.73714401569999
51
214.7371440157
0
LINE
8
CYAN
10
159.0549438983
20
366.9390040772
30
0.0
11
163.1602201472
21
366.9390040772
31
0.0
0
ARC
8
CYAN
10
163.235795925
20
367.0308674958
30
0.0
40
0.1189562351
50
230.55596424829997
51
410.5559642483
0
LINE
8
CYAN
10
163.3113717028
20
367.1227309143
30
0.0
11
163.3113717028
21
379.35893826020003
31
0.0
0
ARC
8
CYAN
10
163.235795925
20
379.45080167870003
30
0.0
40
0.118956235
50
309.444035767
51
489.4440357670001
0
LINE
8
CYAN
10
163.1602201472
20
379.54266509720003
30
0.0
11
159.0549438983
21
379.54266509720003
31
0.0
0
ARC
8
CYAN
10
158.9793681205
20
379.5950687651
30
0.0
40
0.0919665297
50
145.2628559843
51
325.2628559843001
0
LINE
8
CYAN
10
158.9037923428
20
379.647472433
30
0.0
11
158.9037923428
21
381.4347133172
31
0.0
0
LINE
8
CYAN
10
158.9037923428
20
381.4347133172
30
0.0
11
170.2474848628
21
381.4347133172
31
0.0
0
LINE
8
CYAN
10
170.2474848628
20
381.4347133172
30
0.0
11
170.2474848628
21
379.647472433
31
0.0
0
ARC
8
CYAN
10
170.171909085
20
379.5950687651
30
0.0
40
0.0919665298
50
-145.262856002
51
34.73714399799999
0
LINE
8
CYAN
10
170.0963333072
20
379.54266509720003
30
0.0
11
165.99105705830002
21
379.54266509720003
31
0.0
0
ARC
8
CYAN
10
165.9154812806
20
379.45080167870003
30
0.0
40
0.118956235
50
50.55596425160002
51
230.55596425160002
0
LINE
8
CYAN
10
165.8399055028
20
379.35893826020003
30
0.0
11
165.8399055028
21
367.1227309143
31
0.0
0
ARC
8
CYAN
10
165.9154812806
20
367.0308674958
30
0.0
40
0.118956235
50
129.4440357331
51
309.44403573310007
0
LINE
8
CYAN
10
165.99105705830002
20
366.9390040772
30
0.0
11
170.0963333072
21
366.9390040772
31
0.0
0
ARC
8
CYAN
10
170.171909085
20
366.8866004093
30
0.0
40
0.0919665298
50
-34.73714399799999
51
145.26285600200006
0
LINE
8
CYAN
10
170.2474848628
20
366.8341967414
30
0.0
11
170.2474848628
21
365.04695585720003
31
0.0
0
LINE
8
CYAN
10
170.2474848628
20
365.04695585720003
30
0.0
11
158.9037923428
21
365.04695585720003
31
0.0
0
LINE
8
CYAN
10
188.1560162428
20
331.7343558572
30
0.0
11
188.1560162428
21
332.8817203755
31
0.0
0
ARC
8
CYAN
10
189.37979069600001
20
333.2016585586
30
0.0
40
1.2649048791
50
124.9177320649
51
194.65123365579998
0
LINE
8
CYAN
10
188.6557595618
20
334.2388486424
30
0.0
11
198.4403680828
21
346.2300650972
31
0.0
0
LINE
8
CYAN
10
198.4403680828
20
346.2300650972
30
0.0
11
188.7837975628
21
346.2300650972
31
0.0
0
LINE
8
CYAN
10
188.7837975628
20
346.2300650972
30
0.0
11
188.7837975628
21
348.12211331720005
31
0.0
0
LINE
8
CYAN
10
188.7837975628
20
348.12211331720005
30
0.0
11
201.2870909428
21
348.12211331720005
31
0.0
0
LINE
8
CYAN
10
201.2870909428
20
348.12211331720005
30
0.0
11
201.2870909428
21
346.974748799
31
0.0
0
ARC
8
CYAN
10
200.0623843445
20
346.6548106161
30
0.0
40
1.2658067359
50
-55.023832433299994
51
14.640561620000005
0
LINE
8
CYAN
10
200.78798990020002
20
345.6176205321
30
0.0
11
191.0159566828
21
333.6264040772
31
0.0
0
LINE
8
CYAN
10
191.0159566828
20
333.6264040772
30
0.0
11
201.2127905945
21
333.6264040772
31
0.0
0
ARC
8
CYAN
10
201.3001245886
20
333.5740004093
30
0.0
40
0.1018497469
50
-30.96533460910002
51
149.0346653909
0
LINE
8
CYAN
10
201.3874585828
20
333.5215967414
30
0.0
11
201.3874585828
21
331.7343558572
31
0.0
0
LINE
8
CYAN
10
201.3874585828
20
331.7343558572
30
0.0
11
188.1560162428
21
331.7343558572
31
0.0
0
LINE
8
CYAN
10
128.5483840828
20
298.19995841720004
30
0.0
11
128.5483840828
21
314.37892370810005
31
0.0
0
ARC
8
CYAN
10
128.6416287193
20
314.4833197926
30
0.0
40
0.1399753718
50
48.2293657794
51
228.22936577939998
0
LINE
8
CYAN
10
128.7348733558
20
314.5877158772
30
0.0
11
139.6218147028
21
314.5877158772
31
0.0
0
LINE
8
CYAN
10
139.6218147028
20
314.5877158772
30
0.0
11
139.6218147028
21
312.800474993
31
0.0
0
ARC
8
CYAN
10
139.53762240470002
20
312.7480713251
30
0.0
40
0.0991689845
50
-148.10069761849996
51
31.89930238150004
0
LINE
8
CYAN
10
139.4534301065
20
312.69566765720003
30
0.0
11
131.232299819
21
312.69566765720003
31
0.0
0
ARC
8
CYAN
10
131.1481075209
20
312.62614898920003
30
0.0
40
0.1091841942
50
39.54692745429999
51
219.5469274543
0
LINE
8
CYAN
10
131.0639152228
20
312.5566303213
30
0.0
11
131.0639152228
21
307.8690858532
31
0.0
0
ARC
8
CYAN
10
131.1483955759
20
307.7995671852
30
0.0
40
0.1094064681
50
140.5491224439
51
320.5491224439
0
LINE
8
CYAN
10
131.2328759291
20
307.73004851720003
30
0.0
11
138.14936419650002
21
307.73004851720003
31
0.0
0
ARC
8
CYAN
10
138.2338445496
20
307.6776448493
30
0.0
40
0.0994136534
50
-31.81157442639999
51
148.1884255736
0
LINE
8
CYAN
10
138.31832490280001
20
307.62524118140004
30
0.0
11
138.31832490280001
21
305.94280763300003
31
0.0
0
ARC
8
CYAN
10
138.2338445496
20
305.8904039651
30
0.0
40
0.0994136534
50
-148.1884255736
51
31.81157442639999
0
LINE
8
CYAN
10
138.14936419650002
20
305.8380002972
30
0.0
11
131.2328759291
21
305.8380002972
31
0.0
0
ARC
8
CYAN
10
131.1483955759
20
305.75755638600003
30
0.0
40
0.116653988
50
43.5979932777
51
223.5979932777
0
LINE
8
CYAN
10
131.0639152228
20
305.6771124748
30
0.0
11
131.0639152228
21
300.25289445970003
31
0.0
0
ARC
8
CYAN
10
131.1538977369
20
300.1724505485
30
0.0
40
0.1206982837
50
138.20344739009997
51
318.2034473901
0
LINE
8
CYAN
10
131.24388025090002
20
300.09200663720003
30
0.0
11
140.2103731228
21
300.09200663720003
31
0.0
0
LINE
8
CYAN
10
140.2103731228
20
300.09200663720003
30
0.0
11
140.2103731228
21
298.19995841720004
31
0.0
0
LINE
8
CYAN
10
140.2103731228
20
298.19995841720004
30
0.0
11
128.5483840828
21
298.19995841720004
31
0.0
0
LINE
8
CYAN
10
188.7816483628
20
198.48395585720002
30
0.0
11
188.7816483628
21
214.92404633720002
31
0.0
0
LINE
8
CYAN
10
188.7816483628
20
214.92404633720002
30
0.0
11
191.0260786002
21
214.92404633720002
31
0.0
0
ARC
8
CYAN
10
191.0918875115
20
214.76106727200002
30
0.0
40
0.1757640137
50
-3.5128046621000033
51
111.9882410798
0
ARC
8
CYAN
10
641.2019903423001
20
491.40546602390003
30
0.0
40
528.1848998705
50
-148.4135343244
51
-146.9054706923
0
LINE
8
CYAN
10
198.7040749228
20
203.0049055172
30
0.0
11
198.7040749228
21
214.92404633720002
31
0.0
0
LINE
8
CYAN
10
198.7040749228
20
214.92404633720002
30
0.0
11
200.7618264628
21
214.92404633720002
31
0.0
0
LINE
8
CYAN
10
200.7618264628
20
214.92404633720002
30
0.0
11
200.7618264628
21
198.48395585720002
31
0.0
0
LINE
8
CYAN
10
200.7618264628
20
198.48395585720002
30
0.0
11
198.5669318391
21
198.48395585720002
31
0.0
0
ARC
8
CYAN
10
198.502575361
20
198.64687398680002
30
0.0
40
0.1751686993
50
176.01778360749998
51
291.5551811003
0
ARC
8
CYAN
10
-311.22384615
20
-116.00523148489998
30
0.0
40
598.8793812578
50
31.6966416026
51
33.0372872303
0
LINE
8
CYAN
10
190.82628978280002
20
210.4946525972
30
0.0
11
190.82628978280002
21
198.48395585720002
31
0.0
0
LINE
8
CYAN
10
190.82628978280002
20
198.48395585720002
30
0.0
11
188.7816483628
21
198.48395585720002
31
0.0
0
LINE
8
CYAN
10
249.3160155628
20
231.79655585720002
30
0.0
11
246.8790376828
21
248.1843133172
31
0.0
0
LINE
8
CYAN
10
246.8790376828
20
248.1843133172
30
0.0
11
249.0239392828
21
248.1843133172
31
0.0
0
ARC
8
CYAN
10
729.5408027196
20
312.9240515084
30
0.0
40
484.8584223753
50
-172.3267807376
51
-170.70001928100004
0
LINE
8
CYAN
10
251.0554705828
20
234.5692387772
30
0.0
11
253.3786139375
21
244.5518139812
31
0.0
0
ARC
8
CYAN
10
253.4855448627
20
244.61705843570002
30
0.0
40
0.1252639677
50
57.59103409859999
51
211.38966925169996
0
LINE
8
CYAN
10
253.5526812026
20
244.72281179720002
30
0.0
11
255.7081110629
21
244.72281179720002
31
0.0
0
ARC
8
CYAN
10
255.7752474028
20
244.6184535387
30
0.0
40
0.1240884131
50
-31.085933219400005
51
122.75421438629999
0
ARC
8
CYAN
10
487.72886158920005
20
293.9521480811
30
0.0
40
237.0513252207
50
-167.97231763999997
51
-165.53060439480004
0
LINE
8
CYAN
10
258.1965099628
20
234.7218319772
30
0.0
11
260.3021886628
21
248.1843133172
31
0.0
0
LINE
8
CYAN
10
260.3021886628
20
248.1843133172
30
0.0
11
262.2160512628
21
248.1843133172
31
0.0
0
LINE
8
CYAN
10
262.2160512628
20
248.1843133172
30
0.0
11
259.5218141428
21
231.79655585720002
31
0.0
0
LINE
8
CYAN
10
259.5218141428
20
231.79655585720002
30
0.0
11
256.905807483
21
231.79655585720002
31
0.0
0
ARC
8
CYAN
10
256.8470808029
20
231.91017664900002
30
0.0
40
0.1279003803
50
143.76189527620005
51
297.33288762300003
0
ARC
8
CYAN
10
-31.714062955999992
20
168.4326855211
30
0.0
40
295.376039244
50
12.424912300700003
51
14.304708322300002
0
LINE
8
CYAN
10
254.5039694428
20
241.4137960172
30
0.0
11
252.2730651421
21
231.9857839622
31
0.0
0
ARC
8
CYAN
10
252.1657206476
20
231.9112727346
30
0.0
40
0.1306704386
50
-118.60874011290001
51
34.7657446184
0
LINE
8
CYAN
10
252.1031522725
20
231.79655585720002
30
0.0
11
249.3160155628
21
231.79655585720002
31
0.0
0
LINE
8
CYAN
10
314.2903075828
20
298.19995841720004
30
0.0
11
314.2903075828
21
312.510981584
31
0.0
0
ARC
8
CYAN
10
314.2021744787
20
312.6033246206
30
0.0
40
0.1276506187
50
313.6637146234
51
493.66371462340004
0
LINE
8
CYAN
10
314.1140413746
20
312.69566765720003
30
0.0
11
307.9950858628
21
312.69566765720003
31
0.0
0
LINE
8
CYAN
10
307.9950858628
20
312.69566765720003
30
0.0
11
307.9950858628
21
314.5877158772
31
0.0
0
LINE
8
CYAN
10
307.9950858628
20
314.5877158772
30
0.0
11
323.1184689628
21
314.5877158772
31
0.0
0
LINE
8
CYAN
10
323.1184689628
20
314.5877158772
30
0.0
11
323.1184689628
21
312.69566765720003
31
0.0
0
LINE
8
CYAN
10
323.1184689628
20
312.69566765720003
30
0.0
11
316.995230955
21
312.69566765720003
31
0.0
0
ARC
8
CYAN
10
316.9070361689
20
312.6033246206
30
0.0
40
0.1276932132
50
46.3162639739
51
226.3162639739
0
LINE
8
CYAN
10
316.8188413828
20
312.510981584
30
0.0
11
316.8188413828
21
298.19995841720004
31
0.0
0
LINE
8
CYAN
10
316.8188413828
20
298.19995841720004
30
0.0
11
314.2903075828
21
298.19995841720004
31
0.0
0
LINE
8
CYAN
10
130.39347228280002
20
179.6670650972
30
0.0
11
130.39347228280002
21
176.1899861521
31
0.0
0
ARC
8
CYAN
10
130.3394646078
20
176.1282482446
30
0.0
40
0.0820268138
50
-131.17909453120004
51
48.82090546879998
0
LINE
8
CYAN
10
130.2854569328
20
176.06651033720001
30
0.0
11
127.98767585270001
21
176.06651033720001
31
0.0
0
ARC
8
CYAN
10
127.93366817770001
20
176.1434755844
30
0.0
40
0.0940238174
50
125.20364324120001
51
305.05791813940004
0
LINE
8
CYAN
10
127.8794649256
20
176.2203032207
30
0.0
11
127.87287118
21
181.4053204338
31
0.0
0
ARC
8
CYAN
10
127.9513156121
20
181.482316757
30
0.0
40
0.1099179817
50
44.32051447020001
51
224.466239572
0
ARC
8
CYAN
10
130.24445828220001
20
121.71580324060001
30
0.0
40
59.8842699126
50
85.1945942136
51
92.11926425080001
0
ARC
8
CYAN
10
134.9942429595
20
177.56011977740002
30
0.0
40
3.8387427794
50
-11.5675336983
51
86.01414074459998
0
ARC
8
CYAN
10
133.77901312
20
177.59140993300002
30
0.0
40
5.0400684868
50
-62.23642275129998
51
-9.14511277859999
0
LINE
8
CYAN
10
136.12679909530002
20
173.1315678544
30
0.0
11
135.2316438628
21
172.63058429720002
31
0.0
0
LINE
8
CYAN
10
135.2316438628
20
172.63058429720002
30
0.0
11
140.8860816028
21
165.1713558572
31
0.0
0
LINE
8
CYAN
10
140.8860816028
20
165.1713558572
30
0.0
11
137.9654552266
21
165.1713558572
31
0.0
0
ARC
8
CYAN
10
137.8998901447
20
165.3268339145
30
0.0
40
0.1687370921
50
-172.74164729349997
51
-67.13485183069999
0
LINE
8
CYAN
10
137.73250522030003
20
165.30551506540002
30
0.0
11
132.76130114530002
21
171.85564110910002
31
0.0
0
ARC
8
CYAN
10
132.371433363
20
171.4543329965
30
0.0
40
0.5595043244
50
45.828433939899995
51
106.85556378740002
0
LINE
8
CYAN
10
132.2091994658
20
171.9898003172
30
0.0
11
130.51402078540002
21
171.9898003172
31
0.0
0
ARC
8
CYAN
10
130.4511137641
20
171.9103969445
30
0.0
40
0.1013024626
50
51.61210801639999
51
231.6121080164
0
LINE
8
CYAN
10
130.3882067428
20
171.83099357170002
30
0.0
11
130.3882067428
21
165.3301626027
31
0.0
0
ARC
8
CYAN
10
130.3341621284
20
165.25075923000003
30
0.0
40
0.0960505905
50
-124.24052418810003
51
55.75947581189997
0
LINE
8
CYAN
10
130.28011751410003
20
165.1713558572
30
0.0
11
127.98076483140001
21
165.1713558572
31
0.0
0
ARC
8
CYAN
10
127.92672021710001
20
165.2573622891
30
0.0
40
0.1015771956
50
122.14438135439997
51
302.1443813544
0
LINE
8
CYAN
10
127.8726756028
20
165.34336872100002
30
0.0
11
127.8726756028
21
173.7416438335
31
0.0
0
ARC
8
CYAN
10
127.9381905796
20
173.8276502654
30
0.0
40
0.1081171518
50
52.14461152140001
51
232.7018406883
0
ARC
8
CYAN
10
129.7885402257
20
208.8634777793
30
0.0
40
34.9959637104
50
-92.9220532552
51
-84.39168994270001
0
ARC
8
CYAN
10
132.7914643479
20
177.3458010505
30
0.0
40
3.3369442237
50
-82.818950921
51
-2.4377624843000016
0
ARC
8
CYAN
10
134.1010186378
20
177.44710300100002
30
0.0
40
2.0389305634
50
-6.8514677947
51
85.12526887300001
0
ARC
8
CYAN
10
130.5934095718
20
143.72261755250003
30
0.0
40
35.9450036057
50
84.12244348699998
51
90.3186985881
0
ENDSEC
  0
EOF
